  0
SECTION
  2
HEADER
  9
$ACADVER
  1
AC1018
  9
$ACADMAINTVER
 70
     0
  9
$DWGCODEPAGE
  3
ANSI_932
  9
$INSBASE
 10
0.0
 20
0.0
 30
0.0
  9
$EXTMIN
 10
236.4636388763831
 20
171.6287515666504
 30
-0.0000000349181948
  9
$EXTMAX
 10
491.8951080681053
 20
367.0725802714662
 30
0.0000000814935746
  9
$LIMMIN
 10
0.0
 20
0.0
  9
$LIMMAX
 10
420.0
 20
297.0
  9
$ORTHOMODE
 70
     0
  9
$REGENMODE
 70
     1
  9
$FILLMODE
 70
     1
  9
$QTEXTMODE
 70
     0
  9
$MIRRTEXT
 70
     1
  9
$LTSCALE
 40
1.0
  9
$ATTMODE
 70
     1
  9
$TEXTSIZE
 40
2.5
  9
$TRACEWID
 40
1.0
  9
$TEXTSTYLE
  7
STYLE3
  9
$CLAYER
  8
文字
  9
$CELTYPE
  6
BYLAYER
  9
$CECOLOR
 62
   256
  9
$CELTSCALE
 40
1.0
  9
$DISPSILH
 70
     0
  9
$DIMSCALE
 40
1.0
  9
$DIMASZ
 40
2.5
  9
$DIMEXO
 40
0.0
  9
$DIMDLI
 40
3.75
  9
$DIMRND
 40
0.0
  9
$DIMDLE
 40
0.0
  9
$DIMEXE
 40
1.25
  9
$DIMTP
 40
0.0
  9
$DIMTM
 40
0.0
  9
$DIMTXT
 40
2.5
  9
$DIMCEN
 40
2.5
  9
$DIMTSZ
 40
0.0
  9
$DIMTOL
 70
     0
  9
$DIMLIM
 70
     0
  9
$DIMTIH
 70
     0
  9
$DIMTOH
 70
     0
  9
$DIMSE1
 70
     0
  9
$DIMSE2
 70
     0
  9
$DIMTAD
 70
     1
  9
$DIMZIN
 70
     8
  9
$DIMBLK
  1

  9
$DIMASO
 70
     1
  9
$DIMSHO
 70
     1
  9
$DIMPOST
  1

  9
$DIMAPOST
  1

  9
$DIMALT
 70
     0
  9
$DIMALTD
 70
     4
  9
$DIMALTF
 40
0.0394
  9
$DIMLFAC
 40
1.0
  9
$DIMTOFL
 70
     1
  9
$DIMTVP
 40
0.0
  9
$DIMTIX
 70
     0
  9
$DIMSOXD
 70
     0
  9
$DIMSAH
 70
     1
  9
$DIMBLK1
  1
OPEN
  9
$DIMBLK2
  1
OPEN
  9
$DIMSTYLE
  2
STYLE2
  9
$DIMCLRD
 70
     2
  9
$DIMCLRE
 70
     2
  9
$DIMCLRT
 70
     6
  9
$DIMTFAC
 40
1.0
  9
$DIMGAP
 40
0.625
  9
$DIMJUST
 70
     0
  9
$DIMSD1
 70
     0
  9
$DIMSD2
 70
     0
  9
$DIMTOLJ
 70
     1
  9
$DIMTZIN
 70
     0
  9
$DIMALTZ
 70
     0
  9
$DIMALTTZ
 70
     0
  9
$DIMUPT
 70
     0
  9
$DIMDEC
 70
     2
  9
$DIMTDEC
 70
     4
  9
$DIMALTU
 70
     8
  9
$DIMALTTD
 70
     4
  9
$DIMTXSTY
  7
STYLE3
  9
$DIMAUNIT
 70
     0
  9
$DIMADEC
 70
     0
  9
$DIMALTRND
 40
0.0
  9
$DIMAZIN
 70
     0
  9
$DIMDSEP
 70
    46
  9
$DIMATFIT
 70
     3
  9
$DIMFRAC
 70
     0
  9
$DIMLDRBLK
  1

  9
$DIMLUNIT
 70
     2
  9
$DIMLWD
 70
    -2
  9
$DIMLWE
 70
    -2
  9
$DIMTMOVE
 70
     0
  9
$LUNITS
 70
     2
  9
$LUPREC
 70
     4
  9
$SKETCHINC
 40
1.0
  9
$FILLETRAD
 40
0.0
  9
$AUNITS
 70
     0
  9
$AUPREC
 70
     0
  9
$MENU
  1
.
  9
$ELEVATION
 40
0.0
  9
$PELEVATION
 40
0.0
  9
$THICKNESS
 40
0.0
  9
$LIMCHECK
 70
     0
  9
$CHAMFERA
 40
1.0
  9
$CHAMFERB
 40
1.0
  9
$CHAMFERC
 40
20.0
  9
$CHAMFERD
 40
0.0
  9
$SKPOLY
 70
     0
  9
$TDCREATE
 40
2450717.578556713
  9
$TDUCREATE
 40
2450717.203556713
  9
$TDUPDATE
 40
2455356.464007524
  9
$TDUUPDATE
 40
2455356.089007524
  9
$TDINDWG
 40
0.5302316435
  9
$TDUSRTIMER
 40
0.5302316435
  9
$USRTIMER
 70
     1
  9
$ANGBASE
 50
0.0
  9
$ANGDIR
 70
     0
  9
$PDMODE
 70
     0
  9
$PDSIZE
 40
0.0
  9
$PLINEWID
 40
0.0
  9
$SPLFRAME
 70
     0
  9
$SPLINETYPE
 70
     6
  9
$SPLINESEGS
 70
     8
  9
$HANDSEED
  5
1B90
  9
$SURFTAB1
 70
     6
  9
$SURFTAB2
 70
     6
  9
$SURFTYPE
 70
     6
  9
$SURFU
 70
     6
  9
$SURFV
 70
     6
  9
$UCSBASE
  2

  9
$UCSNAME
  2

  9
$UCSORG
 10
0.0
 20
0.0
 30
0.0
  9
$UCSXDIR
 10
1.0
 20
0.0
 30
0.0
  9
$UCSYDIR
 10
0.0
 20
1.0
 30
0.0
  9
$UCSORTHOREF
  2

  9
$UCSORTHOVIEW
 70
     0
  9
$UCSORGTOP
 10
0.0
 20
0.0
 30
0.0
  9
$UCSORGBOTTOM
 10
0.0
 20
0.0
 30
0.0
  9
$UCSORGLEFT
 10
0.0
 20
0.0
 30
0.0
  9
$UCSORGRIGHT
 10
0.0
 20
0.0
 30
0.0
  9
$UCSORGFRONT
 10
0.0
 20
0.0
 30
0.0
  9
$UCSORGBACK
 10
0.0
 20
0.0
 30
0.0
  9
$PUCSBASE
  2

  9
$PUCSNAME
  2

  9
$PUCSORG
 10
0.0
 20
0.0
 30
0.0
  9
$PUCSXDIR
 10
1.0
 20
0.0
 30
0.0
  9
$PUCSYDIR
 10
0.0
 20
1.0
 30
0.0
  9
$PUCSORTHOREF
  2

  9
$PUCSORTHOVIEW
 70
     0
  9
$PUCSORGTOP
 10
0.0
 20
0.0
 30
0.0
  9
$PUCSORGBOTTOM
 10
0.0
 20
0.0
 30
0.0
  9
$PUCSORGLEFT
 10
0.0
 20
0.0
 30
0.0
  9
$PUCSORGRIGHT
 10
0.0
 20
0.0
 30
0.0
  9
$PUCSORGFRONT
 10
0.0
 20
0.0
 30
0.0
  9
$PUCSORGBACK
 10
0.0
 20
0.0
 30
0.0
  9
$USERI1
 70
     0
  9
$USERI2
 70
     0
  9
$USERI3
 70
     0
  9
$USERI4
 70
     0
  9
$USERI5
 70
     0
  9
$USERR1
 40
0.0
  9
$USERR2
 40
0.0
  9
$USERR3
 40
0.0
  9
$USERR4
 40
0.0
  9
$USERR5
 40
0.0
  9
$WORLDVIEW
 70
     1
  9
$SHADEDGE
 70
     3
  9
$SHADEDIF
 70
    70
  9
$TILEMODE
 70
     1
  9
$MAXACTVP
 70
    48
  9
$PINSBASE
 10
0.0
 20
0.0
 30
0.0
  9
$PLIMCHECK
 70
     0
  9
$PEXTMIN
 10
1.000000000000000E+20
 20
1.000000000000000E+20
 30
1.000000000000000E+20
  9
$PEXTMAX
 10
-1.000000000000000E+20
 20
-1.000000000000000E+20
 30
-1.000000000000000E+20
  9
$PLIMMIN
 10
0.0
 20
0.0
  9
$PLIMMAX
 10
420.0
 20
297.0
  9
$UNITMODE
 70
     0
  9
$VISRETAIN
 70
     1
  9
$PLINEGEN
 70
     0
  9
$PSLTSCALE
 70
     1
  9
$TREEDEPTH
 70
  3020
  9
$CMLSTYLE
  2
STANDARD
  9
$CMLJUST
 70
     0
  9
$CMLSCALE
 40
20.0
  9
$PROXYGRAPHICS
 70
     1
  9
$MEASUREMENT
 70
     1
  9
$CELWEIGHT
370
    -1
  9
$ENDCAPS
280
     0
  9
$JOINSTYLE
280
     0
  9
$LWDISPLAY
290
     0
  9
$INSUNITS
 70
     0
  9
$HYPERLINKBASE
  1

  9
$STYLESHEET
  1

  9
$XEDIT
290
     1
  9
$CEPSNTYPE
380
     0
  9
$PSTYLEMODE
290
     1
  9
$FINGERPRINTGUID
  2
{EEE2FD82-9162-4B9D-B36C-2CAA42A7A9C6}
  9
$VERSIONGUID
  2
{2BB1FE67-D1FF-4C34-8D5D-37138E7D948C}
  9
$EXTNAMES
290
     1
  9
$PSVPSCALE
 40
0.0
  9
$OLESTARTUP
290
     0
  9
$SORTENTS
280
    96
  9
$INDEXCTL
280
     0
  9
$HIDETEXT
280
     0
  9
$XCLIPFRAME
290
     0
  9
$HALOGAP
280
     0
  9
$OBSCOLOR
 70
   257
  9
$OBSLTYPE
280
     0
  9
$INTERSECTIONDISPLAY
280
     0
  9
$INTERSECTIONCOLOR
 70
   257
  9
$DIMASSOC
280
     1
  9
$PROJECTNAME
  1

  0
ENDSEC
  0
SECTION
  2
CLASSES
  0
CLASS
  1
HATCH
  2
AcDbHatch
  3
ObjectDBX Classes
 90
        0
 91
       14
280
     0
281
     1
  0
CLASS
  1
LWPOLYLINE
  2
AcDbPolyline
  3
ObjectDBX Classes
 90
        0
 91
        1
280
     0
281
     1
  0
CLASS
  1
IMAGEDEF
  2
AcDbRasterImageDef
  3
ISM
 90
        0
 91
        1
280
     0
281
     0
  0
CLASS
  1
DICTIONARYVAR
  2
AcDbDictionaryVar
  3
ObjectDBX Classes
 90
        0
 91
        2
280
     0
281
     0
  0
CLASS
  1
ACDBDICTIONARYWDFLT
  2
AcDbDictionaryWithDefault
  3
ObjectDBX Classes
 90
        0
 91
        1
280
     0
281
     0
  0
CLASS
  1
TABLESTYLE
  2
AcDbTableStyle
  3
ObjectDBX Classes
 90
     2047
 91
        1
280
     0
281
     0
  0
ENDSEC
  0
SECTION
  2
TABLES
  0
TABLE
  2
VPORT
  5
8
330
0
100
AcDbSymbolTable
 70
     2
  0
VPORT
  5
1B8F
330
8
100
AcDbSymbolTableRecord
100
AcDbViewportTableRecord
  2
*Active
 70
     0
 10
0.0
 20
0.0
 11
1.0
 21
1.0
 12
364.1793734722443
 22
269.3506659190583
 13
0.0
 23
0.0
 14
10.0
 24
10.0
 15
10.0
 25
10.0
 16
0.0
 26
0.0
 36
1.0
 17
0.0
 27
0.0
 37
0.0
 40
196.9300935618867
 41
1.530456852791878
 42
50.0
 43
0.0
 44
0.0
 50
0.0
 51
0.0
 71
     0
 72
   100
 73
     1
 74
     1
 75
     0
 76
     0
 77
     0
 78
     0
281
     0
 65
     1
110
0.0
120
0.0
130
0.0
111
1.0
121
0.0
131
0.0
112
0.0
122
1.0
132
0.0
 79
     0
146
0.0
  0
ENDTAB
  0
TABLE
  2
LTYPE
  5
5
330
0
100
AcDbSymbolTable
 70
     4
  0
LTYPE
  5
12
330
5
100
AcDbSymbolTableRecord
100
AcDbLinetypeTableRecord
  2
BYBLOCK
 70
     0
  3

 72
    65
 73
     0
 40
0.0
  0
LTYPE
  5
13
330
5
100
AcDbSymbolTableRecord
100
AcDbLinetypeTableRecord
  2
BYLAYER
 70
     0
  3

 72
    65
 73
     0
 40
0.0
  0
LTYPE
  5
14
330
5
100
AcDbSymbolTableRecord
100
AcDbLinetypeTableRecord
  2
CONTINUOUS
 70
     0
  3
Solid line
 72
    65
 73
     0
 40
0.0
  0
LTYPE
  5
22
330
5
100
AcDbSymbolTableRecord
100
AcDbLinetypeTableRecord
  2
CENTER2
 70
     0
  3
Center (.5x) ___ _ ___ _ ___ _ ___ _ ___ _ ___
 72
    65
 73
     4
 40
28.575
 49
19.05
 74
     0
 49
-3.174999999999999
 74
     0
 49
3.174999999999999
 74
     0
 49
-3.174999999999999
 74
     0
  0
LTYPE
  5
24
330
5
100
AcDbSymbolTableRecord
100
AcDbLinetypeTableRecord
  2
PHANTOM2
 70
     0
  3
Phantom (.5x) ___ _ _ ___ _ _ ___ _ _ ___ _ _
 72
    65
 73
     6
 40
31.75
 49
15.875
 74
     0
 49
-3.174999999999999
 74
     0
 49
3.174999999999999
 74
     0
 49
-3.174999999999999
 74
     0
 49
3.174999999999999
 74
     0
 49
-3.174999999999999
 74
     0
  0
ENDTAB
  0
TABLE
  2
LAYER
  5
2
330
0
100
AcDbSymbolTable
 70
    16
  0
LAYER
  5
E
330
2
100
AcDbSymbolTableRecord
100
AcDbLayerTableRecord
  2
0
 70
     0
 62
     7
  6
CONTINUOUS
370
    -3
390
1B2B
  0
LAYER
  5
25
330
2
100
AcDbSymbolTableRecord
100
AcDbLayerTableRecord
  2
外形線
 70
     0
 62
     7
  6
CONTINUOUS
370
    -3
390
1B2B
  0
LAYER
  5
27
330
2
100
AcDbSymbolTableRecord
100
AcDbLayerTableRecord
  2
中心線
 70
     0
 62
     4
  6
CENTER2
370
    -3
390
1B2B
  0
LAYER
  5
29
330
2
100
AcDbSymbolTableRecord
100
AcDbLayerTableRecord
  2
想像線
 70
     0
 62
     1
  6
PHANTOM2
370
    -3
390
1B2B
  0
LAYER
  5
2A
330
2
100
AcDbSymbolTableRecord
100
AcDbLayerTableRecord
  2
ﾊｯﾁﾝｸ
 70
     0
 62
     4
  6
CONTINUOUS
370
    -3
390
1B2B
  0
LAYER
  5
2B
330
2
100
AcDbSymbolTableRecord
100
AcDbLayerTableRecord
  2
文字
 70
     0
 62
     6
  6
CONTINUOUS
370
    -3
390
1B2B
  0
LAYER
  5
2C
330
2
100
AcDbSymbolTableRecord
100
AcDbLayerTableRecord
  2
目盛
 70
     0
 62
    70
  6
CONTINUOUS
370
    -3
390
1B2B
  0
LAYER
  5
2D
330
2
100
AcDbSymbolTableRecord
100
AcDbLayerTableRecord
  2
針
 70
     0
 62
     5
  6
CONTINUOUS
370
    -3
390
1B2B
  0
LAYER
  5
53
330
2
100
AcDbSymbolTableRecord
100
AcDbLayerTableRecord
  2
DEFPOINTS
 70
     0
 62
     7
  6
CONTINUOUS
290
     0
370
    -3
390
1B2B
  0
LAYER
  5
A5
330
2
100
AcDbSymbolTableRecord
100
AcDbLayerTableRecord
  2
C
 70
     0
 62
     7
  6
CONTINUOUS
370
    -3
390
1B2B
  0
LAYER
  5
E00
330
2
100
AcDbSymbolTableRecord
100
AcDbLayerTableRecord
  2
ROGO
 70
     0
 62
     6
  6
CONTINUOUS
370
    -3
390
1B2B
  0
ENDTAB
  0
TABLE
  2
STYLE
  5
3
330
0
100
AcDbSymbolTable
 70
     3
  0
STYLE
  5
F
330
3
100
AcDbSymbolTableRecord
100
AcDbTextStyleTableRecord
  2
STANDARD
 70
     0
 40
0.0
 41
1.0
 50
0.0
 71
     0
 42
2.5
  3
txt
  4

  0
STYLE
  5
3F
330
3
100
AcDbSymbolTableRecord
100
AcDbTextStyleTableRecord
  2
STYLE3
 70
     0
 40
0.0
 41
1.0
 50
0.0
 71
     0
 42
2.5
  3
romans.shx
  4
bigfont.shx
  0
ENDTAB
  0
TABLE
  2
VIEW
  5
6
330
0
100
AcDbSymbolTable
 70
     0
  0
ENDTAB
  0
TABLE
  2
UCS
  5
7
330
0
100
AcDbSymbolTable
 70
     0
  0
ENDTAB
  0
TABLE
  2
APPID
  5
9
330
0
100
AcDbSymbolTable
 70
     1
  0
APPID
  5
10
330
9
100
AcDbSymbolTableRecord
100
AcDbRegAppTableRecord
  2
ACAD
 70
     0
  0
ENDTAB
  0
TABLE
  2
DIMSTYLE
  5
A
330
0
100
AcDbSymbolTable
 70
     3
100
AcDbDimStyleTable
 71
     0
  0
DIMSTYLE
105
1D
330
A
100
AcDbSymbolTableRecord
100
AcDbDimStyleTableRecord
  2
STANDARD
 70
     0
 41
2.5
 42
0.625
 43
3.75
 44
1.25
 73
     0
 74
     0
 77
     1
 78
     8
140
2.5
141
2.5
143
0.0394
147
0.625
171
     4
172
     1
273
     8
274
     4
277
     6
340
F
  0
DIMSTYLE
105
66
330
A
100
AcDbSymbolTableRecord
100
AcDbDimStyleTableRecord
  2
STYLE2
 70
     0
 41
2.5
 42
0.0
 43
3.75
 44
1.25
 73
     0
 74
     0
 77
     1
 78
     8
140
2.5
141
2.5
143
0.0394
147
0.625
171
     4
172
     1
173
     1
176
     2
177
     2
178
     6
271
     1
273
     8
274
     4
340
3F
341
45
343
45
344
45
  0
ENDTAB
  0
TABLE
  2
BLOCK_RECORD
  5
1
330
0
100
AcDbSymbolTable
 70
     2
  0
BLOCK_RECORD
  5
18
330
1
100
AcDbSymbolTableRecord
100
AcDbBlockTableRecord
  2
*MODEL_SPACE
340
1B32
  0
BLOCK_RECORD
  5
15
330
1
100
AcDbSymbolTableRecord
100
AcDbBlockTableRecord
  2
*PAPER_SPACE
340
1B33
  0
BLOCK_RECORD
  5
45
330
1
100
AcDbSymbolTableRecord
100
AcDbBlockTableRecord
  2
_OPEN
340
0
102
{BLKREFS
331
875
331
876
331
FD7
331
FD8
331
10D5
331
10D6
331
130F
331
1310
331
142B
331
142C
331
1434
331
1435
331
1A5D
331
1A5E
331
1A66
331
1A67
331
1A6F
331
1A70
331
1A78
331
1A79
331
1A81
331
1A82
331
1A8C
331
1A8D
331
1A96
331
1A97
331
1A9E
331
1A9F
331
1AA6
331
1AA7
331
1AAF
331
1AB0
331
1AB8
331
1AB9
331
1AC0
331
1AC1
331
1AD5
331
1AD6
331
1AE0
331
1AE1
331
1AEF
331
1AF0
102
}
  0
ENDTAB
  0
ENDSEC
  0
SECTION
  2
BLOCKS
  0
BLOCK
  5
19
330
18
100
AcDbEntity
  8
0
100
AcDbBlockBegin
  2
*MODEL_SPACE
 70
     0
 10
0.0
 20
0.0
 30
0.0
  3
*MODEL_SPACE
  1

  0
ENDBLK
  5
1A
330
18
100
AcDbEntity
  8
0
100
AcDbBlockEnd
  0
BLOCK
  5
16
330
15
100
AcDbEntity
 67
     1
  8
0
100
AcDbBlockBegin
  2
*PAPER_SPACE
 70
     0
 10
0.0
 20
0.0
 30
0.0
  3
*PAPER_SPACE
  1

  0
ENDBLK
  5
17
330
15
100
AcDbEntity
 67
     1
  8
0
100
AcDbBlockEnd
  0
BLOCK
  5
46
330
45
100
AcDbEntity
  8
0
100
AcDbBlockBegin
  2
_OPEN
 70
     0
 10
0.0
 20
0.0
 30
0.0
  3
_OPEN
  1

  0
LINE
  5
47
330
45
100
AcDbEntity
  8
0
  6
ByBlock
 62
     0
100
AcDbLine
 10
-1.0
 20
0.1666666666666666
 30
0.0
 11
0.0
 21
0.0
 31
0.0
  0
LINE
  5
48
330
45
100
AcDbEntity
  8
0
  6
ByBlock
 62
     0
100
AcDbLine
 10
0.0
 20
0.0
 30
0.0
 11
-1.0
 21
-0.1666666666666666
 31
0.0
  0
LINE
  5
49
330
45
100
AcDbEntity
  8
0
  6
ByBlock
 62
     0
100
AcDbLine
 10
0.0
 20
0.0
 30
0.0
 11
-1.0
 21
0.0
 31
0.0
  0
ENDBLK
  5
4A
330
45
100
AcDbEntity
  8
0
100
AcDbBlockEnd
  0
ENDSEC
  0
SECTION
  2
ENTITIES
  0
LINE
  5
244
330
18
100
AcDbEntity
  8
中心線
 48
0.5
100
AcDbLine
 10
289.0821318244533
 20
279.4218565747021
 30
0.0
 11
356.7256904654597
 21
279.4218565747021
 31
0.0
  0
LINE
  5
245
330
18
100
AcDbEntity
  8
中心線
 48
0.5
100
AcDbLine
 10
327.1250591198275
 20
327.794661117459
 30
0.0
 11
327.1250591198275
 21
216.5576015896768
 31
0.0
  0
LINE
  5
2B7
330
18
100
AcDbEntity
  8
中心線
 48
0.2
100
AcDbLine
 10
323.4250591198275
 20
277.3838064975295
 30
0.0
 11
323.4250591198275
 21
261.694212475494
 31
0.0
  0
LINE
  5
2B9
330
18
100
AcDbEntity
  8
中心線
 48
0.2
100
AcDbLine
 10
316.4657839328978
 20
269.5205990788078
 30
0.0
 11
330.993771380878
 21
269.5205990788078
 31
0.0
  0
LINE
  5
2D3
330
18
100
AcDbEntity
  8
外形線
100
AcDbLine
 10
323.4250591198276
 20
234.421856574702
 30
0.0
 11
330.8250591198275
 21
234.421856574702
 31
0.0
  0
LINE
  5
2D4
330
18
100
AcDbEntity
  8
外形線
100
AcDbLine
 10
324.6250591198276
 20
228.421856574702
 30
0.0
 11
329.6250591198276
 21
228.421856574702
 31
0.0
  0
LINE
  5
2D5
330
18
100
AcDbEntity
  8
外形線
100
AcDbLine
 10
331.1250591198275
 20
251.860606603048
 30
0.0
 11
331.1250591198275
 21
238.9218565747021
 31
0.0
  0
LINE
  5
2D6
330
18
100
AcDbEntity
  8
外形線
100
AcDbLine
 10
323.1250591198275
 20
251.860606603048
 30
0.0
 11
323.1250591198275
 21
238.921856574702
 31
0.0
  0
LINE
  5
2DB
330
18
100
AcDbEntity
  8
外形線
100
AcDbLine
 10
329.6250591198275
 20
228.2218565747021
 30
0.0
 11
329.6250591198274
 21
225.121856574702
 31
0.0
  0
LINE
  5
2DC
330
18
100
AcDbEntity
  8
外形線
100
AcDbLine
 10
324.6250591198275
 20
228.2218565747021
 30
0.0
 11
324.6250591198275
 21
225.121856574702
 31
0.0
  0
LINE
  5
2DD
330
18
100
AcDbEntity
  8
外形線
100
AcDbLine
 10
324.8750591198275
 20
224.9218565747021
 30
0.0
 11
329.3750591198274
 21
224.9218565747021
 31
0.0
  0
LINE
  5
2DE
330
18
100
AcDbEntity
  8
外形線
100
AcDbLine
 10
324.6250591198274
 20
228.2218565747021
 30
0.0
 11
329.6250591198275
 21
228.2218565747021
 31
0.0
  0
LINE
  5
2DF
330
18
100
AcDbEntity
  8
外形線
100
AcDbLine
 10
324.6250591198274
 20
225.121856574702
 30
0.0
 11
329.6250591198275
 21
225.121856574702
 31
0.0
  0
LINE
  5
2E0
330
18
100
AcDbEntity
  8
外形線
100
AcDbLine
 10
329.3750591198275
 20
228.4218565747021
 30
0.0
 11
329.6250591198275
 21
228.2218565747021
 31
0.0
  0
LINE
  5
2E1
330
18
100
AcDbEntity
  8
外形線
100
AcDbLine
 10
324.8750591198275
 20
228.4218565747021
 30
0.0
 11
324.6250591198275
 21
228.2218565747021
 31
0.0
  0
LINE
  5
2E2
330
18
100
AcDbEntity
  8
外形線
100
AcDbLine
 10
329.6250591198275
 20
225.121856574702
 30
0.0
 11
329.3750591198275
 21
224.9218565747021
 31
0.0
  0
LINE
  5
2E3
330
18
100
AcDbEntity
  8
外形線
100
AcDbLine
 10
324.6250591198275
 20
225.121856574702
 30
0.0
 11
324.8750591198275
 21
224.9218565747021
 31
0.0
  0
LINE
  5
2E5
330
18
100
AcDbEntity
  8
外形線
100
AcDbLine
 10
325.8250591198275
 20
220.4218565747021
 30
0.0
 11
328.4250591198275
 21
220.4218565747021
 31
0.0
  0
LINE
  5
2E6
330
18
100
AcDbEntity
  8
外形線
100
AcDbLine
 10
329.3750591198275
 20
224.9218565747021
 30
0.0
 11
328.4250591198275
 21
220.4218565747021
 31
0.0
  0
LINE
  5
2E7
330
18
100
AcDbEntity
  8
外形線
100
AcDbLine
 10
324.8750591198275
 20
224.9218565747021
 30
0.0
 11
325.8250591198275
 21
220.4218565747021
 31
0.0
  0
ARC
  5
692
330
18
100
AcDbEntity
  8
外形線
  6
Continuous
100
AcDbCircle
 10
562.4620108844129
 20
279.421856574702
 30
0.0
 40
162.2099468255786
100
AcDbArc
 50
170.8659473968362
 51
189.1340526031637
  0
LINE
  5
6BD
330
18
100
AcDbEntity
  8
外形線
  6
Continuous
 62
     4
100
AcDbLine
 10
407.1089455089508
 20
279.4218565747021
 30
0.0
 11
403.3089455089508
 21
279.4218565747021
 31
0.0
  0
LINE
  5
6BE
330
18
100
AcDbEntity
  8
外形線
  6
Continuous
 62
     4
100
AcDbLine
 10
407.1089455089508
 20
280.4218565747021
 30
0.0
 11
403.3089455089508
 21
280.4218565747021
 31
0.0
  0
LINE
  5
6BF
330
18
100
AcDbEntity
  8
外形線
  6
Continuous
 62
     4
100
AcDbLine
 10
407.1089455089508
 20
282.4218565747021
 30
0.0
 11
403.3089455089508
 21
282.4218565747021
 31
0.0
  0
LINE
  5
6C0
330
18
100
AcDbEntity
  8
外形線
  6
Continuous
 62
     4
100
AcDbLine
 10
407.1089455089508
 20
281.4218565747021
 30
0.0
 11
403.3089455089508
 21
281.4218565747022
 31
0.0
  0
MTEXT
  5
778
330
18
100
AcDbEntity
  8
DEFPOINTS
  6
Continuous
100
AcDbMText
 10
735.8166661286731
 20
235.565234348894
 30
0.0
 40
1.0
 41
0.0
 71
     4
 72
     1
  1
\A1;
 73
     1
 44
1.0
  0
LINE
  5
789
330
18
100
AcDbEntity
  8
中心線
 48
0.5
100
AcDbLine
 10
414.7589455089507
 20
332.4406621034552
 30
0.0
 11
414.7589455089509
 21
216.5032742386538
 31
0.0
  0
LINE
  5
7C1
330
18
100
AcDbEntity
  8
外形線
100
AcDbLine
 10
418.7589455089508
 20
252.4218565747021
 30
0.0
 11
418.7589455089509
 21
238.9218565747021
 31
0.0
  0
LINE
  5
7C2
330
18
100
AcDbEntity
  8
外形線
100
AcDbLine
 10
410.758945508951
 20
252.4218565747021
 30
0.0
 11
410.7589455089509
 21
238.921856574702
 31
0.0
  0
LINE
  5
7D6
330
18
100
AcDbEntity
  8
中心線
 48
0.5
100
AcDbLine
 10
396.7822457629969
 20
279.4218565747021
 30
0.0
 11
445.4407901724335
 21
279.4218565747021
 31
0.0
  0
POINT
  5
842
330
18
100
AcDbEntity
  8
DEFPOINTS
  6
ByBlock
 62
     0
100
AcDbPoint
 10
327.1250591198275
 20
219.4218565747021
 30
0.0
  0
LINE
  5
874
330
18
100
AcDbEntity
  8
0
  6
ByBlock
 62
     2
100
AcDbLine
 10
325.6250591198275
 20
244.7716288702732
 30
0.0
 11
328.6250591198276
 21
244.7716288702732
 31
0.0
  0
INSERT
  5
875
330
18
100
AcDbEntity
  8
0
  6
ByBlock
 62
     2
100
AcDbBlockReference
  2
_OPEN
 10
323.1250591198275
 20
244.7716288702732
 30
0.0
 41
2.5
 42
2.5
 43
2.5
 50
180.0
  0
INSERT
  5
876
330
18
100
AcDbEntity
  8
0
  6
ByBlock
 62
     2
100
AcDbBlockReference
  2
_OPEN
 10
331.1250591198275
 20
244.7716288702732
 30
0.0
 41
2.5
 42
2.5
 43
2.5
  0
MTEXT
  5
877
330
18
100
AcDbEntity
  8
0
  6
ByBlock
 62
     6
100
AcDbMText
 10
327.9361616099687
 20
246.6466288702732
 30
0.0
 40
2.5
 41
0.0
 71
     5
 72
     1
  1
\A1;8.0
  7
STYLE3
 73
     1
 44
1.0
  0
POINT
  5
878
330
18
100
AcDbEntity
  8
DEFPOINTS
  6
ByBlock
 62
     0
100
AcDbPoint
 10
323.1250591198275
 20
244.2043259930045
 30
0.0
  0
POINT
  5
879
330
18
100
AcDbEntity
  8
DEFPOINTS
  6
ByBlock
 62
     0
100
AcDbPoint
 10
331.1250591198275
 20
244.0422396516588
 30
0.0
  0
POINT
  5
87A
330
18
100
AcDbEntity
  8
DEFPOINTS
  6
ByBlock
 62
     0
100
AcDbPoint
 10
331.1250591198275
 20
244.7716288702732
 30
0.0
  0
TEXT
  5
885
330
18
100
AcDbEntity
  8
文字
100
AcDbText
 10
323.0686506509304
 20
247.2164442081362
 30
0.0
 40
2.5
  1
φ
  7
STYLE3
100
AcDbText
  0
MTEXT
  5
887
330
18
100
AcDbEntity
  8
文字
100
AcDbMText
 10
302.9558756866726
 20
261.6432165871282
 30
0.0
 40
1.0
 41
6.927999999999999
 71
     1
 72
     5
  1

  7
STYLE3
 73
     1
 44
1.0
  0
LWPOLYLINE
  5
96E
330
18
100
AcDbEntity
  8
C
100
AcDbPolyline
 90
        5
 70
     0
 43
0.4
 10
236.6915604445414
 20
366.8501752555372
 10
491.6915604445414
 20
366.8501752555372
 10
491.6915604445414
 20
171.8501752555372
 10
236.6915604445414
 20
171.8501752555372
 10
236.6915604445414
 20
366.8501752555372
  0
MTEXT
  5
EB4
330
18
100
AcDbEntity
  8
DEFPOINTS
  6
Continuous
100
AcDbMText
 10
624.6916853418142
 20
184.890767874579
 30
0.0
 40
0.35
 41
0.0
 71
     4
 72
     1
  1
\A1;
 73
     1
 44
1.0
  0
ARC
  5
F7B
330
18
100
AcDbEntity
  8
外形線
100
AcDbCircle
 10
435.2589455089507
 20
279.4218565747019
 30
0.0
 40
8.0
100
AcDbArc
 50
270.0
 51
90.0
  0
CIRCLE
  5
F7C
330
18
100
AcDbEntity
  8
外形線
100
AcDbCircle
 10
435.2589455089507
 20
279.4218565747019
 30
0.0
 40
3.25
  0
ARC
  5
F7D
330
18
100
AcDbEntity
  8
外形線
100
AcDbCircle
 10
435.2589455089507
 20
279.4218565747019
 30
0.0
 40
7.5
100
AcDbArc
 50
270.0
 51
90.0
  0
LINE
  5
F7E
330
18
100
AcDbEntity
  8
外形線
100
AcDbLine
 10
435.2589455089507
 20
287.4218565747019
 30
0.0
 11
425.7338187994187
 21
287.4218565747018
 31
0.0
  0
LINE
  5
F7F
330
18
100
AcDbEntity
  8
外形線
100
AcDbLine
 10
435.2589455089507
 20
271.4218565747019
 30
0.0
 11
425.7338187994187
 21
271.4218565747019
 31
0.0
  0
ARC
  5
F90
330
18
100
AcDbEntity
  8
外形線
100
AcDbCircle
 10
435.2589455089507
 20
279.4218565747019
 30
0.0
 40
8.0
100
AcDbArc
 50
270.0
 51
90.0
  0
LINE
  5
F96
330
18
100
AcDbEntity
  8
外形線
100
AcDbLine
 10
435.2589455089507
 20
286.9218565747019
 30
0.0
 11
424.7589455089507
 21
286.9218565747019
 31
0.0
  0
LINE
  5
F97
330
18
100
AcDbEntity
  8
外形線
100
AcDbLine
 10
435.2589455089507
 20
271.9218565747019
 30
0.0
 11
424.7589455089508
 21
271.9218565747019
 31
0.0
  0
LINE
  5
F9A
330
18
100
AcDbEntity
  8
中心線
 48
0.5
100
AcDbLine
 10
435.2589455089507
 20
291.7386086239901
 30
0.0
 11
435.258945508951
 21
245.7584078587579
 31
0.0
  0
LINE
  5
FA4
330
18
100
AcDbEntity
  8
想像線
 48
0.5
100
AcDbLine
 10
430.7589455089507
 20
271.4218565747019
 30
0.0
 11
430.7589455089507
 21
287.4218565747019
 31
0.0
  0
LINE
  5
FA5
330
18
100
AcDbEntity
  8
想像線
 48
0.5
100
AcDbLine
 10
425.7589455089507
 20
271.420270831249
 30
0.0
 11
425.7589455089507
 21
287.4234423181548
 31
0.0
  0
LINE
  5
FD6
330
18
100
AcDbEntity
  8
0
  6
ByBlock
 62
     2
100
AcDbLine
 10
417.2589455089508
 20
246.6266240650476
 30
0.0
 11
432.2589455089508
 21
246.6266240650476
 31
0.0
  0
INSERT
  5
FD7
330
18
100
AcDbEntity
  8
0
  6
ByBlock
 62
     2
100
AcDbBlockReference
  2
_OPEN
 10
414.7589455089509
 20
246.6266240650476
 30
0.0
 41
2.5
 42
2.5
 43
2.5
 50
180.0
  0
INSERT
  5
FD8
330
18
100
AcDbEntity
  8
0
  6
ByBlock
 62
     2
100
AcDbBlockReference
  2
_OPEN
 10
434.7589455089508
 20
246.6266240650476
 30
0.0
 41
2.5
 42
2.5
 43
2.5
  0
MTEXT
  5
FD9
330
18
100
AcDbEntity
  8
0
  6
ByBlock
 62
     6
100
AcDbMText
 10
424.7589455089508
 20
248.5016240650476
 30
0.0
 40
2.5
 41
0.0
 71
     5
 72
     1
  1
\A1;20
  7
STYLE3
 73
     1
 44
1.0
  0
POINT
  5
FDC
330
18
100
AcDbEntity
  8
DEFPOINTS
  6
ByBlock
 62
     0
100
AcDbPoint
 10
434.7589455089508
 20
246.6266240650476
 30
0.0
  0
ARC
  5
100F
330
18
100
AcDbEntity
  8
外形線
100
AcDbCircle
 10
214.856907711335
 20
279.4218565747023
 30
0.0
 40
209.113883082216
100
AcDbArc
 50
353.1061493042645
 51
6.89385069573544
  0
LINE
  5
10D2
330
18
100
AcDbEntity
  8
0
  6
ByBlock
 62
     2
100
AcDbLine
 10
400.2589455089507
 20
279.4218565747021
 30
0.0
 11
400.2589455089507
 21
332.4406621034552
 31
0.0
  0
LINE
  5
10D4
330
18
100
AcDbEntity
  8
0
  6
ByBlock
 62
     2
100
AcDbLine
 10
402.7589455089508
 20
331.1906621034552
 30
0.0
 11
412.2589455089507
 21
331.1906621034552
 31
0.0
  0
INSERT
  5
10D5
330
18
100
AcDbEntity
  8
0
  6
ByBlock
 62
     2
100
AcDbBlockReference
  2
_OPEN
 10
400.2589455089507
 20
331.1906621034552
 30
0.0
 41
2.5
 42
2.5
 43
2.5
 50
180.0
  0
INSERT
  5
10D6
330
18
100
AcDbEntity
  8
0
  6
ByBlock
 62
     2
100
AcDbBlockReference
  2
_OPEN
 10
414.7589455089507
 20
331.1906621034552
 30
0.0
 41
2.5
 42
2.5
 43
2.5
  0
MTEXT
  5
10D7
330
18
100
AcDbEntity
  8
0
  6
ByBlock
 62
     6
100
AcDbMText
 10
407.5089455089507
 20
333.0656621034552
 30
0.0
 40
2.5
 41
0.0
 71
     5
 72
     1
  1
\A1;14.5
  7
STYLE3
 73
     1
 44
1.0
  0
POINT
  5
10D8
330
18
100
AcDbEntity
  8
DEFPOINTS
  6
ByBlock
 62
     0
100
AcDbPoint
 10
400.2589455089507
 20
279.4218565747021
 30
0.0
  0
POINT
  5
10DA
330
18
100
AcDbEntity
  8
DEFPOINTS
  6
ByBlock
 62
     0
100
AcDbPoint
 10
414.7589455089507
 20
331.1906621034552
 30
0.0
  0
LINE
  5
11EA
330
18
100
AcDbEntity
  8
外形線
100
AcDbLine
 10
329.6250591198275
 20
234.4218565747021
 30
0.0
 11
329.6250591198276
 21
228.421856574702
 31
0.0
  0
LINE
  5
11EB
330
18
100
AcDbEntity
  8
外形線
100
AcDbLine
 10
324.6250591198275
 20
234.4218565747021
 30
0.0
 11
324.6250591198276
 21
228.421856574702
 31
0.0
  0
LINE
  5
11EF
330
18
100
AcDbEntity
  8
外形線
100
AcDbLine
 10
331.0250591198275
 20
238.8218565747021
 30
0.0
 11
331.0250591198275
 21
234.621856574702
 31
0.0
  0
LINE
  5
11F0
330
18
100
AcDbEntity
  8
外形線
100
AcDbLine
 10
323.2250591198277
 20
238.8218565747021
 30
0.0
 11
323.2250591198276
 21
234.621856574702
 31
0.0
  0
LINE
  5
11F1
330
18
100
AcDbEntity
  8
外形線
100
AcDbLine
 10
323.4250591198276
 20
234.421856574702
 30
0.0
 11
323.2250591198276
 21
234.621856574702
 31
0.0
  0
LINE
  5
11F2
330
18
100
AcDbEntity
  8
外形線
100
AcDbLine
 10
330.8250591198275
 20
234.421856574702
 30
0.0
 11
331.0250591198275
 21
234.621856574702
 31
0.0
  0
LINE
  5
11F4
330
18
100
AcDbEntity
  8
外形線
100
AcDbLine
 10
323.2250591198276
 20
238.821856574702
 30
0.0
 11
331.0250591198275
 21
238.8218565747021
 31
0.0
  0
LINE
  5
11F6
330
18
100
AcDbEntity
  8
外形線
100
AcDbLine
 10
323.1250591198275
 20
238.921856574702
 30
0.0
 11
323.2250591198276
 21
238.821856574702
 31
0.0
  0
LINE
  5
11F7
330
18
100
AcDbEntity
  8
外形線
100
AcDbLine
 10
331.0250591198275
 20
238.8218565747021
 30
0.0
 11
331.1250591198275
 21
238.9218565747021
 31
0.0
  0
LINE
  5
11F8
330
18
100
AcDbEntity
  8
ﾊｯﾁﾝｸ
 62
     4
100
AcDbLine
 10
323.2250591198276
 20
234.621856574702
 30
0.0
 11
331.0250591198275
 21
234.621856574702
 31
0.0
  0
CIRCLE
  5
11F9
330
18
100
AcDbEntity
  8
外形線
100
AcDbCircle
 10
327.1250591198275
 20
279.4218565747021
 30
0.0
 40
27.85
  0
CIRCLE
  5
11FA
330
18
100
AcDbEntity
  8
外形線
100
AcDbCircle
 10
327.1250591198275
 20
279.4218565747021
 30
0.0
 40
24.75
  0
LINE
  5
123B
330
18
100
AcDbEntity
  8
外形線
100
AcDbLine
 10
402.3089455089508
 20
305.6718565747021
 30
0.0
 11
402.3089455089508
 21
253.171856574702
 31
0.0
  0
LINE
  5
123C
330
18
100
AcDbEntity
  8
外形線
100
AcDbLine
 10
403.3089455089508
 20
307.0218565747022
 30
0.0
 11
403.3089455089508
 21
251.8218565747019
 31
0.0
  0
LINE
  5
123D
330
18
100
AcDbEntity
  8
外形線
100
AcDbLine
 10
407.1089455089508
 20
307.0218565747022
 30
0.0
 11
407.1089455089508
 21
251.821856574702
 31
0.0
  0
LINE
  5
123E
330
18
100
AcDbEntity
  8
外形線
100
AcDbLine
 10
408.5089455089508
 20
305.8218565747021
 30
0.0
 11
408.5089455089509
 21
253.021856574702
 31
0.0
  0
LINE
  5
123F
330
18
100
AcDbEntity
  8
外形線
100
AcDbLine
 10
403.5589455089508
 20
307.2718565747022
 30
0.0
 11
406.8589455089508
 21
307.2718565747022
 31
0.0
  0
LINE
  5
1240
330
18
100
AcDbEntity
  8
外形線
100
AcDbLine
 10
403.3089455089508
 20
307.0218565747022
 30
0.0
 11
403.5589455089508
 21
307.2718565747022
 31
0.0
  0
LINE
  5
1241
330
18
100
AcDbEntity
  8
外形線
100
AcDbLine
 10
406.8589455089508
 20
307.2718565747022
 30
0.0
 11
407.1089455089508
 21
307.0218565747022
 31
0.0
  0
LINE
  5
1247
330
18
100
AcDbEntity
  8
外形線
100
AcDbLine
 10
402.3089455089508
 20
305.6718565747021
 30
0.0
 11
403.3089455089508
 21
306.0218565747022
 31
0.0
  0
LINE
  5
1248
330
18
100
AcDbEntity
  8
外形線
100
AcDbLine
 10
408.5089455089508
 20
305.8218565747021
 30
0.0
 11
407.1089455089508
 21
305.821856574702
 31
0.0
  0
LINE
  5
126C
330
18
100
AcDbEntity
  8
外形線
  6
Continuous
 62
     4
100
AcDbLine
 10
403.3089455089508
 20
305.5686190230127
 30
0.0
 11
407.1089455089508
 21
305.5686190230127
 31
0.0
  0
LINE
  5
126D
330
18
100
AcDbEntity
  8
外形線
  6
Continuous
 62
     4
100
AcDbLine
 10
403.3089455089508
 20
304.5686190230127
 30
0.0
 11
407.1089455089508
 21
304.5686190230127
 31
0.0
  0
LINE
  5
126E
330
18
100
AcDbEntity
  8
外形線
  6
Continuous
 62
     4
100
AcDbLine
 10
403.3089455089508
 20
303.5686190230127
 30
0.0
 11
407.1089455089508
 21
303.5686190230127
 31
0.0
  0
LINE
  5
126F
330
18
100
AcDbEntity
  8
外形線
  6
Continuous
 62
     4
100
AcDbLine
 10
403.3089455089508
 20
306.5686190230127
 30
0.0
 11
407.1089455089508
 21
306.5686190230127
 31
0.0
  0
LINE
  5
1270
330
18
100
AcDbEntity
  8
外形線
  6
Continuous
 62
     4
100
AcDbLine
 10
403.3089455089508
 20
301.5686190230127
 30
0.0
 11
407.1089455089508
 21
301.5686190230127
 31
0.0
  0
LINE
  5
1271
330
18
100
AcDbEntity
  8
外形線
  6
Continuous
 62
     4
100
AcDbLine
 10
403.3089455089508
 20
302.5686190230127
 30
0.0
 11
407.1089455089508
 21
302.5686190230127
 31
0.0
  0
LINE
  5
1272
330
18
100
AcDbEntity
  8
外形線
  6
Continuous
 62
     4
100
AcDbLine
 10
403.3089455089508
 20
257.2750941263915
 30
0.0
 11
407.1089455089508
 21
257.2750941263915
 31
0.0
  0
LINE
  5
1273
330
18
100
AcDbEntity
  8
外形線
  6
Continuous
 62
     4
100
AcDbLine
 10
403.3089455089508
 20
256.2750941263915
 30
0.0
 11
407.1089455089508
 21
256.2750941263915
 31
0.0
  0
LINE
  5
1274
330
18
100
AcDbEntity
  8
外形線
  6
Continuous
 62
     4
100
AcDbLine
 10
403.3089455089508
 20
255.2750941263914
 30
0.0
 11
407.1089455089508
 21
255.2750941263914
 31
0.0
  0
LINE
  5
1275
330
18
100
AcDbEntity
  8
外形線
  6
Continuous
 62
     4
100
AcDbLine
 10
403.3089455089508
 20
254.2750941263914
 30
0.0
 11
407.1089455089508
 21
254.2750941263914
 31
0.0
  0
LINE
  5
1276
330
18
100
AcDbEntity
  8
外形線
  6
Continuous
 62
     4
100
AcDbLine
 10
403.3089455089508
 20
253.2750941263915
 30
0.0
 11
407.1089455089508
 21
253.2750941263915
 31
0.0
  0
LINE
  5
1277
330
18
100
AcDbEntity
  8
外形線
  6
Continuous
 62
     4
100
AcDbLine
 10
403.3089455089508
 20
252.2750941263915
 30
0.0
 11
407.1089455089508
 21
252.2750941263915
 31
0.0
  0
LINE
  5
1278
330
18
100
AcDbEntity
  8
外形線
100
AcDbLine
 10
403.5589455089508
 20
251.571856574702
 30
0.0
 11
406.8589455089508
 21
251.571856574702
 31
0.0
  0
LINE
  5
1279
330
18
100
AcDbEntity
  8
外形線
100
AcDbLine
 10
402.3089455089508
 20
253.171856574702
 30
0.0
 11
403.3089455089508
 21
252.821856574702
 31
0.0
  0
LINE
  5
127A
330
18
100
AcDbEntity
  8
外形線
100
AcDbLine
 10
403.3089455089508
 20
251.821856574702
 30
0.0
 11
403.5589455089508
 21
251.571856574702
 31
0.0
  0
LINE
  5
127B
330
18
100
AcDbEntity
  8
外形線
100
AcDbLine
 10
408.5089455089508
 20
253.021856574702
 30
0.0
 11
407.1089455089508
 21
253.0218565747021
 31
0.0
  0
LINE
  5
127C
330
18
100
AcDbEntity
  8
外形線
100
AcDbLine
 10
406.8589455089508
 20
251.571856574702
 30
0.0
 11
407.1089455089508
 21
251.821856574702
 31
0.0
  0
LINE
  5
12A9
330
18
100
AcDbEntity
  8
外形線
  6
Continuous
100
AcDbLine
 10
408.5089455089508
 20
305.4218565747021
 30
0.0
 11
421.5589455089508
 21
305.4218565747021
 31
0.0
  0
LINE
  5
12AA
330
18
100
AcDbEntity
  8
外形線
100
AcDbLine
 10
409.7589455089509
 20
252.4218565747021
 30
0.0
 11
421.5589455089508
 21
252.4218565747021
 31
0.0
  0
LINE
  5
12AE
330
18
100
AcDbEntity
  8
外形線
 48
0.5
100
AcDbLine
 10
421.7589455089508
 20
305.2218565747021
 30
0.0
 11
421.7589455089508
 21
252.6218565747021
 31
0.0
  0
ARC
  5
12AF
330
18
100
AcDbEntity
  8
外形線
 48
0.5
100
AcDbCircle
 10
421.5589455089508
 20
305.2218565747021
 30
0.0
 40
0.2
100
AcDbArc
 50
0.0000000000001018
 51
89.99999999999991
  0
ARC
  5
12B0
330
18
100
AcDbEntity
  8
外形線
100
AcDbCircle
 10
421.5589455089508
 20
252.6218565747021
 30
0.0
 40
0.2
100
AcDbArc
 50
269.9999999999999
 51
0.0000000000000636
  0
LINE
  5
12BE
330
18
100
AcDbEntity
  8
外形線
 48
0.5
100
AcDbLine
 10
421.7589455089507
 20
304.5218565747021
 30
0.0
 11
422.4589455089508
 21
304.5218565747021
 31
0.0
  0
LINE
  5
12BF
330
18
100
AcDbEntity
  8
外形線
 48
0.5
100
AcDbLine
 10
421.7589455089508
 20
254.3218565747021
 30
0.0
 11
422.4589455089507
 21
254.3218565747021
 31
0.0
  0
LINE
  5
12C2
330
18
100
AcDbEntity
  8
外形線
 48
0.5
100
AcDbLine
 10
422.4589455089508
 20
304.5218565747021
 30
0.0
 11
422.4589455089507
 21
254.3218565747021
 31
0.0
  0
LINE
  5
12EC
330
18
100
AcDbEntity
  8
外形線
100
AcDbLine
 10
424.7589455089507
 20
286.9218565747019
 30
0.0
 11
424.7589455089508
 21
271.9218565747019
 31
0.0
  0
ARC
  5
12F0
330
18
100
AcDbEntity
  8
外形線
100
AcDbCircle
 10
425.7338187994187
 20
289.4218565747019
 30
0.0
 40
2.0
100
AcDbArc
 50
182.7149908937811
 51
270.0
  0
ARC
  5
12F1
330
18
100
AcDbEntity
  8
外形線
100
AcDbCircle
 10
425.7338187994187
 20
269.4218565747023
 30
0.0
 40
2.0
100
AcDbArc
 50
90.00000000000003
 51
177.2850091062188
  0
LINE
  5
130C
330
18
100
AcDbEntity
  8
0
  6
ByBlock
 62
     2
100
AcDbLine
 10
435.2589455089507
 20
287.4218565747019
 30
0.0
 11
452.6549185446976
 21
287.4218565747019
 31
0.0
  0
LINE
  5
130D
330
18
100
AcDbEntity
  8
0
  6
ByBlock
 62
     2
100
AcDbLine
 10
435.2589455089507
 20
271.4218565747019
 30
0.0
 11
452.6549185446976
 21
271.4218565747019
 31
0.0
  0
LINE
  5
130E
330
18
100
AcDbEntity
  8
0
  6
ByBlock
 62
     2
100
AcDbLine
 10
451.4049185446976
 20
284.9218565747019
 30
0.0
 11
451.4049185446976
 21
273.9218565747019
 31
0.0
  0
INSERT
  5
130F
330
18
100
AcDbEntity
  8
0
  6
ByBlock
 62
     2
100
AcDbBlockReference
  2
_OPEN
 10
451.4049185446976
 20
287.4218565747019
 30
0.0
 41
2.5
 42
2.5
 43
2.5
 50
90.0
  0
INSERT
  5
1310
330
18
100
AcDbEntity
  8
0
  6
ByBlock
 62
     2
100
AcDbBlockReference
  2
_OPEN
 10
451.4049185446976
 20
271.4218565747019
 30
0.0
 41
2.5
 42
2.5
 43
2.5
 50
270.0
  0
MTEXT
  5
1311
330
18
100
AcDbEntity
  8
0
  6
ByBlock
 62
     6
100
AcDbMText
 10
449.5299185446976
 20
279.4218565747019
 30
0.0
 40
2.5
 41
0.0
 71
     5
 72
     1
  1
φ16
  7
STYLE3
 11
0.0000000000000001
 21
1.0
 31
0.0
 73
     1
 44
1.0
  0
POINT
  5
1312
330
18
100
AcDbEntity
  8
DEFPOINTS
  6
ByBlock
 62
     0
100
AcDbPoint
 10
435.2589455089507
 20
287.4218565747019
 30
0.0
  0
POINT
  5
1313
330
18
100
AcDbEntity
  8
DEFPOINTS
  6
ByBlock
 62
     0
100
AcDbPoint
 10
435.2589455089507
 20
271.4218565747019
 30
0.0
  0
POINT
  5
1314
330
18
100
AcDbEntity
  8
DEFPOINTS
  6
ByBlock
 62
     0
100
AcDbPoint
 10
451.4049185446976
 20
271.4218565747019
 30
0.0
  0
LINE
  5
1323
330
18
100
AcDbEntity
  8
外形線
100
AcDbLine
 10
421.7589455089508
 20
253.4218565747021
 30
0.0
 11
408.5089455089508
 21
253.4218565747021
 31
0.0
  0
LINE
  5
1324
330
18
100
AcDbEntity
  8
外形線
100
AcDbLine
 10
409.7589455089509
 20
253.4218565747021
 30
0.0
 11
409.7589455089509
 21
252.4218565747021
 31
0.0
  0
LINE
  5
1326
330
18
100
AcDbEntity
  8
外形線
  6
Continuous
100
AcDbLine
 10
408.5089455089508
 20
304.9218565747021
 30
0.0
 11
421.7589455089508
 21
304.9218565747021
 31
0.0
  0
LINE
  5
1366
330
18
100
AcDbEntity
  8
外形線
  6
Continuous
 62
     4
100
AcDbLine
 10
407.1089455089508
 20
278.4218565747021
 30
0.0
 11
403.3089455089508
 21
278.4218565747021
 31
0.0
  0
LINE
  5
1367
330
18
100
AcDbEntity
  8
外形線
  6
Continuous
 62
     4
100
AcDbLine
 10
407.1089455089508
 20
277.4218565747021
 30
0.0
 11
403.3089455089508
 21
277.421856574702
 31
0.0
  0
LINE
  5
1368
330
18
100
AcDbEntity
  8
外形線
  6
Continuous
 62
     4
100
AcDbLine
 10
407.1089455089508
 20
276.4218565747021
 30
0.0
 11
403.3089455089508
 21
276.421856574702
 31
0.0
  0
LINE
  5
136A
330
18
100
AcDbEntity
  8
外形線
100
AcDbLine
 10
412.2589455089509
 20
234.4218565747021
 30
0.0
 11
412.2589455089509
 21
228.421856574702
 31
0.0
  0
LINE
  5
136B
330
18
100
AcDbEntity
  8
外形線
100
AcDbLine
 10
417.2589455089509
 20
234.4218565747021
 30
0.0
 11
417.258945508951
 21
228.421856574702
 31
0.0
  0
LINE
  5
136C
330
18
100
AcDbEntity
  8
外形線
100
AcDbLine
 10
412.2589455089509
 20
228.421856574702
 30
0.0
 11
417.258945508951
 21
228.421856574702
 31
0.0
  0
LINE
  5
136D
330
18
100
AcDbEntity
  8
外形線
100
AcDbLine
 10
417.0089455089509
 20
224.9218565747021
 30
0.0
 11
416.0589455089509
 21
220.4218565747021
 31
0.0
  0
LINE
  5
136E
330
18
100
AcDbEntity
  8
外形線
100
AcDbLine
 10
412.2589455089508
 20
225.121856574702
 30
0.0
 11
417.2589455089509
 21
225.121856574702
 31
0.0
  0
LINE
  5
136F
330
18
100
AcDbEntity
  8
外形線
100
AcDbLine
 10
412.2589455089508
 20
228.2218565747021
 30
0.0
 11
417.2589455089509
 21
228.2218565747021
 31
0.0
  0
LINE
  5
1370
330
18
100
AcDbEntity
  8
外形線
100
AcDbLine
 10
412.5089455089509
 20
224.9218565747021
 30
0.0
 11
417.0089455089508
 21
224.9218565747021
 31
0.0
  0
LINE
  5
1372
330
18
100
AcDbEntity
  8
外形線
100
AcDbLine
 10
412.2589455089509
 20
228.2218565747021
 30
0.0
 11
412.2589455089509
 21
225.121856574702
 31
0.0
  0
POINT
  5
1373
330
18
100
AcDbEntity
  8
DEFPOINTS
  6
ByBlock
 62
     0
100
AcDbPoint
 10
414.7589455089509
 20
219.4218565747021
 30
0.0
  0
LINE
  5
1374
330
18
100
AcDbEntity
  8
外形線
100
AcDbLine
 10
412.5089455089509
 20
224.9218565747021
 30
0.0
 11
413.4589455089509
 21
220.4218565747021
 31
0.0
  0
LINE
  5
1375
330
18
100
AcDbEntity
  8
外形線
100
AcDbLine
 10
413.4589455089509
 20
220.4218565747021
 30
0.0
 11
416.0589455089509
 21
220.4218565747021
 31
0.0
  0
LINE
  5
1377
330
18
100
AcDbEntity
  8
外形線
100
AcDbLine
 10
412.2589455089509
 20
225.121856574702
 30
0.0
 11
412.5089455089509
 21
224.9218565747021
 31
0.0
  0
LINE
  5
1378
330
18
100
AcDbEntity
  8
外形線
100
AcDbLine
 10
412.5089455089509
 20
228.4218565747021
 30
0.0
 11
412.2589455089509
 21
228.2218565747021
 31
0.0
  0
LINE
  5
1379
330
18
100
AcDbEntity
  8
外形線
100
AcDbLine
 10
417.2589455089509
 20
228.2218565747021
 30
0.0
 11
417.2589455089508
 21
225.121856574702
 31
0.0
  0
LINE
  5
137A
330
18
100
AcDbEntity
  8
外形線
100
AcDbLine
 10
417.2589455089509
 20
225.121856574702
 30
0.0
 11
417.0089455089509
 21
224.9218565747021
 31
0.0
  0
LINE
  5
137B
330
18
100
AcDbEntity
  8
外形線
100
AcDbLine
 10
417.0089455089509
 20
228.4218565747021
 30
0.0
 11
417.2589455089509
 21
228.2218565747021
 31
0.0
  0
LINE
  5
137C
330
18
100
AcDbEntity
  8
ﾊｯﾁﾝｸ
 62
     4
100
AcDbLine
 10
410.858945508951
 20
234.621856574702
 30
0.0
 11
418.6589455089508
 21
234.621856574702
 31
0.0
  0
LINE
  5
137D
330
18
100
AcDbEntity
  8
外形線
100
AcDbLine
 10
410.8589455089509
 20
238.821856574702
 30
0.0
 11
418.6589455089508
 21
238.8218565747021
 31
0.0
  0
LINE
  5
137E
330
18
100
AcDbEntity
  8
外形線
100
AcDbLine
 10
411.058945508951
 20
234.421856574702
 30
0.0
 11
418.4589455089509
 21
234.421856574702
 31
0.0
  0
LINE
  5
137F
330
18
100
AcDbEntity
  8
外形線
100
AcDbLine
 10
410.8589455089511
 20
238.8218565747021
 30
0.0
 11
410.858945508951
 21
234.621856574702
 31
0.0
  0
LINE
  5
1380
330
18
100
AcDbEntity
  8
外形線
100
AcDbLine
 10
411.058945508951
 20
234.421856574702
 30
0.0
 11
410.858945508951
 21
234.621856574702
 31
0.0
  0
LINE
  5
1381
330
18
100
AcDbEntity
  8
外形線
100
AcDbLine
 10
410.7589455089509
 20
238.921856574702
 30
0.0
 11
410.8589455089509
 21
238.821856574702
 31
0.0
  0
LINE
  5
1382
330
18
100
AcDbEntity
  8
外形線
100
AcDbLine
 10
418.6589455089508
 20
238.8218565747021
 30
0.0
 11
418.6589455089508
 21
234.621856574702
 31
0.0
  0
LINE
  5
1383
330
18
100
AcDbEntity
  8
外形線
100
AcDbLine
 10
418.4589455089509
 20
234.421856574702
 30
0.0
 11
418.6589455089508
 21
234.621856574702
 31
0.0
  0
LINE
  5
1384
330
18
100
AcDbEntity
  8
外形線
100
AcDbLine
 10
418.6589455089508
 20
238.8218565747021
 30
0.0
 11
418.7589455089509
 21
238.9218565747021
 31
0.0
  0
LINE
  5
1426
330
18
100
AcDbEntity
  8
0
  6
ByBlock
 62
     2
100
AcDbLine
 10
315.6512055234594
 20
234.421856574702
 30
0.0
 11
301.6539413778622
 21
234.421856574702
 31
0.0
  0
LINE
  5
1427
330
18
100
AcDbEntity
  8
0
  6
ByBlock
 62
     2
100
AcDbLine
 10
323.1250591198275
 20
238.921856574702
 30
0.0
 11
301.6539413778622
 21
238.921856574702
 31
0.0
  0
LINE
  5
1428
330
18
100
AcDbEntity
  8
0
  6
ByBlock
 62
     2
100
AcDbLine
 10
302.9039413778622
 20
231.921856574702
 30
0.0
 11
302.9039413778622
 21
229.421856574702
 31
0.0
  0
LINE
  5
1429
330
18
100
AcDbEntity
  8
0
  6
ByBlock
 62
     2
100
AcDbLine
 10
302.9039413778622
 20
241.421856574702
 30
0.0
 11
302.9039413778622
 21
243.9218565747021
 31
0.0
  0
LINE
  5
142A
330
18
100
AcDbEntity
  8
0
  6
ByBlock
 62
     2
100
AcDbLine
 10
302.9039413778622
 20
234.421856574702
 30
0.0
 11
302.9039413778622
 21
238.921856574702
 31
0.0
  0
INSERT
  5
142B
330
18
100
AcDbEntity
  8
0
  6
ByBlock
 62
     2
100
AcDbBlockReference
  2
_OPEN
 10
302.9039413778622
 20
234.421856574702
 30
0.0
 41
2.5
 42
2.5
 43
2.5
 50
90.0
  0
INSERT
  5
142C
330
18
100
AcDbEntity
  8
0
  6
ByBlock
 62
     2
100
AcDbBlockReference
  2
_OPEN
 10
302.9039413778622
 20
238.921856574702
 30
0.0
 41
2.5
 42
2.5
 43
2.5
 50
270.0
  0
MTEXT
  5
142D
330
18
100
AcDbEntity
  8
0
  6
ByBlock
 62
     6
100
AcDbMText
 10
299.6466993866307
 20
236.671856574702
 30
0.0
 40
2.5
 41
0.0
 71
     5
 72
     1
  1
\A1;4.5
  7
STYLE3
 11
0.0000000000000001
 21
1.0
 31
0.0
 73
     1
 44
1.0
  0
POINT
  5
142E
330
18
100
AcDbEntity
  8
DEFPOINTS
  6
ByBlock
 62
     0
100
AcDbPoint
 10
315.6512055234594
 20
234.421856574702
 30
0.0
  0
POINT
  5
142F
330
18
100
AcDbEntity
  8
DEFPOINTS
  6
ByBlock
 62
     0
100
AcDbPoint
 10
323.1250591198275
 20
238.921856574702
 30
0.0
  0
POINT
  5
1430
330
18
100
AcDbEntity
  8
DEFPOINTS
  6
ByBlock
 62
     0
100
AcDbPoint
 10
302.9039413778622
 20
238.921856574702
 30
0.0
  0
LINE
  5
1431
330
18
100
AcDbEntity
  8
0
  6
ByBlock
 62
     2
100
AcDbLine
 10
292.9695705883192
 20
279.4218565747021
 30
0.0
 11
295.4012250275214
 21
279.4218565747021
 31
0.0
  0
LINE
  5
1432
330
18
100
AcDbEntity
  8
0
  6
ByBlock
 62
     2
100
AcDbLine
 10
323.4250591198276
 20
234.421856574702
 30
0.0
 11
292.9012250275214
 21
234.421856574702
 31
0.0
  0
LINE
  5
1433
330
18
100
AcDbEntity
  8
0
  6
ByBlock
 62
     2
100
AcDbLine
 10
294.1512250275214
 20
276.9218565747021
 30
0.0
 11
294.1512250275214
 21
236.921856574702
 31
0.0
  0
INSERT
  5
1434
330
18
100
AcDbEntity
  8
0
  6
ByBlock
 62
     2
100
AcDbBlockReference
  2
_OPEN
 10
294.1512250275214
 20
279.4218565747021
 30
0.0
 41
2.5
 42
2.5
 43
2.5
 50
90.0
  0
INSERT
  5
1435
330
18
100
AcDbEntity
  8
0
  6
ByBlock
 62
     2
100
AcDbBlockReference
  2
_OPEN
 10
294.1512250275214
 20
234.421856574702
 30
0.0
 41
2.5
 42
2.5
 43
2.5
 50
270.0
  0
MTEXT
  5
1436
330
18
100
AcDbEntity
  8
0
  6
ByBlock
 62
     6
100
AcDbMText
 10
292.2762250275214
 20
256.9218565747021
 30
0.0
 40
2.5
 41
0.0
 71
     5
 72
     1
  1
\A1;45
  7
STYLE3
 11
0.0000000000000001
 21
1.0
 31
0.0
 73
     1
 44
1.0
  0
POINT
  5
1437
330
18
100
AcDbEntity
  8
DEFPOINTS
  6
ByBlock
 62
     0
100
AcDbPoint
 10
292.9695705883192
 20
279.4218565747021
 30
0.0
  0
POINT
  5
1438
330
18
100
AcDbEntity
  8
DEFPOINTS
  6
ByBlock
 62
     0
100
AcDbPoint
 10
323.4250591198276
 20
234.421856574702
 30
0.0
  0
POINT
  5
1439
330
18
100
AcDbEntity
  8
DEFPOINTS
  6
ByBlock
 62
     0
100
AcDbPoint
 10
294.1512250275214
 20
234.421856574702
 30
0.0
  0
LINE
  5
14FE
330
18
100
AcDbEntity
  8
外形線
  6
Continuous
100
AcDbLine
 10
323.4250591198275
 20
321.0218565747021
 30
0.0
 11
323.4250591198275
 21
314.5218565747021
 31
0.0
  0
LINE
  5
14FF
330
18
100
AcDbEntity
  8
外形線
  6
Continuous
100
AcDbLine
 10
330.8250591198275
 20
321.0218565747021
 30
0.0
 11
330.8250591198275
 21
314.5218565747021
 31
0.0
  0
LINE
  5
1500
330
18
100
AcDbEntity
  8
外形線
  6
Continuous
100
AcDbLine
 10
323.1250591198275
 20
308.5218565747021
 30
0.0
 11
331.1250591198275
 21
308.5218565747021
 31
0.0
  0
LINE
  5
1501
330
18
100
AcDbEntity
  8
外形線
  6
Continuous
100
AcDbLine
 10
323.1250591198276
 20
314.5218565747021
 30
0.0
 11
331.1250591198275
 21
314.5218565747021
 31
0.0
  0
LINE
  5
1502
330
18
100
AcDbEntity
  8
外形線
  6
Continuous
100
AcDbLine
 10
323.4250591198275
 20
308.5218565747021
 30
0.0
 11
323.4250591198275
 21
307.0249813978086
 31
0.0
  0
LINE
  5
1504
330
18
100
AcDbEntity
  8
外形線
  6
Continuous
100
AcDbLine
 10
323.1250591198276
 20
314.5218565747021
 30
0.0
 11
323.1250591198276
 21
308.5218565747021
 31
0.0
  0
LINE
  5
1505
330
18
100
AcDbEntity
  8
外形線
  6
Continuous
100
AcDbLine
 10
330.8250591198275
 20
308.5218565747021
 30
0.0
 11
330.8250591198276
 21
307.0249813978086
 31
0.0
  0
LINE
  5
1506
330
18
100
AcDbEntity
  8
外形線
  6
Continuous
100
AcDbLine
 10
331.1250591198275
 20
314.5218565747021
 30
0.0
 11
331.1250591198275
 21
308.5218565747021
 31
0.0
  0
ARC
  5
1507
330
18
100
AcDbEntity
  8
外形線
  6
Continuous
100
AcDbCircle
 10
327.1250591198275
 20
314.6768565747022
 30
0.0
 40
7.344999999999885
100
AcDbArc
 50
59.75198538337817
 51
120.2480146166212
  0
LINE
  5
1508
330
18
100
AcDbEntity
  8
外形線
  6
Continuous
100
AcDbLine
 10
323.4250591198275
 20
321.0218565747021
 30
0.0
 11
330.8250591198275
 21
321.0218565747021
 31
0.0
  0
POINT
  5
1509
330
18
100
AcDbEntity
  8
DEFPOINTS
  6
ByBlock
 62
     0
100
AcDbPoint
 10
327.1250591198275
 20
322.0218565747022
 30
0.0
  0
LINE
  5
1520
330
18
100
AcDbEntity
  8
外形線
  6
Continuous
100
AcDbLine
 10
418.7589455089507
 20
314.5218565747021
 30
0.0
 11
418.7589455089507
 21
308.5218565747021
 31
0.0
  0
LINE
  5
1522
330
18
100
AcDbEntity
  8
外形線
  6
Continuous
100
AcDbLine
 10
410.7589455089509
 20
314.5218565747021
 30
0.0
 11
410.7589455089509
 21
308.5218565747021
 31
0.0
  0
LINE
  5
1523
330
18
100
AcDbEntity
  8
外形線
  6
Continuous
100
AcDbLine
 10
410.7589455089508
 20
308.5218565747021
 30
0.0
 11
418.7589455089507
 21
308.5218565747021
 31
0.0
  0
LINE
  5
1524
330
18
100
AcDbEntity
  8
外形線
  6
Continuous
100
AcDbLine
 10
411.0589455089508
 20
308.5218565747021
 30
0.0
 11
411.0589455089508
 21
305.4218565747022
 31
0.0
  0
LINE
  5
1525
330
18
100
AcDbEntity
  8
外形線
  6
Continuous
100
AcDbLine
 10
418.4589455089508
 20
308.5218565747021
 30
0.0
 11
418.4589455089509
 21
305.4218565747022
 31
0.0
  0
ARC
  5
1526
330
18
100
AcDbEntity
  8
外形線
  6
Continuous
100
AcDbCircle
 10
414.7589455089507
 20
314.6768565747022
 30
0.0
 40
7.344999999999885
100
AcDbArc
 50
59.75198538337817
 51
120.2480146166212
  0
LINE
  5
1527
330
18
100
AcDbEntity
  8
外形線
  6
Continuous
100
AcDbLine
 10
411.0589455089508
 20
321.0218565747021
 30
0.0
 11
418.4589455089508
 21
321.0218565747021
 31
0.0
  0
LINE
  5
1528
330
18
100
AcDbEntity
  8
外形線
  6
Continuous
100
AcDbLine
 10
410.7589455089509
 20
314.5218565747021
 30
0.0
 11
418.7589455089507
 21
314.5218565747021
 31
0.0
  0
LINE
  5
1529
330
18
100
AcDbEntity
  8
外形線
  6
Continuous
100
AcDbLine
 10
411.0589455089508
 20
321.0218565747021
 30
0.0
 11
411.0589455089508
 21
314.5218565747021
 31
0.0
  0
POINT
  5
152A
330
18
100
AcDbEntity
  8
DEFPOINTS
  6
ByBlock
 62
     0
100
AcDbPoint
 10
414.7589455089507
 20
322.0218565747022
 30
0.0
  0
LINE
  5
152B
330
18
100
AcDbEntity
  8
外形線
  6
Continuous
100
AcDbLine
 10
418.4589455089508
 20
321.0218565747021
 30
0.0
 11
418.4589455089508
 21
314.5218565747021
 31
0.0
  0
HATCH
  5
1698
330
18
100
AcDbEntity
  8
ROGO
 62
     4
100
AcDbHatch
 10
0.0
 20
0.0
 30
0.0
210
0.0
220
0.0
230
1.0
  2
SOLID
 70
     1
 71
     1
 91
        1
 92
        7
 72
     0
 73
     1
 93
       11
 10
332.0939236459098
 20
288.5615178530239
 10
332.8117671408989
 20
288.561517853024
 10
333.0653099487814
 20
289.06999435848
 10
333.3188527566643
 20
288.561517853024
 10
334.0366805458148
 20
288.561517853024
 10
333.550987394379
 20
289.5355685801115
 10
334.731033872757
 20
290.5096193071991
 10
334.0132060836063
 20
290.5096193071992
 10
333.6770978266196
 20
290.2969262710875
 10
333.7831534437705
 20
290.5096193071992
 10
333.0653099487815
 20
290.5096193071991
 97
       11
330
16E0
330
16E3
330
16E4
330
169A
330
16D0
330
16A3
330
16CF
330
1699
330
16DF
330
16E2
330
16E1
 75
     0
 76
     1
 47
0.0514683685270805
 98
        1
 10
333.0035297936003
 20
289.6738458209376
450
        0
451
        0
460
0.0
461
0.0
452
        0
462
0.0
453
        0
470

  0
LINE
  5
1699
102
{ACAD_REACTORS
330
1698
102
}
330
18
100
AcDbEntity
  8
ROGO
 62
     4
100
AcDbLine
 10
333.0653099487815
 20
289.06999435848
 30
0.0
 11
333.3188527566643
 21
288.561517853024
 31
0.0
  0
LINE
  5
169A
102
{ACAD_REACTORS
330
1698
102
}
330
18
100
AcDbEntity
  8
ROGO
 62
     4
100
AcDbLine
 10
333.0653099487815
 20
290.5096193071991
 30
0.0
 11
333.7831534437705
 21
290.5096193071991
 31
0.0
  0
TEXT
  5
169C
330
18
100
AcDbEntity
  8
文字
100
AcDbText
 10
320.8469026184436
 20
286.2306316443584
 30
0.0
 40
1.0
  1
MADE  IN  JAPAN
  7
STYLE3
100
AcDbText
  0
HATCH
  5
169D
330
18
100
AcDbEntity
  8
ROGO
 62
     4
100
AcDbHatch
 10
0.0
 20
0.0
 30
0.0
210
0.0
220
0.0
230
1.0
  2
SOLID
 70
     1
 71
     1
 91
        2
 92
        5
 93
        6
 72
     1
 10
319.6250591198276
 20
288.561517853024
 11
320.5306199370269
 21
288.561517853024
 72
     1
 10
320.5306199370269
 20
288.561517853024
 11
320.847940121357
 21
289.2628889605627
 72
     1
 10
320.847940121357
 20
289.2628889605627
 11
321.6944537539157
 21
289.2628889605627
 72
     4
 94
        3
 73
     0
 74
     0
 95
       18
 96
       14
 40
0.108740278791501
 40
0.108740278791501
 40
0.108740278791501
 40
0.108740278791501
 40
0.6623149649549278
 40
1.384304701649787
 40
2.097394834876493
 40
2.774073369849618
 40
3.428974823686337
 40
4.005208313035923
 40
4.455173659284313
 40
4.720999734343524
 40
5.086034088486724
 40
5.569973738255373
 40
6.060470601257719
 40
6.060470601257719
 40
6.060470601257719
 40
6.060470601257719
 10
321.6944537539156
 20
289.2628889605627
 10
321.7540299848563
 20
289.2633326067155
 10
321.8913074336549
 20
289.2643548703106
 10
322.0833575103364
 20
289.3669522412993
 10
322.2654758553728
 20
289.4976538167941
 10
322.4121597930428
 20
289.6609517992498
 10
322.5035483056136
 20
289.8476550653416
 10
322.5177040973473
 20
290.0265929967032
 10
322.5090623342774
 20
290.1681306758349
 10
322.4473125965867
 20
290.2667859520012
 10
322.3831162090225
 20
290.366910968487
 10
322.2654017419484
 20
290.4536429766622
 10
322.1689517808738
 20
290.4916444890563
 10
322.1199050140125
 20
290.5096193071992
 72
     1
 10
322.1199050140128
 20
290.5096193071991
 11
320.5889616018141
 21
290.509619307199
 72
     1
 10
320.5889616018141
 20
290.509619307199
 11
319.6250591198276
 21
288.561517853024
 97
        6
330
16C5
330
16A4
330
16A7
330
16A3
330
16A5
330
16A2
 92
       20
 93
        4
 72
     1
 10
321.0438673713081
 20
289.6959459140159
 11
321.1938741548981
 21
290.0275051060888
 72
     1
 10
321.1938741548981
 20
290.0275051060888
 11
321.5793276568964
 21
290.0275051060888
 72
     4
 94
        3
 73
     0
 74
     0
 95
       15
 96
       11
 40
0.0
 40
0.0
 40
0.0
 40
0.0
 40
0.1461831775054869
 40
0.2128346657926855
 40
0.2884885421222081
 40
0.3400274801801145
 40
0.4215368452530754
 40
0.4703587283434508
 40
0.5541210812769089
 40
0.5820418834082098
 40
0.5820418834082098
 40
0.5820418834082098
 40
0.5820418834082098
 10
321.5793276568963
 20
290.0275051060887
 10
321.6342312235446
 20
290.0277565937307
 10
321.7141677966703
 20
290.0281227459045
 10
321.7578799618748
 20
289.9292409737798
 10
321.7382860852268
 20
289.8655765378999
 10
321.7136549853539
 20
289.8002130050215
 10
321.6701262533024
 20
289.7557974986084
 10
321.6117043191084
 20
289.7130178785125
 10
321.5564927994323
 20
289.7078392139416
 10
321.5205839035851
 20
289.698324574912
 10
321.5116066753262
 20
289.6959459140159
 72
     1
 10
321.5116066753262
 20
289.6959459140159
 11
321.0438673713081
 21
289.6959459140159
 97
        4
330
16A6
330
16A1
330
16C4
330
16A0
 75
     0
 76
     1
 47
0.0514683685270805
 98
        2
 10
320.5971442568295
 20
289.9037080543126
 10
320.5971442568295
 20
289.9037080543126
450
        0
451
        0
460
0.0
461
0.0
452
        0
462
0.0
453
        0
470

  0
HATCH
  5
169E
330
18
100
AcDbEntity
  8
ROGO
 62
     4
100
AcDbHatch
 10
0.0
 20
0.0
 30
0.0
210
0.0
220
0.0
230
1.0
  2
SOLID
 70
     1
 71
     0
 91
        1
 92
        7
 72
     0
 73
     1
 93
        4
 10
320.6189647548356
 20
288.7567859316765
 10
320.5306199370269
 20
288.561517853024
 10
332.0939236459098
 20
288.561517853024
 10
332.1912906164978
 20
288.7567859316765
 97
        0
 75
     0
 76
     1
 47
0.0514683685270805
 98
        1
 10
327.9259495600309
 20
288.7051406630579
450
        0
451
        0
460
0.0
461
0.0
452
        0
462
0.0
453
        0
470

  0
LINE
  5
169F
330
18
100
AcDbEntity
  8
ROGO
 62
     4
100
AcDbLine
 10
320.605422706502
 20
288.7567859316765
 30
0.0
 11
332.1912906164978
 21
288.7567859316765
 31
0.0
  0
LINE
  5
16A0
102
{ACAD_REACTORS
330
169D
102
}
330
18
100
AcDbEntity
  8
ROGO
 62
     4
100
AcDbLine
 10
321.5116066753263
 20
289.6959459140159
 30
0.0
 11
321.0438673713081
 21
289.6959459140159
 31
0.0
  0
LINE
  5
16A1
102
{ACAD_REACTORS
330
169D
102
}
330
18
100
AcDbEntity
  8
ROGO
 62
     4
100
AcDbLine
 10
321.5793276568964
 20
290.0275051060887
 30
0.0
 11
321.1938741548981
 21
290.0275051060887
 31
0.0
  0
LINE
  5
16A2
102
{ACAD_REACTORS
330
169D
102
}
330
18
100
AcDbEntity
  8
ROGO
 62
     4
100
AcDbLine
 10
321.6944537542091
 20
289.2628889605627
 30
0.0
 11
320.847940121357
 21
289.2628889605627
 31
0.0
  0
LINE
  5
16A3
102
{ACAD_REACTORS
330
169D
330
1698
102
}
330
18
100
AcDbEntity
  8
ROGO
 62
     4
100
AcDbLine
 10
319.6250591198275
 20
288.561517853024
 30
0.0
 11
332.8117671408988
 21
288.561517853024
 31
0.0
  0
LINE
  5
16A4
102
{ACAD_REACTORS
330
169D
102
}
330
18
100
AcDbEntity
  8
ROGO
 62
     4
100
AcDbLine
 10
320.5889616018142
 20
290.5096193071991
 30
0.0
 11
322.1199050140125
 21
290.5096193071991
 31
0.0
  0
LINE
  5
16A5
102
{ACAD_REACTORS
330
169D
102
}
330
18
100
AcDbEntity
  8
ROGO
 62
     4
100
AcDbLine
 10
320.847940121357
 20
289.2628889605627
 30
0.0
 11
320.5306199370269
 21
288.561517853024
 31
0.0
  0
LINE
  5
16A6
102
{ACAD_REACTORS
330
169D
102
}
330
18
100
AcDbEntity
  8
ROGO
 62
     4
100
AcDbLine
 10
321.1938741548981
 20
290.0275051060887
 30
0.0
 11
321.0438673713081
 21
289.6959459140159
 31
0.0
  0
LINE
  5
16A7
102
{ACAD_REACTORS
330
169D
102
}
330
18
100
AcDbEntity
  8
ROGO
 62
     4
100
AcDbLine
 10
320.5889616018142
 20
290.5096193071991
 30
0.0
 11
319.6250591198275
 21
288.5615178530239
 31
0.0
  0
HATCH
  5
16A8
330
18
100
AcDbEntity
  8
ROGO
 62
     4
100
AcDbHatch
 10
0.0
 20
0.0
 30
0.0
210
0.0
220
0.0
230
1.0
  2
SOLID
 70
     1
 71
     1
 91
        1
 92
        5
 93
        8
 72
     1
 10
328.5558188885121
 20
290.0457547862055
 11
328.787116720109
 21
290.5096193071992
 72
     1
 10
328.787116720109
 20
290.5096193071992
 11
327.5385906233456
 21
290.5096193071992
 72
     4
 94
        3
 73
     0
 74
     0
 95
       26
 96
       22
 40
0.0
 40
0.0
 40
0.0
 40
0.0
 40
0.2261711682465229
 40
0.3775752524709292
 40
0.4867499270747143
 40
0.568267124049349
 40
0.6739992068898783
 40
0.7511733198246171
 40
0.8905317800930589
 40
1.003967563249478
 40
1.081122071918962
 40
1.156776017963922
 40
1.292106219407743
 40
1.387800824155796
 40
1.439339762213627
 40
1.512549301287547
 40
1.565415552119591
 40
1.642001295672489
 40
1.685342202005951
 40
1.779656875742602
 40
1.822721775074863
 40
1.822721775074863
 40
1.822721775074863
 40
1.822721775074863
 10
327.5385906233454
 20
290.5096193071991
 10
327.4618246343048
 20
290.5050393166531
 10
327.333669759756
 20
290.4973933770751
 10
327.1929564871038
 20
290.4119115750873
 10
327.0898617057523
 20
290.3622162119007
 10
327.0163346327209
 20
290.2946595994147
 10
326.9624389901324
 20
290.2248785536338
 10
326.8944934148115
 20
290.1417349492339
 10
326.8390857396839
 20
290.044917586407
 10
326.810869979191
 20
289.9382079740964
 10
326.785876726343
 20
289.8531597939357
 10
326.7673413116205
 20
289.7583846961607
 10
326.7720572458566
 20
289.6559942504277
 10
326.778810679514
 20
289.5608992462769
 10
326.8089631185754
 20
289.4930156509878
 10
326.8433014057492
 20
289.4446872089451
 10
326.8853481681331
 20
289.3914587879572
 10
326.9313565210531
 20
289.3562057770972
 10
326.9694091843807
 20
289.2923425789791
 10
327.0360190878541
 20
289.2841931743146
 10
327.0783589924761
 20
289.2679734267609
 10
327.0916314440462
 20
289.2628889605627
 72
     1
 10
327.0916314440462
 20
289.2628889605626
 11
328.1654567036341
 21
289.2628889605628
 72
     1
 10
328.1654567036341
 20
289.2628889605628
 11
328.3967520858502
 21
289.7267485693579
 72
     1
 10
328.3967520858502
 20
289.7267485693579
 11
327.5995393899358
 21
289.7267485693579
 72
     4
 94
        3
 73
     0
 74
     0
 95
       16
 96
       12
 40
0.0
 40
0.0
 40
0.0
 40
0.0
 40
0.0683030918787651
 40
0.1373106805328241
 40
0.1784706056911381
 40
0.2179345026857031
 40
0.2612752368189221
 40
0.2915411730568249
 40
0.3202609197926786
 40
0.3785004428982989
 40
0.4977391777073984
 40
0.4977391777073984
 40
0.4977391777073984
 40
0.4977391777073984
 10
327.5995393899358
 20
289.7267485693579
 10
327.5754926456055
 20
289.7338234741284
 10
327.5271511322455
 20
289.7480462561728
 10
327.5231053379438
 20
289.8169930784952
 10
327.5286171473551
 20
289.8661233312992
 10
327.55170061748
 20
289.9018930243626
 10
327.5797048705161
 20
289.9279201824188
 10
327.5901320959446
 20
289.9618164862817
 10
327.6207819750719
 20
289.9874124364958
 10
327.6751324232322
 20
290.0304356532884
 10
327.7352346102771
 20
290.0395986371739
 10
327.7756142535455
 20
290.0457547862055
 72
     1
 10
327.7756142535454
 20
290.0457547862055
 11
328.5558188885121
 21
290.0457547862055
 97
        8
330
16D9
330
16A9
330
16AA
330
16DA
330
16DC
330
16DB
330
16DD
330
16DE
 75
     0
 76
     1
 47
0.0514683685270805
 98
        1
 10
327.9752464252571
 20
290.232082515852
450
        0
451
        0
460
0.0
461
0.0
452
        0
462
0.0
453
        0
470

  0
SPLINE
  5
16A9
102
{ACAD_REACTORS
330
16A8
102
}
330
18
100
AcDbEntity
  8
ROGO
 62
     4
100
AcDbSpline
210
0.0
220
0.0
230
1.0
 70
     8
 71
     3
 72
    26
 73
    22
 74
    20
 42
0.0000000001
 43
0.0000000001
 44
0.0000000001
 40
0.0
 40
0.0
 40
0.0
 40
0.0
 40
0.2261711682465229
 40
0.3775752524709292
 40
0.4867499270747143
 40
0.568267124049349
 40
0.6739992068898783
 40
0.7511733198246171
 40
0.8905317800930589
 40
1.003967563249478
 40
1.081122071918962
 40
1.156776017963922
 40
1.292106219407743
 40
1.387800824155796
 40
1.439339762213627
 40
1.512549301287547
 40
1.565415552119591
 40
1.642001295672489
 40
1.685342202005951
 40
1.779656875742602
 40
1.822721775074863
 40
1.822721775074863
 40
1.822721775074863
 40
1.822721775074863
 10
327.5385906233454
 20
290.5096193071991
 30
0.0
 10
327.4618246343048
 20
290.5050393166531
 30
0.0
 10
327.333669759756
 20
290.4973933770751
 30
0.0
 10
327.1929564871038
 20
290.4119115750873
 30
0.0
 10
327.0898617057523
 20
290.3622162119007
 30
0.0
 10
327.0163346327209
 20
290.2946595994147
 30
0.0
 10
326.9624389901324
 20
290.2248785536338
 30
0.0
 10
326.8944934148115
 20
290.1417349492339
 30
0.0
 10
326.8390857396839
 20
290.044917586407
 30
0.0
 10
326.810869979191
 20
289.9382079740964
 30
0.0
 10
326.785876726343
 20
289.8531597939357
 30
0.0
 10
326.7673413116205
 20
289.7583846961607
 30
0.0
 10
326.7720572458566
 20
289.6559942504277
 30
0.0
 10
326.778810679514
 20
289.5608992462769
 30
0.0
 10
326.8089631185754
 20
289.4930156509878
 30
0.0
 10
326.8433014057492
 20
289.4446872089451
 30
0.0
 10
326.8853481681331
 20
289.3914587879572
 30
0.0
 10
326.9313565210531
 20
289.3562057770972
 30
0.0
 10
326.9694091843807
 20
289.2923425789791
 30
0.0
 10
327.0360190878541
 20
289.2841931743146
 30
0.0
 10
327.0783589924761
 20
289.2679734267609
 30
0.0
 10
327.0916314440462
 20
289.2628889605627
 30
0.0
 11
327.5385906233454
 21
290.5096193071991
 31
0.0
 11
327.3151110336958
 21
290.4748303670599
 31
0.0
 11
327.1796686811463
 21
290.407165266338
 31
0.0
 11
327.0848592290664
 21
290.3530332298796
 31
0.0
 11
327.023910462476
 21
290.2989009728261
 31
0.0
 11
326.9561894809059
 21
290.2177028078408
 31
0.0
 11
326.9087847548659
 21
290.1568042392506
 31
0.0
 11
326.8410633838866
 21
290.0350068814751
 31
0.0
 11
326.8072030878061
 21
289.9267425879632
 31
0.0
 11
326.786886832276
 21
289.8523109551094
 31
0.0
 11
326.7733424023164
 21
289.7778793222559
 31
0.0
 11
326.7733424023164
 21
289.6425491208121
 31
0.0
 11
326.786886832276
 21
289.5478178915634
 31
0.0
 11
326.8072030878061
 21
289.5004521666416
 31
0.0
 11
326.8478355988663
 21
289.4395535980513
 31
0.0
 11
326.881696284356
 21
289.3989544052612
 31
0.0
 11
326.9358728359665
 21
289.3448223688027
 31
0.0
 11
326.9629613064765
 21
289.3109897081442
 31
0.0
 11
327.0509989329859
 21
289.2771572680808
 31
0.0
 11
327.0916314440462
 21
289.2628889605627
 31
0.0
  0
LINE
  5
16AA
102
{ACAD_REACTORS
330
16A8
102
}
330
18
100
AcDbEntity
  8
ROGO
 62
     4
100
AcDbLine
 10
327.0916314440461
 20
289.2628889605627
 30
0.0
 11
328.1654567036341
 21
289.2628889605627
 31
0.0
  0
HATCH
  5
16AB
330
18
100
AcDbEntity
  8
ROGO
 62
     4
100
AcDbHatch
 10
0.0
 20
0.0
 30
0.0
210
0.0
220
0.0
230
1.0
  2
SOLID
 70
     1
 71
     1
 91
        2
 92
        7
 72
     0
 73
     1
 93
        8
 10
326.1963533845145
 20
290.5096193071992
 10
325.1990758809355
 20
290.5096193071992
 10
324.3000343980543
 20
289.2628889605627
 10
324.9904998578013
 20
289.2628889605627
 10
325.1616717935944
 20
289.5002587047951
 10
325.9495763133594
 20
289.5002587047951
 10
326.0550253593178
 20
289.2628889605626
 10
326.7502004050998
 20
289.2628889605628
 97
        8
330
16B2
330
16B8
330
16B3
330
16B4
330
16B6
330
16AC
330
16B1
330
16AE
 92
       22
 72
     0
 73
     1
 93
        3
 10
325.8383560247884
 20
289.7506197318827
 10
325.342211995937
 20
289.7506197318826
 10
325.6492238983349
 20
290.1763632184584
 97
        3
330
16B5
330
16B7
330
16AD
 75
     0
 76
     1
 47
0.0128389261915577
 98
        2
 10
326.1182586759661
 20
290.2105111821108
 10
326.1182586759661
 20
290.2105111821108
450
        0
451
        0
460
0.0
461
0.0
452
        0
462
0.0
453
        0
470

  0
LINE
  5
16AC
102
{ACAD_REACTORS
330
16AB
102
}
330
18
100
AcDbEntity
  8
ROGO
 62
     4
100
AcDbLine
 10
325.9495763133594
 20
289.5002587047951
 30
0.0
 11
326.0550253593178
 21
289.2628889605627
 31
0.0
  0
LINE
  5
16AD
102
{ACAD_REACTORS
330
16AB
102
}
330
18
100
AcDbEntity
  8
ROGO
 62
     4
100
AcDbLine
 10
325.6492238983349
 20
290.1763632184582
 30
0.0
 11
325.8383560247884
 21
289.7506197318826
 31
0.0
  0
LINE
  5
16AE
102
{ACAD_REACTORS
330
16AB
102
}
330
18
100
AcDbEntity
  8
ROGO
 62
     4
100
AcDbLine
 10
326.1963533845145
 20
290.5096193071991
 30
0.0
 11
326.7502004050998
 21
289.2628889605627
 31
0.0
  0
HATCH
  5
16AF
330
18
100
AcDbEntity
  8
ROGO
 62
     4
100
AcDbHatch
 10
0.0
 20
0.0
 30
0.0
210
0.0
220
0.0
230
1.0
  2
SOLID
 70
     1
 71
     1
 91
        1
 92
        1
 93
       12
 72
     1
 10
323.0243483954138
 20
290.5096193071991
 11
324.7106030561422
 21
290.5096193071992
 72
     1
 10
324.7106030561422
 20
290.5096193071991
 11
324.5692964081695
 21
290.2240305764461
 72
     1
 10
324.5692964081695
 20
290.2240305764461
 11
323.6830435692003
 21
290.2240305764461
 72
     1
 10
323.6830435692003
 20
290.2240305764461
 11
323.5725593300575
 21
290.0007356778853
 72
     1
 10
323.5725593300575
 20
290.0007356778853
 11
324.4588121690267
 21
290.0007356778853
 72
     1
 10
324.4588121690267
 20
290.0007356778853
 11
324.3455209319495
 21
289.7717676776782
 72
     1
 10
324.3455209319495
 20
289.7717676776782
 11
323.4592680929803
 21
289.7717676776782
 72
     1
 10
323.4592680929803
 20
289.7717676776782
 11
323.3487791764658
 21
289.5484633258848
 72
     1
 10
323.3487791764659
 20
289.5484633258848
 11
324.2350320154351
 21
289.5484633258848
 72
     1
 10
324.2350320154351
 20
289.5484633258848
 11
324.093732475344
 21
289.2628889605627
 72
     1
 10
324.093732475344
 20
289.2628889605627
 11
322.4074778146156
 21
289.2628889605627
 72
     1
 10
322.4074778146156
 20
289.2628889605627
 11
323.0243483954138
 21
290.5096193071991
 97
       12
330
16B0
330
16C2
330
16BF
330
16C0
330
16BE
330
16BB
330
16BC
330
16B9
330
16BD
330
16BA
330
16C1
330
16C3
 75
     0
 76
     1
 98
        1
 10
254.0486257793622
 20
204.3037945533911
450
        0
451
        0
460
0.0
461
0.0
452
        0
462
0.0
453
        0
470

  0
LINE
  5
16B0
102
{ACAD_REACTORS
330
16AF
102
}
330
18
100
AcDbEntity
  8
ROGO
 62
     4
100
AcDbLine
 10
323.0243483954138
 20
290.5096193071991
 30
0.0
 11
324.7106030561422
 21
290.5096193071992
 31
0.0
  0
LINE
  5
16B1
102
{ACAD_REACTORS
330
16AB
102
}
330
18
100
AcDbEntity
  8
ROGO
 62
     4
100
AcDbLine
 10
326.7502004050998
 20
289.2628889605628
 30
0.0
 11
326.0550253593178
 21
289.2628889605627
 31
0.0
  0
LINE
  5
16B2
102
{ACAD_REACTORS
330
16AB
102
}
330
18
100
AcDbEntity
  8
ROGO
 62
     4
100
AcDbLine
 10
325.1990758809355
 20
290.5096193071991
 30
0.0
 11
326.1963533845145
 21
290.5096193071992
 31
0.0
  0
LINE
  5
16B3
102
{ACAD_REACTORS
330
16AB
102
}
330
18
100
AcDbEntity
  8
ROGO
 62
     4
100
AcDbLine
 10
324.3000343980543
 20
289.2628889605627
 30
0.0
 11
324.9904998578013
 21
289.2628889605627
 31
0.0
  0
LINE
  5
16B4
102
{ACAD_REACTORS
330
16AB
102
}
330
18
100
AcDbEntity
  8
ROGO
 62
     4
100
AcDbLine
 10
325.1616717935944
 20
289.5002587047951
 30
0.0
 11
324.9904998578013
 21
289.2628889605628
 31
0.0
  0
LINE
  5
16B5
102
{ACAD_REACTORS
330
16AB
102
}
330
18
100
AcDbEntity
  8
ROGO
 62
     4
100
AcDbLine
 10
325.342211995937
 20
289.7506197318826
 30
0.0
 11
325.8383560247884
 21
289.7506197318826
 31
0.0
  0
LINE
  5
16B6
102
{ACAD_REACTORS
330
16AB
102
}
330
18
100
AcDbEntity
  8
ROGO
 62
     4
100
AcDbLine
 10
325.1616717935944
 20
289.5002587047951
 30
0.0
 11
325.9495763133594
 21
289.5002587047951
 31
0.0
  0
LINE
  5
16B7
102
{ACAD_REACTORS
330
16AB
102
}
330
18
100
AcDbEntity
  8
ROGO
 62
     4
100
AcDbLine
 10
325.6492238983348
 20
290.1763632184582
 30
0.0
 11
325.342211995937
 21
289.7506197318826
 31
0.0
  0
LINE
  5
16B8
102
{ACAD_REACTORS
330
16AB
102
}
330
18
100
AcDbEntity
  8
ROGO
 62
     4
100
AcDbLine
 10
325.1990758809355
 20
290.5096193071991
 30
0.0
 11
324.3000343980543
 21
289.2628889605627
 31
0.0
  0
LINE
  5
16B9
102
{ACAD_REACTORS
330
16AF
102
}
330
18
100
AcDbEntity
  8
ROGO
 62
     4
100
AcDbLine
 10
323.4592680929803
 20
289.7717676776782
 30
0.0
 11
323.3487791764658
 21
289.5484633258848
 31
0.0
  0
LINE
  5
16BA
102
{ACAD_REACTORS
330
16AF
102
}
330
18
100
AcDbEntity
  8
ROGO
 62
     4
100
AcDbLine
 10
324.2350320154351
 20
289.5484633258848
 30
0.0
 11
324.093732475344
 21
289.2628889605627
 31
0.0
  0
LINE
  5
16BB
102
{ACAD_REACTORS
330
16AF
102
}
330
18
100
AcDbEntity
  8
ROGO
 62
     4
100
AcDbLine
 10
324.4588121690267
 20
290.0007356778853
 30
0.0
 11
324.3455209319495
 21
289.7717676776782
 31
0.0
  0
LINE
  5
16BC
102
{ACAD_REACTORS
330
16AF
102
}
330
18
100
AcDbEntity
  8
ROGO
 62
     4
100
AcDbLine
 10
323.4592680929803
 20
289.7717676776782
 30
0.0
 11
324.3455209319495
 21
289.7717676776782
 31
0.0
  0
LINE
  5
16BD
102
{ACAD_REACTORS
330
16AF
102
}
330
18
100
AcDbEntity
  8
ROGO
 62
     4
100
AcDbLine
 10
323.3487791764659
 20
289.5484633258848
 30
0.0
 11
324.2350320154351
 21
289.5484633258848
 31
0.0
  0
LINE
  5
16BE
102
{ACAD_REACTORS
330
16AF
102
}
330
18
100
AcDbEntity
  8
ROGO
 62
     4
100
AcDbLine
 10
323.5725593300575
 20
290.0007356778853
 30
0.0
 11
324.4588121690267
 21
290.0007356778853
 31
0.0
  0
LINE
  5
16BF
102
{ACAD_REACTORS
330
16AF
102
}
330
18
100
AcDbEntity
  8
ROGO
 62
     4
100
AcDbLine
 10
323.6830435692003
 20
290.2240305764461
 30
0.0
 11
324.5692964081695
 21
290.2240305764461
 31
0.0
  0
LINE
  5
16C0
102
{ACAD_REACTORS
330
16AF
102
}
330
18
100
AcDbEntity
  8
ROGO
 62
     4
100
AcDbLine
 10
323.6830435692003
 20
290.2240305764461
 30
0.0
 11
323.5725593300575
 21
290.0007356778853
 31
0.0
  0
LINE
  5
16C1
102
{ACAD_REACTORS
330
16AF
102
}
330
18
100
AcDbEntity
  8
ROGO
 62
     4
100
AcDbLine
 10
322.4074778146156
 20
289.2628889605627
 30
0.0
 11
324.093732475344
 21
289.2628889605627
 31
0.0
  0
LINE
  5
16C2
102
{ACAD_REACTORS
330
16AF
102
}
330
18
100
AcDbEntity
  8
ROGO
 62
     4
100
AcDbLine
 10
324.7106030561422
 20
290.5096193071991
 30
0.0
 11
324.5692964081695
 21
290.2240305764461
 31
0.0
  0
LINE
  5
16C3
102
{ACAD_REACTORS
330
16AF
102
}
330
18
100
AcDbEntity
  8
ROGO
 62
     4
100
AcDbLine
 10
323.0243483954138
 20
290.5096193071991
 30
0.0
 11
322.4074778146156
 21
289.2628889605627
 31
0.0
  0
SPLINE
  5
16C4
102
{ACAD_REACTORS
330
169D
102
}
330
18
100
AcDbEntity
  8
ROGO
 62
     4
100
AcDbSpline
210
0.0
220
0.0
230
1.0
 70
     8
 71
     3
 72
    15
 73
    11
 74
     9
 42
0.0000000001
 43
0.0000000001
 44
0.0000000001
 40
0.0
 40
0.0
 40
0.0
 40
0.0
 40
0.1461831775054869
 40
0.2128346657926855
 40
0.2884885421222081
 40
0.3400274801801145
 40
0.4215368452530754
 40
0.4703587283434508
 40
0.5541210812769089
 40
0.5820418834082098
 40
0.5820418834082098
 40
0.5820418834082098
 40
0.5820418834082098
 10
321.5793276568963
 20
290.0275051060887
 30
0.0
 10
321.6342312235446
 20
290.0277565937307
 30
0.0
 10
321.7141677966703
 20
290.0281227459045
 30
0.0
 10
321.7578799618748
 20
289.9292409737798
 30
0.0
 10
321.7382860852268
 20
289.8655765378999
 30
0.0
 10
321.7136549853539
 20
289.8002130050215
 30
0.0
 10
321.6701262533024
 20
289.7557974986084
 30
0.0
 10
321.6117043191084
 20
289.7130178785125
 30
0.0
 10
321.5564927994323
 20
289.7078392139416
 30
0.0
 10
321.5205839035851
 20
289.698324574912
 30
0.0
 10
321.5116066753262
 20
289.6959459140159
 30
0.0
 11
321.5793276568963
 21
290.0275051060887
 31
0.0
 11
321.7215418350164
 21
289.9936724454302
 31
0.0
 11
321.7486303055263
 21
289.93277387684
 31
0.0
 11
321.7350862649758
 21
289.8583422439864
 31
0.0
 11
321.7147700094458
 21
289.8109765190646
 31
0.0
 11
321.660593068426
 21
289.7500779504744
 31
0.0
 11
321.6199605573657
 21
289.7230118219476
 31
0.0
 11
321.5386951458361
 21
289.7027124461476
 31
0.0
 11
321.5116066753262
 21
289.6959459140159
 31
0.0
  0
SPLINE
  5
16C5
102
{ACAD_REACTORS
330
169D
102
}
330
18
100
AcDbEntity
  8
ROGO
 62
     4
100
AcDbSpline
210
0.0
220
0.0
230
1.0
 70
     8
 71
     3
 72
    18
 73
    14
 74
     0
 42
0.0000000001
 43
0.0000000001
 40
0.1087402787915014
 40
0.1087402787915014
 40
0.1087402787915014
 40
0.1087402787915014
 40
0.5992371417938475
 40
1.083176791562496
 40
1.448211145705696
 40
1.714037220764907
 40
2.164002567013297
 40
2.740236056362883
 40
3.395137510199602
 40
4.071816045172726
 40
4.784906178399433
 40
5.506895915094292
 40
6.060470601257719
 40
6.060470601257719
 40
6.060470601257719
 40
6.060470601257719
 10
322.1199050140125
 20
290.5096193071992
 30
0.0
 10
322.1689517808738
 20
290.4916444890563
 30
0.0
 10
322.2654017419484
 20
290.4536429766622
 30
0.0
 10
322.3831162090225
 20
290.366910968487
 30
0.0
 10
322.4473125965867
 20
290.2667859520012
 30
0.0
 10
322.5090623342774
 20
290.1681306758349
 30
0.0
 10
322.5177040973473
 20
290.0265929967032
 30
0.0
 10
322.5035483056136
 20
289.8476550653416
 30
0.0
 10
322.4121597930428
 20
289.6609517992498
 30
0.0
 10
322.2654758553728
 20
289.4976538167941
 30
0.0
 10
322.0833575103364
 20
289.3669522412993
 30
0.0
 10
321.8913074336549
 20
289.2643548703106
 30
0.0
 10
321.7540299848563
 20
289.2633326067155
 30
0.0
 10
321.6944537539156
 20
289.2628889605627
 30
0.0
  0
HATCH
  5
16C6
330
18
100
AcDbEntity
  8
ROGO
 62
     4
100
AcDbHatch
 10
0.0
 20
0.0
 30
0.0
210
0.0
220
0.0
230
1.0
  2
SOLID
 70
     1
 71
     1
 91
        2
 92
        5
 93
        6
 72
     4
 94
        3
 73
     0
 74
     0
 95
       38
 96
       34
 40
0.0
 40
0.0
 40
0.0
 40
0.0
 40
0.1716253587406623
 40
0.2255253290976248
 40
0.2947831262912113
 40
0.352498070257192
 40
0.401194707389018
 40
0.4658749546664991
 40
0.4989240118098149
 40
0.5361459251283493
 40
0.5910040209698863
 40
0.6531463397142244
 40
0.6934574532944029
 40
0.7372488460652118
 40
0.7859279681112547
 40
0.8598010024797554
 40
0.9299880888722469
 40
0.962617715058074
 40
0.99982743872465
 40
1.043908673224191
 40
1.075288847593852
 40
1.101594470956001
 40
1.139152958423429
 40
1.180423302418936
 40
1.221693416627877
 40
1.257804824007385
 40
1.340506365805091
 40
1.373135991990864
 40
1.438395283121515
 40
1.496081593396144
 40
1.606517709645446
 40
1.74278444224538
 40
1.93957343352095
 40
1.93957343352095
 40
1.93957343352095
 40
1.93957343352095
 10
329.4794602039672
 20
290.5148195065057
 10
329.4222523276541
 20
290.5107781733035
 10
329.34707797564
 20
290.505467635239
 10
329.2516241260424
 20
290.4793161263103
 10
329.1995912171749
 20
290.4481612581258
 10
329.1454405752107
 20
290.4252609366635
 10
329.0992721095884
 20
290.3913501018136
 10
329.0525736813013
 20
290.3738761753213
 10
329.0198740122978
 20
290.3423675625535
 10
328.9820268126883
 20
290.3231207419387
 10
328.951888415681
 20
290.2800407619407
 10
328.918202235944
 20
290.2397625417267
 10
328.8791220295749
 20
290.2103612373111
 10
328.8470483797162
 20
290.179481265609
 10
328.8176252657692
 20
290.1318241908968
 10
328.800211350064
 20
290.0685020505403
 10
328.7511244446507
 20
290.0285227347591
 10
328.7437334935903
 20
289.9804556682321
 10
328.7165820293021
 20
289.952096907831
 10
328.7047756230249
 20
289.9154898222438
 10
328.7002791752145
 20
289.8819512656824
 10
328.6948823656638
 20
289.8506285755711
 10
328.6807653339589
 20
289.817678489192
 10
328.6853731818143
 20
289.7769764490186
 10
328.6840605442975
 20
289.7375633125524
 10
328.6848330330169
 20
289.6843543510264
 10
328.6820450142449
 20
289.632548883643
 10
328.7042783713845
 20
289.5761722477699
 10
328.7174353342935
 20
289.5259202763419
 10
328.7534678174889
 20
289.4563403281589
 10
328.8156230958914
 20
289.3760601125636
 10
328.933816556943
 20
289.2786151412464
 10
329.0474630254205
 20
289.2687298025016
 10
329.1146120707318
 20
289.2628889605627
 72
     1
 10
329.1146120707319
 20
289.2628889605626
 11
329.8271103893426
 21
289.2628889605627
 72
     4
 94
        3
 73
     0
 74
     0
 95
       11
 96
        7
 40
0.1647869275458135
 40
0.1647869275458135
 40
0.1647869275458135
 40
0.1647869275458135
 40
0.2545010798212315
 40
0.5111620267764023
 40
0.7602998271033902
 40
0.8850764140209603
 40
0.8850764140209603
 40
0.8850764140209603
 40
0.8850764140209603
 10
329.8271103893425
 20
289.2628889605627
 10
329.8370526551291
 20
289.2626973520961
 10
329.8754384973963
 20
289.2619575758184
 10
329.9410403619541
 20
289.2713820548904
 10
330.0100622627702
 20
289.2804133434089
 10
330.0512112273296
 20
289.2869905583162
 10
330.0644827810675
 20
289.2906847003575
 72
     4
 94
        3
 73
     0
 74
     0
 95
        9
 96
        5
 40
0.0
 40
0.0
 40
0.0
 40
0.0
 40
0.1078348623950619
 40
0.2528255661270943
 40
0.2528255661270943
 40
0.2528255661270943
 40
0.2528255661270943
 10
330.0644827810675
 20
289.2906847003575
 10
330.0991224587905
 20
289.3012824853762
 10
330.1803373454818
 20
289.3261296538848
 10
330.2474394460913
 20
289.3786444551893
 10
330.285921237859
 20
289.4087607053539
 72
     4
 94
        3
 73
     0
 74
     0
 95
       25
 96
       21
 40
0.0
 40
0.0
 40
0.0
 40
0.0
 40
0.165525918914855
 40
0.3412380755365305
 40
0.5940540902285263
 40
0.7697671103696209
 40
0.9377330196075423
 40
1.11479469302833
 40
1.274661249598185
 40
1.574522170874768
 40
1.815540668866877
 40
2.15849091873445
 40
2.536227739636605
 40
2.738070817316548
 40
2.925680654369045
 40
3.162706124480894
 40
3.395643218188267
 40
3.648478129958861
 40
3.928509979727306
 40
4.337226830236035
 40
4.337226830236035
 40
4.337226830236035
 40
4.337226830236035
 10
330.285921237859
 20
289.4087607053539
 10
330.3000606732577
 20
289.4204450143653
 10
330.3268793163742
 20
289.4482347503046
 10
330.3744465960165
 20
289.4932757206898
 10
330.4163637848652
 20
289.545752025425
 10
330.4680716551426
 20
289.5882822313044
 10
330.4949906107466
 20
289.6402785607036
 10
330.5337921603405
 20
289.6811725662518
 10
330.5663403066522
 20
289.7443293240109
 10
330.593955800141
 20
289.8168764315147
 10
330.6202833599543
 20
289.9114402074296
 10
330.6303723524762
 20
290.0181222028997
 10
330.6154393888724
 20
290.1213369799785
 10
330.5793651237132
 20
290.1984866354969
 10
330.5528437816067
 20
290.2627829220808
 10
330.512594322287
 20
290.3236828263878
 10
330.46667512919
 20
290.3899182071364
 10
330.4019831172045
 20
290.4447055902545
 10
330.3174372996202
 20
290.5107880028143
 10
330.2386891835283
 20
290.5133180985659
 10
330.191958522578
 20
290.5148195065057
 72
     1
 10
330.191958522578
 20
290.5148195065057
 11
329.4794602039671
 21
290.5148195065057
 97
        6
330
16CC
330
16CB
330
16CD
330
16CA
330
16C9
330
16C8
 92
       20
 93
        1
 72
     3
 10
329.6431962159754
 20
289.8713991652837
 11
0.1692676504802256
 21
0.148849717495386
 40
0.6788083417438791
 50
0.0
 51
360.0
 73
     1
 97
        1
330
16C7
 75
     0
 76
     1
 47
0.088756267210375
 98
        2
 10
329.6929756889738
 20
290.1690312728312
 10
329.6929756889738
 20
290.1690312728312
450
        0
451
        0
460
0.0
461
0.0
452
        0
462
0.0
453
        0
470

  0
ELLIPSE
  5
16C7
102
{ACAD_REACTORS
330
16C6
102
}
330
18
100
AcDbEntity
  8
ROGO
 62
     4
100
AcDbEllipse
 10
329.6431962159754
 20
289.8713991652837
 30
0.0
 11
0.1692676504802256
 21
0.148849717495386
 31
0.0
210
0.0
220
0.0
230
1.0
 40
0.6788083417438791
 41
0.0
 42
6.283185307179586
  0
SPLINE
  5
16C8
102
{ACAD_REACTORS
330
16C6
102
}
330
18
100
AcDbEntity
  8
ROGO
 62
     4
100
AcDbSpline
210
0.0
220
0.0
230
1.0
 70
     8
 71
     3
 72
     9
 73
     5
 74
     3
 42
0.0000000001
 43
0.0000000001
 44
0.0000000001
 40
0.0
 40
0.0
 40
0.0
 40
0.0
 40
0.1078348623950619
 40
0.2528255661270943
 40
0.2528255661270943
 40
0.2528255661270943
 40
0.2528255661270943
 10
330.0644827810675
 20
289.2906847003575
 30
0.0
 10
330.0991224587905
 20
289.3012824853762
 30
0.0
 10
330.1803373454818
 20
289.3261296538848
 30
0.0
 10
330.2474394460913
 20
289.3786444551893
 30
0.0
 10
330.285921237859
 20
289.4087607053539
 30
0.0
 11
330.0644827810675
 21
289.2906847003575
 31
0.0
 11
330.1658344401179
 21
289.327511304267
 31
0.0
 11
330.285921237859
 21
289.4087607053539
 31
0.0
  0
SPLINE
  5
16C9
102
{ACAD_REACTORS
330
16C6
102
}
330
18
100
AcDbEntity
  8
ROGO
 62
     4
100
AcDbSpline
210
0.0
220
0.0
230
1.0
 70
     8
 71
     3
 72
    11
 73
     7
 74
     0
 42
0.0000000001
 43
0.0000000001
 40
0.1647869275458134
 40
0.1647869275458134
 40
0.1647869275458134
 40
0.1647869275458134
 40
0.2895635144633836
 40
0.5387013147903714
 40
0.7953622617455423
 40
0.8850764140209602
 40
0.8850764140209602
 40
0.8850764140209602
 40
0.8850764140209602
 10
330.0644827810675
 20
289.2906847003575
 30
0.0
 10
330.0512112273296
 20
289.2869905583162
 30
0.0
 10
330.0100622627702
 20
289.2804133434089
 30
0.0
 10
329.9410403619541
 20
289.2713820548904
 30
0.0
 10
329.8754384973963
 20
289.2619575758184
 30
0.0
 10
329.8370526551291
 20
289.2626973520961
 30
0.0
 10
329.8271103893425
 20
289.2628889605627
 30
0.0
  0
LINE
  5
16CA
102
{ACAD_REACTORS
330
16C6
102
}
330
18
100
AcDbEntity
  8
ROGO
 62
     4
100
AcDbLine
 10
329.1146120707318
 20
289.2628889605627
 30
0.0
 11
329.8271103893425
 21
289.2628889605627
 31
0.0
  0
LINE
  5
16CB
102
{ACAD_REACTORS
330
16C6
102
}
330
18
100
AcDbEntity
  8
ROGO
 62
     4
100
AcDbLine
 10
329.4794602039672
 20
290.5148195065057
 30
0.0
 11
330.191958522578
 21
290.5148195065057
 31
0.0
  0
SPLINE
  5
16CC
102
{ACAD_REACTORS
330
16C6
102
}
330
18
100
AcDbEntity
  8
ROGO
 62
     4
100
AcDbSpline
210
0.0
220
0.0
230
1.0
 70
     8
 71
     3
 72
    25
 73
    21
 74
     0
 42
0.0000000001
 43
0.0000000001
 40
0.0
 40
0.0
 40
0.0
 40
0.0
 40
0.4087168505087288
 40
0.6887487002771746
 40
0.9415836120477687
 40
1.17452070575514
 40
1.41154617586699
 40
1.599156012919487
 40
1.80099909059943
 40
2.178735911501585
 40
2.521686161369157
 40
2.762704659361267
 40
3.06256558063785
 40
3.222432137207705
 40
3.399493810628493
 40
3.567459719866414
 40
3.743172740007509
 40
3.995988754699505
 40
4.17170091132118
 40
4.337226830236035
 40
4.337226830236035
 40
4.337226830236035
 40
4.337226830236035
 10
330.191958522578
 20
290.5148195065057
 30
0.0
 10
330.2386891835283
 20
290.5133180985659
 30
0.0
 10
330.3174372996202
 20
290.5107880028143
 30
0.0
 10
330.4019831172045
 20
290.4447055902545
 30
0.0
 10
330.46667512919
 20
290.3899182071364
 30
0.0
 10
330.512594322287
 20
290.3236828263878
 30
0.0
 10
330.5528437816067
 20
290.2627829220808
 30
0.0
 10
330.5793651237132
 20
290.1984866354969
 30
0.0
 10
330.6154393888724
 20
290.1213369799785
 30
0.0
 10
330.6303723524762
 20
290.0181222028997
 30
0.0
 10
330.6202833599543
 20
289.9114402074296
 30
0.0
 10
330.593955800141
 20
289.8168764315147
 30
0.0
 10
330.5663403066522
 20
289.7443293240109
 30
0.0
 10
330.5337921603405
 20
289.6811725662518
 30
0.0
 10
330.4949906107466
 20
289.6402785607036
 30
0.0
 10
330.4680716551426
 20
289.5882822313044
 30
0.0
 10
330.4163637848652
 20
289.545752025425
 30
0.0
 10
330.3744465960165
 20
289.4932757206898
 30
0.0
 10
330.3268793163742
 20
289.4482347503046
 30
0.0
 10
330.3000606732577
 20
289.4204450143653
 30
0.0
 10
330.285921237859
 20
289.4087607053539
 30
0.0
  0
SPLINE
  5
16CD
102
{ACAD_REACTORS
330
16C6
102
}
330
18
100
AcDbEntity
  8
ROGO
 62
     4
100
AcDbSpline
210
0.0
220
0.0
230
1.0
 70
     8
 71
     3
 72
    38
 73
    34
 74
    32
 42
0.0000000001
 43
0.0000000001
 44
0.0000000001
 40
0.0
 40
0.0
 40
0.0
 40
0.0
 40
0.1716253587406623
 40
0.2255253290976248
 40
0.2947831262912113
 40
0.352498070257192
 40
0.401194707389018
 40
0.4658749546664991
 40
0.4989240118098149
 40
0.5361459251283493
 40
0.5910040209698863
 40
0.6531463397142244
 40
0.6934574532944029
 40
0.7372488460652118
 40
0.7859279681112547
 40
0.8598010024797554
 40
0.9299880888722469
 40
0.962617715058074
 40
0.99982743872465
 40
1.043908673224191
 40
1.075288847593852
 40
1.101594470956001
 40
1.139152958423429
 40
1.180423302418936
 40
1.221693416627877
 40
1.257804824007385
 40
1.340506365805091
 40
1.373135991990864
 40
1.438395283121515
 40
1.496081593396144
 40
1.606517709645446
 40
1.74278444224538
 40
1.93957343352095
 40
1.93957343352095
 40
1.93957343352095
 40
1.93957343352095
 10
329.4794602039672
 20
290.5148195065057
 30
0.0
 10
329.4222523276541
 20
290.5107781733035
 30
0.0
 10
329.34707797564
 20
290.505467635239
 30
0.0
 10
329.2516241260424
 20
290.4793161263103
 30
0.0
 10
329.1995912171749
 20
290.4481612581258
 30
0.0
 10
329.1454405752107
 20
290.4252609366635
 30
0.0
 10
329.0992721095884
 20
290.3913501018136
 30
0.0
 10
329.0525736813013
 20
290.3738761753213
 30
0.0
 10
329.0198740122978
 20
290.3423675625535
 30
0.0
 10
328.9820268126883
 20
290.3231207419387
 30
0.0
 10
328.951888415681
 20
290.2800407619407
 30
0.0
 10
328.918202235944
 20
290.2397625417267
 30
0.0
 10
328.8791220295749
 20
290.2103612373111
 30
0.0
 10
328.8470483797162
 20
290.179481265609
 30
0.0
 10
328.8176252657692
 20
290.1318241908968
 30
0.0
 10
328.800211350064
 20
290.0685020505403
 30
0.0
 10
328.7511244446507
 20
290.0285227347591
 30
0.0
 10
328.7437334935903
 20
289.9804556682321
 30
0.0
 10
328.7165820293021
 20
289.952096907831
 30
0.0
 10
328.7047756230249
 20
289.9154898222438
 30
0.0
 10
328.7002791752145
 20
289.8819512656824
 30
0.0
 10
328.6948823656638
 20
289.8506285755711
 30
0.0
 10
328.6807653339589
 20
289.817678489192
 30
0.0
 10
328.6853731818143
 20
289.7769764490186
 30
0.0
 10
328.6840605442975
 20
289.7375633125524
 30
0.0
 10
328.6848330330169
 20
289.6843543510264
 30
0.0
 10
328.6820450142449
 20
289.632548883643
 30
0.0
 10
328.7042783713845
 20
289.5761722477699
 30
0.0
 10
328.7174353342935
 20
289.5259202763419
 30
0.0
 10
328.7534678174889
 20
289.4563403281589
 30
0.0
 10
328.8156230958914
 20
289.3760601125636
 30
0.0
 10
328.933816556943
 20
289.2786151412464
 30
0.0
 10
329.0474630254205
 20
289.2687298025016
 30
0.0
 10
329.1146120707318
 20
289.2628889605627
 30
0.0
 11
329.4794602039672
 21
290.5148195065057
 31
0.0
 11
329.3090798978935
 21
290.4941842196147
 31
0.0
 11
329.2574495144056
 21
290.4787080991263
 31
0.0
 11
329.1954932976007
 21
290.4477553985763
 31
0.0
 11
329.1438629141127
 21
290.4219616346423
 31
0.0
 11
329.1025587695762
 21
290.3961676409218
 31
0.0
 11
329.0457654694299
 21
290.3652151701583
 31
0.0
 11
329.0199500748685
 21
290.3445801130538
 31
0.0
 11
328.988971763649
 21
290.3239448261627
 31
0.0
 11
328.9528305357708
 21
290.2826747119538
 31
0.0
 11
328.9115263912342
 21
290.2362458909153
 31
0.0
 11
328.8805480800145
 21
290.2104518971949
 31
0.0
 11
328.8495701744294
 21
290.1794994264314
 31
0.0
 11
328.8237547798681
 21
290.1382293122225
 31
0.0
 11
328.7927768742831
 21
290.071165204293
 31
0.0
 11
328.751472324112
 21
290.014418739809
 31
0.0
 11
328.7411464907951
 21
289.983466039259
 31
0.0
 11
328.7204944185268
 21
289.9525135684955
 31
0.0
 11
328.705005262917
 21
289.9112432245001
 31
0.0
 11
328.699841940624
 21
289.8802907537365
 31
0.0
 11
328.6946790239655
 21
289.8544967600161
 31
0.0
 11
328.6843531906487
 21
289.8183855824231
 31
0.0
 11
328.6843531906487
 21
289.7771152384276
 31
0.0
 11
328.6843531906487
 21
289.7358451242187
 31
0.0
 11
328.6843531906487
 21
289.6997337168392
 31
0.0
 11
328.6895161073072
 21
289.6171934884212
 31
0.0
 11
328.699841940624
 21
289.5862407878712
 31
0.0
 11
328.7204944185268
 21
289.5243356165577
 31
0.0
 11
328.7463094074535
 21
289.4727478589033
 31
0.0
 11
328.8134289465513
 21
289.3850489236558
 31
0.0
 11
328.9218526301857
 21
289.3025084654514
 31
0.0
 11
329.1146120707318
 21
289.2628889605627
 31
0.0
  0
HATCH
  5
16CE
330
18
100
AcDbEntity
  8
ROGO
 62
     4
100
AcDbHatch
 10
0.0
 20
0.0
 30
0.0
210
0.0
220
0.0
230
1.0
  2
SOLID
 70
     1
 71
     1
 91
        1
 92
        5
 93
        8
 72
     4
 94
        3
 73
     0
 74
     0
 95
       26
 96
       22
 40
0.0
 40
0.0
 40
0.0
 40
0.0
 40
0.2261711682465229
 40
0.3775752524709292
 40
0.4867499270747143
 40
0.568267124049349
 40
0.6739992068899219
 40
0.7511733198246508
 40
0.8905317800930927
 40
1.003967563249621
 40
1.081122071918995
 40
1.156776017963945
 40
1.292106219407766
 40
1.38780082415581
 40
1.439339762213746
 40
1.512549301287572
 40
1.565415552119695
 40
1.642001295672594
 40
1.68534220200602
 40
1.779656875742671
 40
1.822721775074878
 40
1.822721775074878
 40
1.822721775074878
 40
1.822721775074878
 10
331.5556666972807
 20
290.5096193071991
 10
331.47890070824
 20
290.5050393166531
 10
331.3507458336912
 20
290.4973933770751
 10
331.2100325610389
 20
290.4119115750873
 10
331.1069377796875
 20
290.3622162119007
 10
331.0334107066564
 20
290.2946595994148
 10
330.9795150640677
 20
290.2248785536338
 10
330.9115694887465
 20
290.1417349492339
 10
330.8561618136192
 20
290.0449175864072
 10
330.8279460531262
 20
289.9382079740963
 10
330.8029528002781
 20
289.8531597939357
 10
330.7844173855556
 20
289.7583846961607
 10
330.7891333197919
 20
289.6559942504277
 10
330.7958867534492
 20
289.5608992462769
 10
330.8260391925105
 20
289.4930156509877
 10
330.8603774796845
 20
289.4446872089451
 10
330.9024242420684
 20
289.3914587879574
 10
330.9484325949885
 20
289.3562057770972
 10
330.986485258316
 20
289.292342578979
 10
331.0530951617895
 20
289.2841931743149
 10
331.0954350664113
 20
289.2679734267609
 10
331.1087075179814
 20
289.2628889605627
 72
     1
 10
331.1087075179813
 20
289.2628889605627
 11
332.1825327775694
 21
289.2628889605626
 72
     1
 10
332.1825327775694
 20
289.2628889605626
 11
332.4138281597854
 21
289.7267485693579
 72
     1
 10
332.4138281597854
 20
289.7267485693579
 11
331.616615463871
 21
289.7267485693579
 72
     4
 94
        3
 73
     0
 74
     0
 95
       16
 96
       12
 40
0.0
 40
0.0
 40
0.0
 40
0.0
 40
0.0683030918787657
 40
0.1373106805328135
 40
0.1784706056910715
 40
0.2179345026856072
 40
0.261275236818835
 40
0.2915411730567379
 40
0.3202609197925513
 40
0.3785004428982377
 40
0.4977391777072823
 40
0.4977391777072823
 40
0.4977391777072823
 40
0.4977391777072823
 10
331.616615463871
 20
289.7267485693578
 10
331.5925687195408
 20
289.7338234741284
 10
331.5442272061807
 20
289.7480462561727
 10
331.5401814118792
 20
289.8169930784953
 10
331.5456932212904
 20
289.8661233312992
 10
331.5687766914153
 20
289.9018930243625
 10
331.5967809444513
 20
289.9279201824188
 10
331.6072081698796
 20
289.9618164862816
 10
331.6378580490074
 20
289.9874124364957
 10
331.6922084971674
 20
290.0304356532886
 10
331.7523106842123
 20
290.039598637174
 10
331.7926903274807
 20
290.0457547862055
 72
     1
 10
331.7926903274807
 20
290.0457547862055
 11
332.5728949624473
 21
290.0457547862055
 72
     1
 10
332.5728949624473
 20
290.0457547862055
 11
332.8041927940441
 21
290.5096193071991
 72
     1
 10
332.8041927940441
 20
290.5096193071991
 11
331.5556666972806
 21
290.509619307199
 97
        8
330
16D7
330
16D5
330
16D8
330
16D4
330
16D3
330
16D6
330
16D2
330
16D1
 75
     0
 76
     1
 47
0.0514683685270805
 98
        1
 10
331.7711073841276
 20
290.2813387402316
450
        0
451
        0
460
0.0
461
0.0
452
        0
462
0.0
453
        0
470

  0
LINE
  5
16CF
102
{ACAD_REACTORS
330
1698
102
}
330
18
100
AcDbEntity
  8
ROGO
 62
     4
100
AcDbLine
 10
333.0653099487815
 20
289.06999435848
 30
0.0
 11
332.8117671408988
 21
288.561517853024
 31
0.0
  0
LINE
  5
16D0
102
{ACAD_REACTORS
330
1698
102
}
330
18
100
AcDbEntity
  8
ROGO
 62
     4
100
AcDbLine
 10
333.0653099487815
 20
290.5096193071991
 30
0.0
 11
332.0939236459098
 21
288.561517853024
 31
0.0
  0
LINE
  5
16D1
102
{ACAD_REACTORS
330
16CE
102
}
330
18
100
AcDbEntity
  8
ROGO
 62
     4
100
AcDbLine
 10
332.8041927940441
 20
290.5096193071991
 30
0.0
 11
332.5728949624474
 21
290.0457547862055
 31
0.0
  0
LINE
  5
16D2
102
{ACAD_REACTORS
330
16CE
102
}
330
18
100
AcDbEntity
  8
ROGO
 62
     4
100
AcDbLine
 10
331.7926903274807
 20
290.0457547862055
 30
0.0
 11
332.5728949624474
 21
290.0457547862055
 31
0.0
  0
LINE
  5
16D3
102
{ACAD_REACTORS
330
16CE
102
}
330
18
100
AcDbEntity
  8
ROGO
 62
     4
100
AcDbLine
 10
331.6166154638711
 20
289.7267485693579
 30
0.0
 11
332.4138281597854
 21
289.7267485693579
 31
0.0
  0
LINE
  5
16D4
102
{ACAD_REACTORS
330
16CE
102
}
330
18
100
AcDbEntity
  8
ROGO
 62
     4
100
AcDbLine
 10
332.4138281597854
 20
289.7267485693579
 30
0.0
 11
332.1825327775694
 21
289.2628889605627
 31
0.0
  0
SPLINE
  5
16D5
102
{ACAD_REACTORS
330
16CE
102
}
330
18
100
AcDbEntity
  8
ROGO
 62
     4
100
AcDbSpline
210
0.0
220
0.0
230
1.0
 70
     8
 71
     3
 72
    26
 73
    22
 74
    20
 42
0.0000000001
 43
0.0000000001
 44
0.0000000001
 40
0.0
 40
0.0
 40
0.0
 40
0.0
 40
0.2261711682465229
 40
0.3775752524709292
 40
0.4867499270747143
 40
0.568267124049349
 40
0.6739992068899219
 40
0.7511733198246508
 40
0.8905317800930927
 40
1.003967563249621
 40
1.081122071918995
 40
1.156776017963945
 40
1.292106219407766
 40
1.38780082415581
 40
1.439339762213746
 40
1.512549301287572
 40
1.565415552119695
 40
1.642001295672594
 40
1.68534220200602
 40
1.779656875742671
 40
1.822721775074878
 40
1.822721775074878
 40
1.822721775074878
 40
1.822721775074878
 10
331.5556666972807
 20
290.5096193071991
 30
0.0
 10
331.47890070824
 20
290.5050393166531
 30
0.0
 10
331.3507458336912
 20
290.4973933770751
 30
0.0
 10
331.2100325610389
 20
290.4119115750873
 30
0.0
 10
331.1069377796875
 20
290.3622162119007
 30
0.0
 10
331.0334107066564
 20
290.2946595994148
 30
0.0
 10
330.9795150640677
 20
290.2248785536338
 30
0.0
 10
330.9115694887465
 20
290.1417349492339
 30
0.0
 10
330.8561618136192
 20
290.0449175864072
 30
0.0
 10
330.8279460531262
 20
289.9382079740963
 30
0.0
 10
330.8029528002781
 20
289.8531597939357
 30
0.0
 10
330.7844173855556
 20
289.7583846961607
 30
0.0
 10
330.7891333197919
 20
289.6559942504277
 30
0.0
 10
330.7958867534492
 20
289.5608992462769
 30
0.0
 10
330.8260391925105
 20
289.4930156509877
 30
0.0
 10
330.8603774796845
 20
289.4446872089451
 30
0.0
 10
330.9024242420684
 20
289.3914587879574
 30
0.0
 10
330.9484325949885
 20
289.3562057770972
 30
0.0
 10
330.986485258316
 20
289.292342578979
 30
0.0
 10
331.0530951617895
 20
289.2841931743149
 30
0.0
 10
331.0954350664113
 20
289.2679734267609
 30
0.0
 10
331.1087075179814
 20
289.2628889605627
 30
0.0
 11
331.5556666972807
 21
290.5096193071991
 31
0.0
 11
331.332187107631
 21
290.4748303670599
 31
0.0
 11
331.1967447550816
 21
290.407165266338
 31
0.0
 11
331.1019353030016
 21
290.3530332298796
 31
0.0
 11
331.0409865364112
 21
290.2989009728261
 31
0.0
 11
330.9732655548411
 21
290.2177028078407
 31
0.0
 11
330.925860828801
 21
290.1568042392506
 31
0.0
 11
330.8581394578218
 21
290.0350068814751
 31
0.0
 11
330.8242791617412
 21
289.926742587963
 31
0.0
 11
330.8039629062112
 21
289.8523109551094
 31
0.0
 11
330.7904184762517
 21
289.7778793222559
 31
0.0
 11
330.7904184762517
 21
289.6425491208121
 31
0.0
 11
330.8039629062112
 21
289.5478178915634
 31
0.0
 11
330.8242791617412
 21
289.5004521666415
 31
0.0
 11
330.8649116728015
 21
289.4395535980513
 31
0.0
 11
330.8987723582912
 21
289.3989544052612
 31
0.0
 11
330.9529489099018
 21
289.3448223688027
 31
0.0
 11
330.9800373804117
 21
289.3109897081442
 31
0.0
 11
331.0680750069211
 21
289.2771572680808
 31
0.0
 11
331.1087075179814
 21
289.2628889605627
 31
0.0
  0
SPLINE
  5
16D6
102
{ACAD_REACTORS
330
16CE
102
}
330
18
100
AcDbEntity
  8
ROGO
 62
     4
100
AcDbSpline
210
0.0
220
0.0
230
1.0
 70
     8
 71
     3
 72
    16
 73
    12
 74
    10
 42
0.0000000001
 43
0.0000000001
 44
0.0000000001
 40
0.0
 40
0.0
 40
0.0
 40
0.0
 40
0.1192387348090446
 40
0.177478257914731
 40
0.2061980046505444
 40
0.2364639408884473
 40
0.2798046750216751
 40
0.3192685720162108
 40
0.3604284971744688
 40
0.4294360858285167
 40
0.4977391777072823
 40
0.4977391777072823
 40
0.4977391777072823
 40
0.4977391777072823
 10
331.7926903274807
 20
290.0457547862055
 30
0.0
 10
331.7523106842123
 20
290.039598637174
 30
0.0
 10
331.6922084971674
 20
290.0304356532886
 30
0.0
 10
331.6378580490074
 20
289.9874124364957
 30
0.0
 10
331.6072081698796
 20
289.9618164862816
 30
0.0
 10
331.5967809444513
 20
289.9279201824188
 30
0.0
 10
331.5687766914153
 20
289.9018930243625
 30
0.0
 10
331.5456932212904
 20
289.8661233312992
 30
0.0
 10
331.5401814118792
 20
289.8169930784953
 30
0.0
 10
331.5442272061807
 20
289.7480462561727
 30
0.0
 10
331.5925687195408
 20
289.7338234741284
 30
0.0
 10
331.616615463871
 20
289.7267485693578
 30
0.0
 11
331.7926903274807
 21
290.0457547862055
 31
0.0
 11
331.6775646198706
 21
290.0147072850801
 31
0.0
 11
331.6301598938306
 21
289.9808748450166
 31
0.0
 11
331.6098436383005
 21
289.9605752486215
 31
0.0
 11
331.5962992083409
 21
289.9335091200947
 31
0.0
 11
331.569210737831
 21
289.8996766800313
 31
0.0
 11
331.5488944823009
 21
289.8658440193728
 31
0.0
 11
331.5421222673212
 21
289.8252450471777
 31
0.0
 11
331.5556666972807
 21
289.7575797258608
 31
0.0
 11
331.616615463871
 21
289.7267485693578
 31
0.0
  0
LINE
  5
16D7
102
{ACAD_REACTORS
330
16CE
102
}
330
18
100
AcDbEntity
  8
ROGO
 62
     4
100
AcDbLine
 10
331.555666697281
 20
290.5096193071991
 30
0.0
 11
332.8041927940441
 21
290.5096193071991
 31
0.0
  0
LINE
  5
16D8
102
{ACAD_REACTORS
330
16CE
102
}
330
18
100
AcDbEntity
  8
ROGO
 62
     4
100
AcDbLine
 10
331.1087075179813
 20
289.2628889605627
 30
0.0
 11
332.1825327775694
 21
289.2628889605627
 31
0.0
  0
LINE
  5
16D9
102
{ACAD_REACTORS
330
16A8
102
}
330
18
100
AcDbEntity
  8
ROGO
 62
     4
100
AcDbLine
 10
327.5385906233458
 20
290.5096193071992
 30
0.0
 11
328.7871167201089
 21
290.5096193071992
 31
0.0
  0
LINE
  5
16DA
102
{ACAD_REACTORS
330
16A8
102
}
330
18
100
AcDbEntity
  8
ROGO
 62
     4
100
AcDbLine
 10
328.3967520858502
 20
289.7267485693579
 30
0.0
 11
328.1654567036341
 21
289.2628889605627
 31
0.0
  0
SPLINE
  5
16DB
102
{ACAD_REACTORS
330
16A8
102
}
330
18
100
AcDbEntity
  8
ROGO
 62
     4
100
AcDbSpline
210
0.0
220
0.0
230
1.0
 70
     8
 71
     3
 72
    16
 73
    12
 74
    10
 42
0.0000000001
 43
0.0000000001
 44
0.0000000001
 40
0.0
 40
0.0
 40
0.0
 40
0.0
 40
0.1192387348090995
 40
0.1774782579147198
 40
0.2061980046505734
 40
0.2364639408884763
 40
0.2798046750216953
 40
0.3192685720162602
 40
0.3604284971745742
 40
0.4294360858286333
 40
0.4977391777073984
 40
0.4977391777073984
 40
0.4977391777073984
 40
0.4977391777073984
 10
327.7756142535455
 20
290.0457547862055
 30
0.0
 10
327.7352346102771
 20
290.0395986371739
 30
0.0
 10
327.6751324232322
 20
290.0304356532884
 30
0.0
 10
327.6207819750719
 20
289.9874124364958
 30
0.0
 10
327.5901320959446
 20
289.9618164862817
 30
0.0
 10
327.5797048705161
 20
289.9279201824188
 30
0.0
 10
327.55170061748
 20
289.9018930243626
 30
0.0
 10
327.5286171473551
 20
289.8661233312992
 30
0.0
 10
327.5231053379438
 20
289.8169930784952
 30
0.0
 10
327.5271511322455
 20
289.7480462561728
 30
0.0
 10
327.5754926456055
 20
289.7338234741284
 30
0.0
 10
327.5995393899358
 20
289.7267485693579
 30
0.0
 11
327.7756142535455
 21
290.0457547862055
 31
0.0
 11
327.6604885459353
 21
290.0147072850801
 31
0.0
 11
327.6130838198954
 21
289.9808748450167
 31
0.0
 11
327.5927675643653
 21
289.9605752486215
 31
0.0
 11
327.5792231344057
 21
289.9335091200947
 31
0.0
 11
327.5521346638958
 21
289.8996766800313
 31
0.0
 11
327.5318184083656
 21
289.8658440193729
 31
0.0
 11
327.5250461933859
 21
289.8252450471777
 31
0.0
 11
327.5385906233454
 21
289.7575797258608
 31
0.0
 11
327.5995393899358
 21
289.7267485693579
 31
0.0
  0
LINE
  5
16DC
102
{ACAD_REACTORS
330
16A8
102
}
330
18
100
AcDbEntity
  8
ROGO
 62
     4
100
AcDbLine
 10
327.5995393899358
 20
289.7267485693579
 30
0.0
 11
328.3967520858502
 21
289.7267485693579
 31
0.0
  0
LINE
  5
16DD
102
{ACAD_REACTORS
330
16A8
102
}
330
18
100
AcDbEntity
  8
ROGO
 62
     4
100
AcDbLine
 10
327.7756142535454
 20
290.0457547862055
 30
0.0
 11
328.5558188885121
 21
290.0457547862055
 31
0.0
  0
LINE
  5
16DE
102
{ACAD_REACTORS
330
16A8
102
}
330
18
100
AcDbEntity
  8
ROGO
 62
     4
100
AcDbLine
 10
328.7871167201089
 20
290.5096193071991
 30
0.0
 11
328.5558188885121
 21
290.0457547862055
 31
0.0
  0
LINE
  5
16DF
102
{ACAD_REACTORS
330
1698
102
}
330
18
100
AcDbEntity
  8
ROGO
 62
     4
100
AcDbLine
 10
333.3188527566643
 20
288.561517853024
 30
0.0
 11
334.0366805458148
 21
288.561517853024
 31
0.0
  0
LINE
  5
16E0
102
{ACAD_REACTORS
330
1698
102
}
330
18
100
AcDbEntity
  8
ROGO
 62
     4
100
AcDbLine
 10
334.0132060836063
 20
290.5096193071991
 30
0.0
 11
334.731033872757
 21
290.5096193071991
 31
0.0
  0
LINE
  5
16E1
102
{ACAD_REACTORS
330
1698
102
}
330
18
100
AcDbEntity
  8
ROGO
 62
     4
100
AcDbLine
 10
333.550987394379
 20
289.5355685801116
 30
0.0
 11
334.731033872757
 21
290.5096193071991
 31
0.0
  0
LINE
  5
16E2
102
{ACAD_REACTORS
330
1698
102
}
330
18
100
AcDbEntity
  8
ROGO
 62
     4
100
AcDbLine
 10
333.550987394379
 20
289.5355685801116
 30
0.0
 11
334.0366805458148
 21
288.561517853024
 31
0.0
  0
LINE
  5
16E3
102
{ACAD_REACTORS
330
1698
102
}
330
18
100
AcDbEntity
  8
ROGO
 62
     4
100
AcDbLine
 10
333.6770978266196
 20
290.2969262710875
 30
0.0
 11
334.0132060836063
 21
290.5096193071991
 31
0.0
  0
LINE
  5
16E4
102
{ACAD_REACTORS
330
1698
102
}
330
18
100
AcDbEntity
  8
ROGO
 62
     4
100
AcDbLine
 10
333.7831534437705
 20
290.5096193071991
 30
0.0
 11
333.6770978266196
 21
290.2969262710875
 31
0.0
  0
TEXT
  5
16E5
330
18
100
AcDbEntity
  8
文字
100
AcDbText
 10
332.5441497844777
 20
278.3855663402895
 30
0.0
 40
1.0
  1
0.001mm
  7
STYLE3
100
AcDbText
  0
HATCH
  5
16FA
330
18
100
AcDbEntity
  8
外形線
100
AcDbHatch
 10
0.0
 20
0.0
 30
0.0
210
0.0
220
0.0
230
1.0
  2
SOLID
 70
     1
 71
     1
 91
        2
 92
        1
 93
        7
 72
     1
 10
335.6305147239619
 20
280.8718565747021
 11
334.4638480572951
 21
280.4472246347248
 72
     1
 10
334.4638480572951
 20
280.4472246347249
 11
334.4638480572953
 21
280.7822732413687
 72
     1
 10
334.4638480572953
 20
280.7822732413687
 11
333.4638480572952
 21
280.7822732413687
 72
     1
 10
333.4638480572952
 20
280.7822732413687
 11
333.4638480572952
 21
280.9614399080354
 72
     1
 10
333.4638480572952
 20
280.9614399080354
 11
334.4638480572951
 21
280.9614399080354
 72
     1
 10
334.4638480572951
 20
280.9614399080354
 11
334.4638480572951
 21
281.2964885146793
 72
     1
 10
334.4638480572951
 20
281.2964885146793
 11
335.6305147239619
 21
280.8718565747021
 97
        7
330
16FF
330
1702
330
1703
330
16FE
330
170C
330
170B
330
16FD
 92
        1
 93
        4
 72
     1
 10
335.6305147239619
 20
281.621856574702
 11
335.6305147239619
 21
280.1218565747021
 72
     1
 10
335.6305147239619
 20
280.1218565747021
 11
335.7971813906285
 21
280.1218565747021
 72
     1
 10
335.7971813906285
 20
280.1218565747021
 11
335.7971813906285
 21
281.621856574702
 72
     1
 10
335.7971813906285
 20
281.621856574702
 11
335.6305147239619
 21
281.621856574702
 97
        4
330
16FC
330
1704
330
16FB
330
170D
 75
     0
 76
     1
 98
        1
 10
427.9600714304421
 20
212.209705767521
450
        0
451
        0
460
0.0
461
0.0
452
        0
462
0.0
453
        0
470

  0
LINE
  5
16FB
102
{ACAD_REACTORS
330
16FA
102
}
330
18
100
AcDbEntity
  8
外形線
100
AcDbLine
 10
335.7971813906285
 20
281.621856574702
 30
0.0
 11
335.7971813906285
 21
280.1218565747021
 31
0.0
  0
LINE
  5
16FC
102
{ACAD_REACTORS
330
16FA
102
}
330
18
100
AcDbEntity
  8
外形線
100
AcDbLine
 10
335.6305147239619
 20
281.621856574702
 30
0.0
 11
335.6305147239619
 21
280.1218565747021
 31
0.0
  0
LINE
  5
16FD
102
{ACAD_REACTORS
330
16FA
102
}
330
18
100
AcDbEntity
  8
外形線
100
AcDbLine
 10
335.6305147239619
 20
280.8718565747021
 30
0.0
 11
334.4638480572951
 21
281.2964885146793
 31
0.0
  0
LINE
  5
16FE
102
{ACAD_REACTORS
330
16FA
102
}
330
18
100
AcDbEntity
  8
外形線
100
AcDbLine
 10
333.4638480572952
 20
280.9614399080354
 30
0.0
 11
333.4638480572952
 21
280.7822732413687
 31
0.0
  0
LINE
  5
16FF
102
{ACAD_REACTORS
330
16FA
102
}
330
18
100
AcDbEntity
  8
外形線
100
AcDbLine
 10
335.6305147239619
 20
280.8718565747021
 30
0.0
 11
334.4638480572951
 21
280.4472246347248
 31
0.0
  0
POINT
  5
1700
330
18
100
AcDbEntity
  8
DEFPOINTS
  6
ByBlock
 62
     0
100
AcDbPoint
 10
334.4638480572951
 20
280.4472246347248
 30
0.0
  0
POINT
  5
1701
330
18
100
AcDbEntity
  8
DEFPOINTS
  6
ByBlock
 62
     0
100
AcDbPoint
 10
334.4638480572951
 20
280.4472246347248
 30
0.0
  0
LINE
  5
1702
102
{ACAD_REACTORS
330
16FA
102
}
330
18
100
AcDbEntity
  8
外形線
100
AcDbLine
 10
334.4638480572953
 20
280.7822732413687
 30
0.0
 11
334.4638480572951
 21
280.4472246347249
 31
0.0
  0
LINE
  5
1703
102
{ACAD_REACTORS
330
16FA
102
}
330
18
100
AcDbEntity
  8
外形線
100
AcDbLine
 10
333.4638480572952
 20
280.7822732413687
 30
0.0
 11
334.4638480572953
 21
280.7822732413687
 31
0.0
  0
LINE
  5
1704
102
{ACAD_REACTORS
330
16FA
102
}
330
18
100
AcDbEntity
  8
外形線
100
AcDbLine
 10
335.7971813906285
 20
280.1218565747021
 30
0.0
 11
335.6305147239619
 21
280.1218565747021
 31
0.0
  0
POINT
  5
1705
330
18
100
AcDbEntity
  8
DEFPOINTS
  6
ByBlock
 62
     0
100
AcDbPoint
 10
335.6305147239619
 20
280.1218565747021
 30
0.0
  0
POINT
  5
1706
330
18
100
AcDbEntity
  8
DEFPOINTS
  6
ByBlock
 62
     0
100
AcDbPoint
 10
335.7971813906285
 20
280.1218565747021
 30
0.0
  0
POINT
  5
1707
330
18
100
AcDbEntity
  8
DEFPOINTS
  6
ByBlock
 62
     0
100
AcDbPoint
 10
335.6305147239619
 20
280.1218565747021
 30
0.0
  0
POINT
  5
1708
330
18
100
AcDbEntity
  8
DEFPOINTS
  6
ByBlock
 62
     0
100
AcDbPoint
 10
335.7971813906285
 20
280.1218565747021
 30
0.0
  0
POINT
  5
1709
330
18
100
AcDbEntity
  8
DEFPOINTS
  6
ByBlock
 62
     0
100
AcDbPoint
 10
334.4638480572951
 20
281.2964885146793
 30
0.0
  0
POINT
  5
170A
330
18
100
AcDbEntity
  8
DEFPOINTS
  6
ByBlock
 62
     0
100
AcDbPoint
 10
334.4638480572951
 20
281.2964885146793
 30
0.0
  0
LINE
  5
170B
102
{ACAD_REACTORS
330
16FA
102
}
330
18
100
AcDbEntity
  8
外形線
100
AcDbLine
 10
334.4638480572951
 20
281.2964885146793
 30
0.0
 11
334.4638480572951
 21
280.9614399080354
 31
0.0
  0
LINE
  5
170C
102
{ACAD_REACTORS
330
16FA
102
}
330
18
100
AcDbEntity
  8
外形線
100
AcDbLine
 10
333.4638480572952
 20
280.9614399080354
 30
0.0
 11
334.4638480572951
 21
280.9614399080354
 31
0.0
  0
LINE
  5
170D
102
{ACAD_REACTORS
330
16FA
102
}
330
18
100
AcDbEntity
  8
外形線
100
AcDbLine
 10
335.7971813906285
 20
281.621856574702
 30
0.0
 11
335.6305147239619
 21
281.621856574702
 31
0.0
  0
HATCH
  5
170E
330
18
100
AcDbEntity
  8
外形線
100
AcDbHatch
 10
0.0
 20
0.0
 30
0.0
210
0.0
220
0.0
230
1.0
  2
SOLID
 70
     1
 71
     1
 91
        2
 92
        1
 93
        7
 72
     1
 10
336.7971813906285
 20
280.8718565747021
 11
337.9638480572952
 21
280.4472246347248
 72
     1
 10
337.9638480572952
 20
280.4472246347249
 11
337.9638480572952
 21
280.7822732413687
 72
     1
 10
337.9638480572952
 20
280.7822732413687
 11
338.9638480572951
 21
280.7822732413687
 72
     1
 10
338.9638480572951
 20
280.7822732413687
 11
338.9638480572951
 21
280.9614399080354
 72
     1
 10
338.9638480572951
 20
280.9614399080354
 11
337.9638480572952
 21
280.9614399080354
 72
     1
 10
337.9638480572952
 20
280.9614399080354
 11
337.9638480572952
 21
281.2964885146793
 72
     1
 10
337.9638480572952
 20
281.2964885146793
 11
336.7971813906285
 21
280.8718565747021
 97
        7
330
171B
330
1714
330
1713
330
170F
330
171D
330
171E
330
1710
 92
        1
 93
        4
 72
     1
 10
336.7971813906285
 20
281.621856574702
 11
336.7971813906285
 21
280.1218565747021
 72
     1
 10
336.7971813906285
 20
280.1218565747021
 11
336.6305147239618
 21
280.1218565747021
 72
     1
 10
336.6305147239618
 20
280.1218565747021
 11
336.6305147239618
 21
281.621856574702
 72
     1
 10
336.6305147239618
 20
281.621856574702
 11
336.7971813906285
 21
281.621856574702
 97
        4
330
1711
330
171C
330
1712
330
1721
 75
     0
 76
     1
 98
        1
 10
244.4676246841481
 20
212.209705767521
450
        0
451
        0
460
0.0
461
0.0
452
        0
462
0.0
453
        0
470

  0
LINE
  5
170F
102
{ACAD_REACTORS
330
170E
102
}
330
18
100
AcDbEntity
  8
外形線
100
AcDbLine
 10
338.9638480572951
 20
280.9614399080354
 30
0.0
 11
338.9638480572951
 21
280.7822732413687
 31
0.0
  0
LINE
  5
1710
102
{ACAD_REACTORS
330
170E
102
}
330
18
100
AcDbEntity
  8
外形線
100
AcDbLine
 10
336.7971813906285
 20
280.8718565747021
 30
0.0
 11
337.9638480572952
 21
281.2964885146793
 31
0.0
  0
LINE
  5
1711
102
{ACAD_REACTORS
330
170E
102
}
330
18
100
AcDbEntity
  8
外形線
100
AcDbLine
 10
336.7971813906285
 20
281.621856574702
 30
0.0
 11
336.7971813906285
 21
280.1218565747021
 31
0.0
  0
LINE
  5
1712
102
{ACAD_REACTORS
330
170E
102
}
330
18
100
AcDbEntity
  8
外形線
100
AcDbLine
 10
336.6305147239618
 20
281.621856574702
 30
0.0
 11
336.6305147239618
 21
280.1218565747021
 31
0.0
  0
LINE
  5
1713
102
{ACAD_REACTORS
330
170E
102
}
330
18
100
AcDbEntity
  8
外形線
100
AcDbLine
 10
338.9638480572951
 20
280.7822732413687
 30
0.0
 11
337.9638480572952
 21
280.7822732413687
 31
0.0
  0
LINE
  5
1714
102
{ACAD_REACTORS
330
170E
102
}
330
18
100
AcDbEntity
  8
外形線
100
AcDbLine
 10
337.9638480572952
 20
280.7822732413687
 30
0.0
 11
337.9638480572952
 21
280.4472246347249
 31
0.0
  0
POINT
  5
1715
330
18
100
AcDbEntity
  8
DEFPOINTS
  6
ByBlock
 62
     0
100
AcDbPoint
 10
336.6305147239618
 20
280.1218565747021
 30
0.0
  0
POINT
  5
1716
330
18
100
AcDbEntity
  8
DEFPOINTS
  6
ByBlock
 62
     0
100
AcDbPoint
 10
336.7971813906285
 20
280.1218565747021
 30
0.0
  0
POINT
  5
1717
330
18
100
AcDbEntity
  8
DEFPOINTS
  6
ByBlock
 62
     0
100
AcDbPoint
 10
336.6305147239618
 20
280.1218565747021
 30
0.0
  0
POINT
  5
1718
330
18
100
AcDbEntity
  8
DEFPOINTS
  6
ByBlock
 62
     0
100
AcDbPoint
 10
337.9638480572952
 20
280.4472246347248
 30
0.0
  0
POINT
  5
1719
330
18
100
AcDbEntity
  8
DEFPOINTS
  6
ByBlock
 62
     0
100
AcDbPoint
 10
336.7971813906285
 20
280.1218565747021
 30
0.0
  0
POINT
  5
171A
330
18
100
AcDbEntity
  8
DEFPOINTS
  6
ByBlock
 62
     0
100
AcDbPoint
 10
337.9638480572952
 20
280.4472246347248
 30
0.0
  0
LINE
  5
171B
102
{ACAD_REACTORS
330
170E
102
}
330
18
100
AcDbEntity
  8
外形線
100
AcDbLine
 10
336.7971813906285
 20
280.8718565747021
 30
0.0
 11
337.9638480572952
 21
280.4472246347248
 31
0.0
  0
LINE
  5
171C
102
{ACAD_REACTORS
330
170E
102
}
330
18
100
AcDbEntity
  8
外形線
100
AcDbLine
 10
336.6305147239618
 20
280.1218565747021
 30
0.0
 11
336.7971813906285
 21
280.1218565747021
 31
0.0
  0
LINE
  5
171D
102
{ACAD_REACTORS
330
170E
102
}
330
18
100
AcDbEntity
  8
外形線
100
AcDbLine
 10
338.9638480572951
 20
280.9614399080354
 30
0.0
 11
337.9638480572952
 21
280.9614399080354
 31
0.0
  0
LINE
  5
171E
102
{ACAD_REACTORS
330
170E
102
}
330
18
100
AcDbEntity
  8
外形線
100
AcDbLine
 10
337.9638480572952
 20
281.2964885146793
 30
0.0
 11
337.9638480572952
 21
280.9614399080354
 31
0.0
  0
POINT
  5
171F
330
18
100
AcDbEntity
  8
DEFPOINTS
  6
ByBlock
 62
     0
100
AcDbPoint
 10
337.9638480572952
 20
281.2964885146793
 30
0.0
  0
POINT
  5
1720
330
18
100
AcDbEntity
  8
DEFPOINTS
  6
ByBlock
 62
     0
100
AcDbPoint
 10
337.9638480572952
 20
281.2964885146793
 30
0.0
  0
LINE
  5
1721
102
{ACAD_REACTORS
330
170E
102
}
330
18
100
AcDbEntity
  8
外形線
100
AcDbLine
 10
336.6305147239618
 20
281.621856574702
 30
0.0
 11
336.7971813906285
 21
281.621856574702
 31
0.0
  0
POINT
  5
1722
330
18
100
AcDbEntity
  8
DEFPOINTS
  6
ByBlock
 62
     0
100
AcDbPoint
 10
327.1250591198275
 20
259.9218565747021
 30
0.0
  0
TEXT
  5
1723
330
18
100
AcDbEntity
  8
文字
100
AcDbText
 10
331.1087297166815
 20
263.9189339736451
 30
0.0
 40
1.0
  1
K
 50
16.11080334047189
  7
STYLE3
100
AcDbText
  0
TEXT
  5
1724
330
18
100
AcDbEntity
  8
文字
100
AcDbText
 10
333.500305135255
 20
264.7278808941345
 30
0.0
 40
1.0
  1
R
 50
26.06198672177309
  7
STYLE3
100
AcDbText
  0
TEXT
  5
1725
330
18
100
AcDbEntity
  8
文字
100
AcDbText
 10
332.643422455997
 20
264.3649541196873
 30
0.0
 40
1.0
  1
P
 50
23.24053280085741
  7
STYLE3
100
AcDbText
  0
TEXT
  5
1726
330
18
100
AcDbEntity
  8
文字
100
AcDbText
 10
334.4246070349214
 20
265.1789608270137
 30
0.0
 40
1.0
  1
O
 50
27.73777743938884
  7
STYLE3
100
AcDbText
  0
TEXT
  5
1727
330
18
100
AcDbEntity
  8
文字
100
AcDbText
 10
328.0277607749638
 20
263.4635942569863
 30
0.0
 40
1.0
  1
H
 50
3.041391095489256
  7
STYLE3
100
AcDbText
  0
TEXT
  5
1728
330
18
100
AcDbEntity
  8
文字
100
AcDbText
 10
328.9892111524816
 20
263.5991359227078
 30
0.0
 40
1.0
  1
O
 50
1.760930144340787
  7
STYLE3
100
AcDbText
  0
TEXT
  5
1729
330
18
100
AcDbEntity
  8
文字
100
AcDbText
 10
330.0114738257745
 20
263.7617427465826
 30
0.0
 40
1.0
  1
C
 50
5.687207778684769
  7
STYLE3
100
AcDbText
  0
TEXT
  5
172A
330
18
100
AcDbEntity
  8
文字
100
AcDbText
 10
327.1349821636108
 20
263.446222746743
 30
0.0
 40
1.0
  1
S
  7
STYLE3
100
AcDbText
  0
TEXT
  5
172B
330
18
100
AcDbEntity
  8
文字
100
AcDbText
 10
336.3617533338907
 20
266.3451621298702
 30
0.0
 40
1.0
  1
F
 50
39.26251030727185
  7
STYLE3
100
AcDbText
  0
TEXT
  5
172C
330
18
100
AcDbEntity
  8
文字
100
AcDbText
 10
335.3764659418505
 20
265.7663067915887
 30
0.0
 40
1.0
  1
O
 50
27.6495577688412
  7
STYLE3
100
AcDbText
  0
CIRCLE
  5
1738
330
18
100
AcDbEntity
  8
外形線
100
AcDbCircle
 10
327.1250591198275
 20
279.4218565747021
 30
0.0
 40
16.5
  0
LINE
  5
173C
330
18
100
AcDbEntity
  8
目盛
100
AcDbLine
 10
327.1250591198275
 20
304.1718565747021
 30
0.0
 11
327.1250591198275
 21
301.1718565747021
 31
0.0
  0
LINE
  5
173D
330
18
100
AcDbEntity
  8
目盛
100
AcDbLine
 10
327.9024754070113
 20
304.159643943754
 30
0.0
 11
327.8537887304401
 21
302.6104087751871
 31
0.0
  0
LINE
  5
173E
330
18
100
AcDbEntity
  8
目盛
100
AcDbLine
 10
328.6791244781781
 20
304.1230181033018
 30
0.0
 11
328.5817991729076
 21
302.576076674238
 31
0.0
  0
LINE
  5
173F
330
18
100
AcDbEntity
  8
目盛
100
AcDbLine
 10
329.4542398744608
 20
304.0620151986283
 30
0.0
 11
329.3083719888171
 21
302.5188941534935
 31
0.0
  0
LINE
  5
1740
330
18
100
AcDbEntity
  8
目盛
100
AcDbLine
 10
330.2270566505441
 20
303.9766954322354
 30
0.0
 11
330.0327901385194
 21
302.438917645198
 31
0.0
  0
LINE
  5
1741
330
18
100
AcDbEntity
  8
目盛
100
AcDbLine
 10
330.9968121295733
 20
303.8671430044317
 30
0.0
 11
330.6291911367287
 21
301.5460754040331
 31
0.0
  0
LINE
  5
1742
330
18
100
AcDbEntity
  8
目盛
100
AcDbLine
 10
331.7627466558243
 20
303.7334660302371
 30
0.0
 11
331.4723056182164
 21
302.2109207916076
 31
0.0
  0
LINE
  5
1743
330
18
100
AcDbEntity
  8
目盛
100
AcDbLine
 10
332.524104344392
 20
303.575796432686
 30
0.0
 11
332.1859823202274
 21
302.063125451681
 31
0.0
  0
LINE
  5
1744
330
18
100
AcDbEntity
  8
目盛
100
AcDbLine
 10
333.2801338271577
 20
303.3942898126357
 30
0.0
 11
332.8946645020522
 21
301.8929859128864
 31
0.0
  0
LINE
  5
1745
330
18
100
AcDbEntity
  8
目盛
100
AcDbLine
 10
334.0300889942985
 20
303.1891252952064
 30
0.0
 11
333.5976527799377
 21
301.7006700824071
 31
0.0
  0
LINE
  5
1747
330
18
100
AcDbEntity
  8
目盛
100
AcDbLine
 10
320.9699844124974
 20
303.3942898126357
 30
0.0
 11
321.3554537376029
 21
301.8929859128864
 31
0.0
  0
LINE
  5
1748
330
18
100
AcDbEntity
  8
目盛
100
AcDbLine
 10
320.2200292453566
 20
303.1891252952064
 30
0.0
 11
320.6524654597175
 21
301.7006700824072
 31
0.0
  0
LINE
  5
1749
330
18
100
AcDbEntity
  8
目盛
100
AcDbLine
 10
319.4768885090476
 20
302.9605053530072
 30
0.0
 11
320.4039394921725
 21
300.1073358041216
 31
0.0
  0
LINE
  5
174A
330
18
100
AcDbEntity
  8
目盛
100
AcDbLine
 10
325.5709937614771
 20
304.1230181033018
 30
0.0
 11
325.6683190667475
 21
302.576076674238
 31
0.0
  0
LINE
  5
174B
330
18
100
AcDbEntity
  8
目盛
100
AcDbLine
 10
324.7958783651944
 20
304.0620151986283
 30
0.0
 11
324.941746250838
 21
302.5188941534935
 31
0.0
  0
LINE
  5
174C
330
18
100
AcDbEntity
  8
目盛
100
AcDbLine
 10
324.023061589111
 20
303.9766954322354
 30
0.0
 11
324.2173281011357
 21
302.4389176451979
 31
0.0
  0
LINE
  5
174D
330
18
100
AcDbEntity
  8
目盛
100
AcDbLine
 10
323.2533061100818
 20
303.8671430044318
 30
0.0
 11
323.6209271029263
 21
301.5460754040331
 31
0.0
  0
LINE
  5
174E
330
18
100
AcDbEntity
  8
目盛
100
AcDbLine
 10
322.4873715838309
 20
303.7334660302371
 30
0.0
 11
322.7778126214387
 21
302.2109207916077
 31
0.0
  0
LINE
  5
174F
330
18
100
AcDbEntity
  8
目盛
100
AcDbLine
 10
321.7260138952631
 20
303.5757964326861
 30
0.0
 11
322.0641359194277
 21
302.0631254516811
 31
0.0
  0
LINE
  5
1750
330
18
100
AcDbEntity
  8
目盛
100
AcDbLine
 10
326.3476428326438
 20
304.1596439437539
 30
0.0
 11
326.396329509215
 21
302.6104087751871
 31
0.0
  0
LINE
  5
1751
330
18
100
AcDbEntity
  8
目盛
100
AcDbLine
 10
313.8633459440975
 20
300.3189727308769
 30
0.0
 11
314.6938774763148
 21
299.0102644463489
 31
0.0
  0
LINE
  5
1752
330
18
100
AcDbEntity
  8
目盛
100
AcDbLine
 10
313.2134955179873
 20
299.8921007879975
 30
0.0
 11
314.0847247536581
 21
298.610125897872
 31
0.0
  0
LINE
  5
1753
330
18
100
AcDbEntity
  8
目盛
100
AcDbLine
 10
312.5773741255888
 20
299.445027185482
 30
0.0
 11
314.3407298824663
 21
297.0179762023572
 31
0.0
  0
LINE
  5
1754
330
18
100
AcDbEntity
  8
目盛
100
AcDbLine
 10
318.0139764408818
 20
302.4338246004363
 30
0.0
 11
318.5845694975431
 21
300.9926710473095
 31
0.0
  0
LINE
  5
1755
330
18
100
AcDbEntity
  8
目盛
100
AcDbLine
 10
317.2956488266168
 20
302.1362835603806
 30
0.0
 11
317.9112280571006
 21
300.7137638905705
 31
0.0
  0
LINE
  5
1756
330
18
100
AcDbEntity
  8
目盛
100
AcDbLine
 10
316.5870216535921
 20
301.8163261232361
 30
0.0
 11
317.2469795555179
 21
300.4138441919137
 31
0.0
  0
LINE
  5
1757
330
18
100
AcDbEntity
  8
目盛
100
AcDbLine
 10
315.8887942512738
 20
301.4742680483641
 30
0.0
 11
316.9556719256617
 21
299.3804027165215
 31
0.0
  0
LINE
  5
1758
330
18
100
AcDbEntity
  8
目盛
100
AcDbLine
 10
315.2016556858101
 20
301.1104469057877
 30
0.0
 11
315.9483738806677
 21
299.7521715517197
 31
0.0
  0
LINE
  5
1759
330
18
100
AcDbEntity
  8
目盛
100
AcDbLine
 10
314.5262840800058
 20
300.7252217430497
 30
0.0
 11
315.315298274419
 21
299.3910716011935
 31
0.0
  0
LINE
  5
175A
330
18
100
AcDbEntity
  8
目盛
100
AcDbLine
 10
318.7412955937566
 20
302.7086556063192
 30
0.0
 11
319.2663393701368
 21
301.2502904144401
 31
0.0
  0
LINE
  5
175B
330
18
100
AcDbEntity
  8
目盛
100
AcDbLine
 10
308.0548563611268
 20
295.1981003209821
 30
0.0
 11
309.2491518874292
 21
294.2100931368717
 31
0.0
  0
LINE
  5
175C
330
18
100
AcDbEntity
  8
目盛
100
AcDbLine
 10
307.5687225635292
 20
294.5913061526133
 30
0.0
 11
308.7934628327115
 21
293.6413002194511
 31
0.0
  0
LINE
  5
175D
330
18
100
AcDbEntity
  8
目盛
100
AcDbLine
 10
307.1018885090476
 20
293.9695415689408
 30
0.0
 11
309.5289394921724
 21
292.2061858120633
 31
0.0
  0
LINE
  5
175E
330
18
100
AcDbEntity
  8
目盛
100
AcDbLine
 10
311.3488153735475
 20
298.4920593334029
 30
0.0
 11
312.3368225576579
 21
297.2977638071004
 31
0.0
  0
LINE
  5
175F
330
18
100
AcDbEntity
  8
目盛
100
AcDbLine
 10
310.7575904530672
 20
297.9871055480559
 30
0.0
 11
311.7826238443189
 21
296.8244333901287
 31
0.0
  0
LINE
  5
1760
330
18
100
AcDbEntity
  8
目盛
100
AcDbLine
 10
310.1825182480925
 20
297.463830103382
 30
0.0
 11
311.2435662622819
 21
296.3339287308788
 31
0.0
  0
LINE
  5
1761
330
18
100
AcDbEntity
  8
目盛
100
AcDbLine
 10
309.6241662854605
 20
296.9227494090691
 30
0.0
 11
311.2858672212488
 21
295.2610484732807
 31
0.0
  0
LINE
  5
1762
330
18
100
AcDbEntity
  8
目盛
100
AcDbLine
 10
309.0830855911475
 20
296.3643974464371
 30
0.0
 11
310.2129869636507
 21
295.3033494322477
 31
0.0
  0
LINE
  5
1763
330
18
100
AcDbEntity
  8
目盛
100
AcDbLine
 10
308.5598101464736
 20
295.7893252414624
 30
0.0
 11
309.7224823044009
 21
294.7642918502108
 31
0.0
  0
LINE
  5
1764
330
18
100
AcDbEntity
  8
目盛
100
AcDbLine
 10
311.9556095419164
 20
298.9781931310004
 30
0.0
 11
312.9056154750784
 21
297.7534528618181
 31
0.0
  0
LINE
  5
1765
330
18
100
AcDbEntity
  8
目盛
100
AcDbLine
 10
304.1130910940933
 20
288.5329392536478
 30
0.0
 11
305.5542446472201
 21
287.9623461969866
 31
0.0
  0
LINE
  5
1766
330
18
100
AcDbEntity
  8
目盛
100
AcDbLine
 10
303.8382600882104
 20
287.805620100773
 30
0.0
 11
305.2966252800895
 21
287.2805763243929
 31
0.0
  0
LINE
  5
1767
330
18
100
AcDbEntity
  8
目盛
100
AcDbLine
 10
303.5864103415225
 20
287.0700271854821
 30
0.0
 11
306.439579890408
 21
286.1429762023572
 31
0.0
  0
LINE
  5
1768
330
18
100
AcDbEntity
  8
目盛
100
AcDbLine
 10
306.2279429636527
 20
292.6835697504322
 30
0.0
 11
307.5366512481807
 21
291.8530382182148
 31
0.0
  0
LINE
  5
1769
330
18
100
AcDbEntity
  8
目盛
100
AcDbLine
 10
305.82169395148
 20
292.0206316145238
 30
0.0
 11
307.1558440933361
 21
291.2316174201107
 31
0.0
  0
LINE
  5
176A
330
18
100
AcDbEntity
  8
目盛
100
AcDbLine
 10
305.4364687887419
 20
291.3452600087195
 30
0.0
 11
306.7947441428099
 21
290.5985418138619
 31
0.0
  0
LINE
  5
176B
330
18
100
AcDbEntity
  8
目盛
100
AcDbLine
 10
305.0726476461654
 20
290.6581214432558
 30
0.0
 11
307.1665129780081
 21
289.5912437688679
 31
0.0
  0
LINE
  5
176C
330
18
100
AcDbEntity
  8
目盛
100
AcDbLine
 10
304.7305895712935
 20
289.9598940409376
 30
0.0
 11
306.1330715026159
 21
289.2999361390117
 31
0.0
  0
LINE
  5
176D
330
18
100
AcDbEntity
  8
目盛
100
AcDbLine
 10
304.410632134149
 20
289.2512668679129
 30
0.0
 11
305.8331518039592
 21
288.635687637429
 31
0.0
  0
LINE
  5
176E
330
18
100
AcDbEntity
  8
目盛
100
AcDbLine
 10
306.6548149065321
 20
293.3334201765423
 30
0.0
 11
307.9367897966577
 21
292.4621909408715
 31
0.0
  0
LINE
  5
176F
330
18
100
AcDbEntity
  8
目盛
100
AcDbLine
 10
302.4238975912279
 20
280.9759219330526
 30
0.0
 11
303.9708390202917
 21
280.8785966277822
 31
0.0
  0
LINE
  5
1770
330
18
100
AcDbEntity
  8
目盛
100
AcDbLine
 10
302.3872717507757
 20
280.1992728618858
 30
0.0
 11
303.9365069193426
 21
280.1505861853147
 31
0.0
  0
LINE
  5
1771
330
18
100
AcDbEntity
  8
目盛
100
AcDbLine
 10
302.3750591198276
 20
279.4218565747021
 30
0.0
 11
305.3750591198276
 21
279.4218565747021
 31
0.0
  0
LINE
  5
1772
330
18
100
AcDbEntity
  8
目盛
100
AcDbLine
 10
303.152625881894
 20
285.5769312820322
 30
0.0
 11
304.6539297816433
 21
285.1914619569267
 31
0.0
  0
LINE
  5
1773
330
18
100
AcDbEntity
  8
目盛
100
AcDbLine
 10
302.9711192618436
 20
284.8209017992665
 30
0.0
 11
304.4837902428487
 21
284.4827797751019
 31
0.0
  0
LINE
  5
1774
330
18
100
AcDbEntity
  8
目盛
100
AcDbLine
 10
302.8134496642925
 20
284.0595441106988
 30
0.0
 11
304.335994902922
 21
283.7691030730909
 31
0.0
  0
LINE
  5
1775
330
18
100
AcDbEntity
  8
目盛
100
AcDbLine
 10
302.679772690098
 20
283.2936095844478
 30
0.0
 11
305.0008402904965
 21
282.9259885916032
 31
0.0
  0
LINE
  5
1776
330
18
100
AcDbEntity
  8
目盛
100
AcDbLine
 10
302.5702202622942
 20
282.5238541054186
 30
0.0
 11
304.1079980493317
 21
282.3295875933939
 31
0.0
  0
LINE
  5
1777
330
18
100
AcDbEntity
  8
目盛
100
AcDbLine
 10
302.4849004959013
 20
281.7510373293353
 30
0.0
 11
304.0280215410362
 21
281.6051694436916
 31
0.0
  0
LINE
  5
1778
330
18
100
AcDbEntity
  8
目盛
100
AcDbLine
 10
303.3577903993233
 20
286.326886449173
 30
0.0
 11
304.8462456121225
 21
285.8944502348122
 31
0.0
  0
LINE
  5
1779
330
18
100
AcDbEntity
  8
目盛
100
AcDbLine
 10
303.1526258818939
 20
273.2667818673719
 30
0.0
 11
304.6539297816433
 21
273.6522511924774
 31
0.0
  0
LINE
  5
177A
330
18
100
AcDbEntity
  8
目盛
100
AcDbLine
 10
303.3577903993231
 20
272.5168267002312
 30
0.0
 11
304.8462456121224
 21
272.949262914592
 31
0.0
  0
LINE
  5
177B
330
18
100
AcDbEntity
  8
目盛
100
AcDbLine
 10
303.5864103415225
 20
271.7736859639221
 30
0.0
 11
306.4395798904079
 21
272.700736947047
 31
0.0
  0
LINE
  5
177C
330
18
100
AcDbEntity
  8
目盛
100
AcDbLine
 10
302.4238975912278
 20
277.8677912163516
 30
0.0
 11
303.9708390202916
 21
277.965116521622
 31
0.0
  0
LINE
  5
177D
330
18
100
AcDbEntity
  8
目盛
100
AcDbLine
 10
302.4849004959013
 20
277.0926758200689
 30
0.0
 11
304.028021541036
 21
277.2385437057126
 31
0.0
  0
LINE
  5
177E
330
18
100
AcDbEntity
  8
目盛
100
AcDbLine
 10
302.5702202622941
 20
276.3198590439856
 30
0.0
 11
304.1079980493316
 21
276.5141255560102
 31
0.0
  0
LINE
  5
177F
330
18
100
AcDbEntity
  8
目盛
100
AcDbLine
 10
302.6797726900979
 20
275.5501035649564
 30
0.0
 11
305.0008402904964
 21
275.9177245578009
 31
0.0
  0
LINE
  5
1780
330
18
100
AcDbEntity
  8
目盛
100
AcDbLine
 10
302.8134496642924
 20
274.7841690387053
 30
0.0
 11
304.3359949029219
 21
275.0746100763133
 31
0.0
  0
LINE
  5
1781
330
18
100
AcDbEntity
  8
目盛
100
AcDbLine
 10
302.9711192618435
 20
274.0228113501377
 30
0.0
 11
304.4837902428485
 21
274.3609333743023
 31
0.0
  0
LINE
  5
1782
330
18
100
AcDbEntity
  8
目盛
100
AcDbLine
 10
302.3872717507757
 20
278.6444402875184
 30
0.0
 11
303.9365069193426
 21
278.6931269640896
 31
0.0
  0
LINE
  5
1783
330
18
100
AcDbEntity
  8
目盛
100
AcDbLine
 10
306.2279429636527
 20
266.1601433989719
 30
0.0
 11
307.5366512481809
 21
266.9906749311894
 31
0.0
  0
LINE
  5
1784
330
18
100
AcDbEntity
  8
目盛
100
AcDbLine
 10
306.6548149065321
 20
265.5102929728619
 30
0.0
 11
307.9367897966577
 21
266.3815222085327
 31
0.0
  0
LINE
  5
1785
330
18
100
AcDbEntity
  8
目盛
100
AcDbLine
 10
307.1018885090476
 20
264.8741715804634
 30
0.0
 11
309.5289394921725
 21
266.6375273373408
 31
0.0
  0
LINE
  5
1786
330
18
100
AcDbEntity
  8
目盛
100
AcDbLine
 10
304.1130910940934
 20
270.3107738957563
 30
0.0
 11
305.5542446472201
 21
270.8813669524176
 31
0.0
  0
LINE
  5
1787
330
18
100
AcDbEntity
  8
目盛
100
AcDbLine
 10
304.4106321341491
 20
269.5924462814913
 30
0.0
 11
305.8331518039592
 21
270.2080255119752
 31
0.0
  0
LINE
  5
1788
330
18
100
AcDbEntity
  8
目盛
100
AcDbLine
 10
304.7305895712936
 20
268.8838191084665
 30
0.0
 11
306.1330715026159
 21
269.5437770103924
 31
0.0
  0
LINE
  5
1789
330
18
100
AcDbEntity
  8
目盛
100
AcDbLine
 10
305.0726476461655
 20
268.1855917061483
 30
0.0
 11
307.1665129780082
 21
269.2524693805363
 31
0.0
  0
LINE
  5
178A
330
18
100
AcDbEntity
  8
目盛
100
AcDbLine
 10
305.4364687887419
 20
267.4984531406846
 30
0.0
 11
306.7947441428099
 21
268.2451713355423
 31
0.0
  0
LINE
  5
178B
330
18
100
AcDbEntity
  8
目盛
100
AcDbLine
 10
305.8216939514799
 20
266.8230815348804
 30
0.0
 11
307.1558440933361
 21
267.6120957292935
 31
0.0
  0
LINE
  5
178C
330
18
100
AcDbEntity
  8
目盛
100
AcDbLine
 10
303.8382600882105
 20
271.0380930486312
 30
0.0
 11
305.2966252800895
 21
271.5631368250113
 31
0.0
  0
LINE
  5
178D
330
18
100
AcDbEntity
  8
目盛
100
AcDbLine
 10
311.3488153735475
 20
260.3516538160012
 30
0.0
 11
312.3368225576579
 21
261.5459493423038
 31
0.0
  0
LINE
  5
178E
330
18
100
AcDbEntity
  8
目盛
100
AcDbLine
 10
311.9556095419163
 20
259.8655200184037
 30
0.0
 11
312.9056154750784
 21
261.0902602875861
 31
0.0
  0
LINE
  5
178F
330
18
100
AcDbEntity
  8
目盛
100
AcDbLine
 10
312.5773741255888
 20
259.3986859639221
 30
0.0
 11
314.3407298824663
 21
261.825736947047
 31
0.0
  0
LINE
  5
1790
330
18
100
AcDbEntity
  8
目盛
100
AcDbLine
 10
308.0548563611267
 20
263.645612828422
 30
0.0
 11
309.2491518874292
 21
264.6336200125325
 31
0.0
  0
LINE
  5
1791
330
18
100
AcDbEntity
  8
目盛
100
AcDbLine
 10
308.5598101464736
 20
263.0543879079418
 30
0.0
 11
309.7224823044009
 21
264.0794212991934
 31
0.0
  0
LINE
  5
1792
330
18
100
AcDbEntity
  8
目盛
100
AcDbLine
 10
309.0830855911475
 20
262.4793157029671
 30
0.0
 11
310.2129869636508
 21
263.5403637171565
 31
0.0
  0
LINE
  5
1793
330
18
100
AcDbEntity
  8
目盛
100
AcDbLine
 10
309.6241662854605
 20
261.920963740335
 30
0.0
 11
311.2858672212488
 21
263.5826646761235
 31
0.0
  0
LINE
  5
1794
330
18
100
AcDbEntity
  8
目盛
100
AcDbLine
 10
310.1825182480925
 20
261.3798830460221
 30
0.0
 11
311.2435662622819
 21
262.5097844185253
 31
0.0
  0
LINE
  5
1795
330
18
100
AcDbEntity
  8
目盛
100
AcDbLine
 10
310.7575904530671
 20
260.8566076013482
 30
0.0
 11
311.7826238443188
 21
262.0192797592754
 31
0.0
  0
LINE
  5
1796
330
18
100
AcDbEntity
  8
目盛
100
AcDbLine
 10
307.5687225635292
 20
264.252406996791
 30
0.0
 11
308.7934628327115
 21
265.202412929953
 31
0.0
  0
LINE
  5
1797
330
18
100
AcDbEntity
  8
目盛
100
AcDbLine
 10
318.0139764408818
 20
256.4098885489679
 30
0.0
 11
318.5845694975431
 21
257.8510421020947
 31
0.0
  0
LINE
  5
1798
330
18
100
AcDbEntity
  8
目盛
100
AcDbLine
 10
318.7412955937566
 20
256.135057543085
 30
0.0
 11
319.2663393701367
 21
257.593422734964
 31
0.0
  0
LINE
  5
1799
330
18
100
AcDbEntity
  8
目盛
100
AcDbLine
 10
319.4768885090476
 20
255.883207796397
 30
0.0
 11
320.4039394921724
 21
258.7363773452825
 31
0.0
  0
LINE
  5
179A
330
18
100
AcDbEntity
  8
目盛
100
AcDbLine
 10
313.8633459440973
 20
258.5247404185273
 30
0.0
 11
314.6938774763148
 21
259.8334487030554
 31
0.0
  0
LINE
  5
179B
330
18
100
AcDbEntity
  8
目盛
100
AcDbLine
 10
314.5262840800058
 20
258.1184914063546
 30
0.0
 11
315.3152982744189
 21
259.4526415482107
 31
0.0
  0
LINE
  5
179C
330
18
100
AcDbEntity
  8
目盛
100
AcDbLine
 10
315.2016556858101
 20
257.7332662436165
 30
0.0
 11
315.9483738806678
 21
259.0915415976845
 31
0.0
  0
LINE
  5
179D
330
18
100
AcDbEntity
  8
目盛
100
AcDbLine
 10
315.8887942512738
 20
257.36944510104
 30
0.0
 11
316.9556719256617
 21
259.4633104328827
 31
0.0
  0
LINE
  5
179E
330
18
100
AcDbEntity
  8
目盛
100
AcDbLine
 10
316.587021653592
 20
257.0273870261681
 30
0.0
 11
317.2469795555179
 21
258.4298689574904
 31
0.0
  0
LINE
  5
179F
330
18
100
AcDbEntity
  8
目盛
100
AcDbLine
 10
317.2956488266168
 20
256.7074295890236
 30
0.0
 11
317.9112280571006
 21
258.1299492588337
 31
0.0
  0
LINE
  5
17A0
330
18
100
AcDbEntity
  8
目盛
100
AcDbLine
 10
313.2134955179873
 20
258.9516123614067
 30
0.0
 11
314.0847247536581
 21
260.2335872515322
 31
0.0
  0
LINE
  5
17A1
330
18
100
AcDbEntity
  8
目盛
100
AcDbLine
 10
325.5709937614771
 20
254.7206950461024
 30
0.0
 11
325.6683190667475
 21
256.2676364751662
 31
0.0
  0
LINE
  5
17A2
330
18
100
AcDbEntity
  8
目盛
100
AcDbLine
 10
326.3476428326439
 20
254.6840692056502
 30
0.0
 11
326.396329509215
 21
256.2333043742171
 31
0.0
  0
LINE
  5
17A3
330
18
100
AcDbEntity
  8
目盛
100
AcDbLine
 10
327.1250591198276
 20
254.6718565747021
 30
0.0
 11
327.1250591198276
 21
257.6718565747021
 31
0.0
  0
LINE
  5
17A4
330
18
100
AcDbEntity
  8
目盛
100
AcDbLine
 10
320.9699844124974
 20
255.4494233367685
 30
0.0
 11
321.355453737603
 21
256.9507272365179
 31
0.0
  0
LINE
  5
17A5
330
18
100
AcDbEntity
  8
目盛
100
AcDbLine
 10
321.7260138952631
 20
255.2679167167182
 30
0.0
 11
322.0641359194278
 21
256.7805876977232
 31
0.0
  0
LINE
  5
17A6
330
18
100
AcDbEntity
  8
目盛
100
AcDbLine
 10
322.4873715838309
 20
255.1102471191671
 30
0.0
 11
322.7778126214388
 21
256.6327923577966
 31
0.0
  0
LINE
  5
17A7
330
18
100
AcDbEntity
  8
目盛
100
AcDbLine
 10
323.2533061100819
 20
254.9765701449725
 30
0.0
 11
323.6209271029264
 21
257.2976377453711
 31
0.0
  0
LINE
  5
17A8
330
18
100
AcDbEntity
  8
目盛
100
AcDbLine
 10
324.0230615891111
 20
254.8670177171688
 30
0.0
 11
324.2173281011357
 21
256.4047955042062
 31
0.0
  0
LINE
  5
17A9
330
18
100
AcDbEntity
  8
目盛
100
AcDbLine
 10
324.7958783651944
 20
254.7816979507759
 30
0.0
 11
324.941746250838
 21
256.3248189959107
 31
0.0
  0
LINE
  5
17AA
330
18
100
AcDbEntity
  8
目盛
100
AcDbLine
 10
320.2200292453567
 20
255.6545878541978
 30
0.0
 11
320.6524654597175
 21
257.1430430669971
 31
0.0
  0
LINE
  5
17AB
330
18
100
AcDbEntity
  8
目盛
100
AcDbLine
 10
333.2801338271578
 20
255.4494233367686
 30
0.0
 11
332.8946645020522
 21
256.9507272365179
 31
0.0
  0
LINE
  5
17AC
330
18
100
AcDbEntity
  8
目盛
100
AcDbLine
 10
334.0300889942985
 20
255.6545878541977
 30
0.0
 11
333.5976527799377
 21
257.1430430669971
 31
0.0
  0
LINE
  5
17AD
330
18
100
AcDbEntity
  8
目盛
100
AcDbLine
 10
334.7732297306076
 20
255.8832077963971
 30
0.0
 11
333.8461787474827
 21
258.7363773452825
 31
0.0
  0
LINE
  5
17AE
330
18
100
AcDbEntity
  8
目盛
100
AcDbLine
 10
328.6791244781781
 20
254.7206950461024
 30
0.0
 11
328.5817991729077
 21
256.2676364751662
 31
0.0
  0
LINE
  5
17AF
330
18
100
AcDbEntity
  8
目盛
100
AcDbLine
 10
329.4542398744608
 20
254.7816979507759
 30
0.0
 11
329.3083719888171
 21
256.3248189959107
 31
0.0
  0
LINE
  5
17B0
330
18
100
AcDbEntity
  8
目盛
100
AcDbLine
 10
330.2270566505441
 20
254.8670177171688
 30
0.0
 11
330.0327901385194
 21
256.4047955042062
 31
0.0
  0
LINE
  5
17B1
330
18
100
AcDbEntity
  8
目盛
100
AcDbLine
 10
330.9968121295733
 20
254.9765701449725
 30
0.0
 11
330.6291911367288
 21
257.2976377453711
 31
0.0
  0
LINE
  5
17B2
330
18
100
AcDbEntity
  8
目盛
100
AcDbLine
 10
331.7627466558243
 20
255.1102471191671
 30
0.0
 11
331.4723056182164
 21
256.6327923577965
 31
0.0
  0
LINE
  5
17B3
330
18
100
AcDbEntity
  8
目盛
100
AcDbLine
 10
332.524104344392
 20
255.267916716718
 30
0.0
 11
332.1859823202274
 21
256.7805876977232
 31
0.0
  0
LINE
  5
17B4
330
18
100
AcDbEntity
  8
目盛
100
AcDbLine
 10
327.9024754070113
 20
254.6840692056502
 30
0.0
 11
327.8537887304401
 21
256.2333043742171
 31
0.0
  0
LINE
  5
17B5
330
18
100
AcDbEntity
  8
目盛
100
AcDbLine
 10
340.3867722955577
 20
258.5247404185272
 30
0.0
 11
339.5562407633403
 21
259.8334487030552
 31
0.0
  0
LINE
  5
17B6
330
18
100
AcDbEntity
  8
目盛
100
AcDbLine
 10
341.0366227216678
 20
258.9516123614065
 30
0.0
 11
340.1653934859969
 21
260.2335872515321
 31
0.0
  0
LINE
  5
17B7
330
18
100
AcDbEntity
  8
目盛
100
AcDbLine
 10
341.6727441140662
 20
259.3986859639221
 30
0.0
 11
339.9093883571889
 21
261.8257369470469
 31
0.0
  0
LINE
  5
17B8
330
18
100
AcDbEntity
  8
目盛
100
AcDbLine
 10
336.2361417987732
 20
256.4098885489678
 30
0.0
 11
335.665548742112
 21
257.8510421020946
 31
0.0
  0
LINE
  5
17B9
330
18
100
AcDbEntity
  8
目盛
100
AcDbLine
 10
336.9544694130383
 20
256.7074295890236
 30
0.0
 11
336.3388901825544
 21
258.1299492588336
 31
0.0
  0
LINE
  5
17BA
330
18
100
AcDbEntity
  8
目盛
100
AcDbLine
 10
337.6630965860631
 20
257.027387026168
 30
0.0
 11
337.0031386841372
 21
258.4298689574904
 31
0.0
  0
LINE
  5
17BB
330
18
100
AcDbEntity
  8
目盛
100
AcDbLine
 10
338.3613239883814
 20
257.3694451010399
 30
0.0
 11
337.2944463139934
 21
259.4633104328825
 31
0.0
  0
LINE
  5
17BC
330
18
100
AcDbEntity
  8
目盛
100
AcDbLine
 10
339.0484625538451
 20
257.7332662436164
 30
0.0
 11
338.3017443589874
 21
259.0915415976844
 31
0.0
  0
LINE
  5
17BD
330
18
100
AcDbEntity
  8
目盛
100
AcDbLine
 10
339.7238341596493
 20
258.1184914063544
 30
0.0
 11
338.9348199652361
 21
259.4526415482105
 31
0.0
  0
LINE
  5
17BE
330
18
100
AcDbEntity
  8
目盛
100
AcDbLine
 10
335.5088226458985
 20
256.135057543085
 30
0.0
 11
334.9837788695183
 21
257.593422734964
 31
0.0
  0
LINE
  5
17BF
330
18
100
AcDbEntity
  8
目盛
100
AcDbLine
 10
346.1952618785283
 20
263.6456128284221
 30
0.0
 11
345.0009663522259
 21
264.6336200125325
 31
0.0
  0
LINE
  5
17C0
330
18
100
AcDbEntity
  8
目盛
100
AcDbLine
 10
346.6813956761259
 20
264.2524069967909
 30
0.0
 11
345.4566554069436
 21
265.202412929953
 31
0.0
  0
LINE
  5
17C1
330
18
100
AcDbEntity
  8
目盛
100
AcDbLine
 10
347.1482297306075
 20
264.8741715804634
 30
0.0
 11
344.7211787474827
 21
266.6375273373408
 31
0.0
  0
LINE
  5
17C2
330
18
100
AcDbEntity
  8
目盛
100
AcDbLine
 10
342.9013028661076
 20
260.3516538160012
 30
0.0
 11
341.9132956819972
 21
261.5459493423038
 31
0.0
  0
LINE
  5
17C3
330
18
100
AcDbEntity
  8
目盛
100
AcDbLine
 10
343.4925277865878
 20
260.8566076013482
 30
0.0
 11
342.4674943953362
 21
262.0192797592754
 31
0.0
  0
LINE
  5
17C4
330
18
100
AcDbEntity
  8
目盛
100
AcDbLine
 10
344.0675999915626
 20
261.3798830460221
 30
0.0
 11
343.0065519773731
 21
262.5097844185254
 31
0.0
  0
LINE
  5
17C5
330
18
100
AcDbEntity
  8
目盛
100
AcDbLine
 10
344.6259519541946
 20
261.920963740335
 30
0.0
 11
342.9642510184062
 21
263.5826646761235
 31
0.0
  0
LINE
  5
17C6
330
18
100
AcDbEntity
  8
目盛
100
AcDbLine
 10
345.1670326485075
 20
262.4793157029671
 30
0.0
 11
344.0371312760043
 21
263.5403637171565
 31
0.0
  0
LINE
  5
17C7
330
18
100
AcDbEntity
  8
目盛
100
AcDbLine
 10
345.6903080931815
 20
263.0543879079417
 30
0.0
 11
344.5276359352542
 21
264.0794212991934
 31
0.0
  0
LINE
  5
17C8
330
18
100
AcDbEntity
  8
目盛
100
AcDbLine
 10
342.2945086977387
 20
259.8655200184037
 30
0.0
 11
341.3445027645765
 21
261.0902602875861
 31
0.0
  0
LINE
  5
17C9
330
18
100
AcDbEntity
  8
目盛
100
AcDbLine
 10
350.1370271455617
 20
270.3107738957563
 30
0.0
 11
348.695873592435
 21
270.8813669524176
 31
0.0
  0
LINE
  5
17CA
330
18
100
AcDbEntity
  8
目盛
100
AcDbLine
 10
350.4118581514446
 20
271.0380930486311
 30
0.0
 11
348.9534929595655
 21
271.5631368250113
 31
0.0
  0
LINE
  5
17CB
330
18
100
AcDbEntity
  8
目盛
100
AcDbLine
 10
350.6637078981326
 20
271.7736859639221
 30
0.0
 11
347.8105383492471
 21
272.700736947047
 31
0.0
  0
LINE
  5
17CC
330
18
100
AcDbEntity
  8
目盛
100
AcDbLine
 10
348.0221752760024
 20
266.1601433989719
 30
0.0
 11
346.7134669914742
 21
266.9906749311893
 31
0.0
  0
LINE
  5
17CD
330
18
100
AcDbEntity
  8
目盛
100
AcDbLine
 10
348.428424288175
 20
266.8230815348804
 30
0.0
 11
347.094274146319
 21
267.6120957292935
 31
0.0
  0
LINE
  5
17CE
330
18
100
AcDbEntity
  8
目盛
100
AcDbLine
 10
348.8136494509131
 20
267.4984531406847
 30
0.0
 11
347.4553740968451
 21
268.2451713355423
 31
0.0
  0
LINE
  5
17CF
330
18
100
AcDbEntity
  8
目盛
100
AcDbLine
 10
349.1774705934897
 20
268.1855917061484
 30
0.0
 11
347.083605261647
 21
269.2524693805363
 31
0.0
  0
LINE
  5
17D0
330
18
100
AcDbEntity
  8
目盛
100
AcDbLine
 10
349.5195286683615
 20
268.8838191084666
 30
0.0
 11
348.1170467370392
 21
269.5437770103924
 31
0.0
  0
LINE
  5
17D1
330
18
100
AcDbEntity
  8
目盛
100
AcDbLine
 10
349.8394861055061
 20
269.5924462814913
 30
0.0
 11
348.4169664356959
 21
270.2080255119752
 31
0.0
  0
LINE
  5
17D2
330
18
100
AcDbEntity
  8
目盛
100
AcDbLine
 10
347.5953033331229
 20
265.5102929728619
 30
0.0
 11
346.3133284429974
 21
266.3815222085327
 31
0.0
  0
LINE
  5
17D3
330
18
100
AcDbEntity
  8
目盛
100
AcDbLine
 10
351.8262206484272
 20
277.8677912163516
 30
0.0
 11
350.2792792193635
 21
277.965116521622
 31
0.0
  0
LINE
  5
17D4
330
18
100
AcDbEntity
  8
目盛
100
AcDbLine
 10
351.8628464888794
 20
278.6444402875184
 30
0.0
 11
350.3136113203126
 21
278.6931269640894
 31
0.0
  0
LINE
  5
17D5
330
18
100
AcDbEntity
  8
目盛
100
AcDbLine
 10
351.8750591198275
 20
279.4218565747021
 30
0.0
 11
348.8750591198276
 21
279.4218565747021
 31
0.0
  0
LINE
  5
17D6
330
18
100
AcDbEntity
  8
目盛
100
AcDbLine
 10
351.0974923577612
 20
273.2667818673719
 30
0.0
 11
349.5961884580118
 21
273.6522511924774
 31
0.0
  0
LINE
  5
17D7
330
18
100
AcDbEntity
  8
目盛
100
AcDbLine
 10
351.2789989778115
 20
274.0228113501376
 30
0.0
 11
349.7663279968065
 21
274.3609333743023
 31
0.0
  0
LINE
  5
17D8
330
18
100
AcDbEntity
  8
目盛
100
AcDbLine
 10
351.4366685753626
 20
274.7841690387054
 30
0.0
 11
349.9141233367331
 21
275.0746100763133
 31
0.0
  0
LINE
  5
17D9
330
18
100
AcDbEntity
  8
目盛
100
AcDbLine
 10
351.5703455495572
 20
275.5501035649564
 30
0.0
 11
349.2492779491586
 21
275.9177245578009
 31
0.0
  0
LINE
  5
17DA
330
18
100
AcDbEntity
  8
目盛
100
AcDbLine
 10
351.6798979773609
 20
276.3198590439856
 30
0.0
 11
350.1421201903235
 21
276.5141255560102
 31
0.0
  0
LINE
  5
17DB
330
18
100
AcDbEntity
  8
目盛
100
AcDbLine
 10
351.7652177437538
 20
277.0926758200689
 30
0.0
 11
350.222096698619
 21
277.2385437057125
 31
0.0
  0
LINE
  5
17DC
330
18
100
AcDbEntity
  8
目盛
100
AcDbLine
 10
350.8923278403319
 20
272.5168267002311
 30
0.0
 11
349.4038726275326
 21
272.9492629145919
 31
0.0
  0
LINE
  5
17DD
330
18
100
AcDbEntity
  8
目盛
100
AcDbLine
 10
351.0974923577612
 20
285.5769312820322
 30
0.0
 11
349.5961884580119
 21
285.1914619569267
 31
0.0
  0
LINE
  5
17DE
330
18
100
AcDbEntity
  8
目盛
100
AcDbLine
 10
350.892327840332
 20
286.3268864491729
 30
0.0
 11
349.4038726275327
 21
285.8944502348121
 31
0.0
  0
LINE
  5
17DF
330
18
100
AcDbEntity
  8
目盛
100
AcDbLine
 10
350.6637078981326
 20
287.0700271854821
 30
0.0
 11
347.8105383492472
 21
286.1429762023572
 31
0.0
  0
LINE
  5
17E0
330
18
100
AcDbEntity
  8
目盛
100
AcDbLine
 10
351.8262206484273
 20
280.9759219330525
 30
0.0
 11
350.2792792193635
 21
280.8785966277822
 31
0.0
  0
LINE
  5
17E1
330
18
100
AcDbEntity
  8
目盛
100
AcDbLine
 10
351.7652177437538
 20
281.7510373293353
 30
0.0
 11
350.2220966986191
 21
281.6051694436915
 31
0.0
  0
LINE
  5
17E2
330
18
100
AcDbEntity
  8
目盛
100
AcDbLine
 10
351.6798979773609
 20
282.5238541054186
 30
0.0
 11
350.1421201903235
 21
282.3295875933939
 31
0.0
  0
LINE
  5
17E3
330
18
100
AcDbEntity
  8
目盛
100
AcDbLine
 10
351.5703455495572
 20
283.2936095844478
 30
0.0
 11
349.2492779491587
 21
282.9259885916032
 31
0.0
  0
LINE
  5
17E4
330
18
100
AcDbEntity
  8
目盛
100
AcDbLine
 10
351.4366685753627
 20
284.0595441106988
 30
0.0
 11
349.9141233367331
 21
283.7691030730909
 31
0.0
  0
LINE
  5
17E5
330
18
100
AcDbEntity
  8
目盛
100
AcDbLine
 10
351.2789989778116
 20
284.8209017992665
 30
0.0
 11
349.7663279968065
 21
284.4827797751019
 31
0.0
  0
LINE
  5
17E6
330
18
100
AcDbEntity
  8
目盛
100
AcDbLine
 10
351.8628464888794
 20
280.1992728618857
 30
0.0
 11
350.3136113203126
 21
280.1505861853146
 31
0.0
  0
LINE
  5
17E7
330
18
100
AcDbEntity
  8
目盛
100
AcDbLine
 10
348.0221752760024
 20
292.6835697504322
 30
0.0
 11
346.7134669914743
 21
291.8530382182147
 31
0.0
  0
LINE
  5
17E8
330
18
100
AcDbEntity
  8
目盛
100
AcDbLine
 10
347.595303333123
 20
293.3334201765423
 30
0.0
 11
346.3133284429974
 21
292.4621909408714
 31
0.0
  0
LINE
  5
17E9
330
18
100
AcDbEntity
  8
目盛
100
AcDbLine
 10
347.1482297306075
 20
293.9695415689408
 30
0.0
 11
344.7211787474827
 21
292.2061858120633
 31
0.0
  0
LINE
  5
17EA
330
18
100
AcDbEntity
  8
目盛
100
AcDbLine
 10
350.1370271455618
 20
288.5329392536478
 30
0.0
 11
348.695873592435
 21
287.9623461969865
 31
0.0
  0
LINE
  5
17EB
330
18
100
AcDbEntity
  8
目盛
100
AcDbLine
 10
349.8394861055061
 20
289.2512668679128
 30
0.0
 11
348.4169664356959
 21
288.6356876374289
 31
0.0
  0
LINE
  5
17EC
330
18
100
AcDbEntity
  8
目盛
100
AcDbLine
 10
349.5195286683616
 20
289.9598940409376
 30
0.0
 11
348.1170467370392
 21
289.2999361390117
 31
0.0
  0
LINE
  5
17ED
330
18
100
AcDbEntity
  8
目盛
100
AcDbLine
 10
349.1774705934897
 20
290.6581214432558
 30
0.0
 11
347.083605261647
 21
289.5912437688679
 31
0.0
  0
LINE
  5
17EE
330
18
100
AcDbEntity
  8
目盛
100
AcDbLine
 10
348.8136494509131
 20
291.3452600087195
 30
0.0
 11
347.4553740968452
 21
290.5985418138619
 31
0.0
  0
LINE
  5
17EF
330
18
100
AcDbEntity
  8
目盛
100
AcDbLine
 10
348.4284242881752
 20
292.0206316145238
 30
0.0
 11
347.094274146319
 21
291.2316174201107
 31
0.0
  0
LINE
  5
17F0
330
18
100
AcDbEntity
  8
目盛
100
AcDbLine
 10
350.4118581514446
 20
287.805620100773
 30
0.0
 11
348.9534929595656
 21
287.2805763243928
 31
0.0
  0
LINE
  5
17F1
330
18
100
AcDbEntity
  8
目盛
100
AcDbLine
 10
342.9013028661076
 20
298.4920593334029
 30
0.0
 11
341.9132956819972
 21
297.2977638071004
 31
0.0
  0
LINE
  5
17F2
330
18
100
AcDbEntity
  8
目盛
100
AcDbLine
 10
342.2945086977388
 20
298.9781931310004
 30
0.0
 11
341.3445027645766
 21
297.7534528618181
 31
0.0
  0
LINE
  5
17F3
330
18
100
AcDbEntity
  8
目盛
100
AcDbLine
 10
341.6727441140662
 20
299.445027185482
 30
0.0
 11
339.9093883571889
 21
297.0179762023572
 31
0.0
  0
LINE
  5
17F4
330
18
100
AcDbEntity
  8
目盛
100
AcDbLine
 10
346.1952618785284
 20
295.1981003209821
 30
0.0
 11
345.0009663522259
 21
294.2100931368717
 31
0.0
  0
LINE
  5
17F5
330
18
100
AcDbEntity
  8
目盛
100
AcDbLine
 10
345.6903080931815
 20
295.7893252414624
 30
0.0
 11
344.5276359352543
 21
294.7642918502108
 31
0.0
  0
LINE
  5
17F6
330
18
100
AcDbEntity
  8
目盛
100
AcDbLine
 10
345.1670326485075
 20
296.3643974464371
 30
0.0
 11
344.0371312760043
 21
295.3033494322476
 31
0.0
  0
LINE
  5
17F7
330
18
100
AcDbEntity
  8
目盛
100
AcDbLine
 10
344.6259519541946
 20
296.9227494090691
 30
0.0
 11
342.9642510184062
 21
295.2610484732807
 31
0.0
  0
LINE
  5
17F8
330
18
100
AcDbEntity
  8
目盛
100
AcDbLine
 10
344.0675999915626
 20
297.463830103382
 30
0.0
 11
343.0065519773731
 21
296.3339287308789
 31
0.0
  0
LINE
  5
17F9
330
18
100
AcDbEntity
  8
目盛
100
AcDbLine
 10
343.4925277865879
 20
297.9871055480559
 30
0.0
 11
342.4674943953363
 21
296.8244333901287
 31
0.0
  0
LINE
  5
17FA
330
18
100
AcDbEntity
  8
目盛
100
AcDbLine
 10
346.6813956761259
 20
294.5913061526132
 30
0.0
 11
345.4566554069436
 21
293.6413002194511
 31
0.0
  0
LINE
  5
17FB
330
18
100
AcDbEntity
  8
目盛
100
AcDbLine
 10
336.2361417987733
 20
302.4338246004362
 30
0.0
 11
335.665548742112
 21
300.9926710473095
 31
0.0
  0
LINE
  5
17FC
330
18
100
AcDbEntity
  8
目盛
100
AcDbLine
 10
335.5088226458985
 20
302.7086556063192
 30
0.0
 11
334.9837788695183
 21
301.2502904144402
 31
0.0
  0
LINE
  5
17FD
330
18
100
AcDbEntity
  8
目盛
100
AcDbLine
 10
334.7732297306075
 20
302.9605053530072
 30
0.0
 11
333.8461787474826
 21
300.1073358041216
 31
0.0
  0
LINE
  5
17FE
330
18
100
AcDbEntity
  8
目盛
100
AcDbLine
 10
340.3867722955577
 20
300.3189727308769
 30
0.0
 11
339.5562407633403
 21
299.0102644463488
 31
0.0
  0
LINE
  5
17FF
330
18
100
AcDbEntity
  8
目盛
100
AcDbLine
 10
339.7238341596493
 20
300.7252217430496
 30
0.0
 11
338.9348199652362
 21
299.3910716011935
 31
0.0
  0
LINE
  5
1800
330
18
100
AcDbEntity
  8
目盛
100
AcDbLine
 10
339.048462553845
 20
301.1104469057877
 30
0.0
 11
338.3017443589873
 21
299.7521715517196
 31
0.0
  0
LINE
  5
1801
330
18
100
AcDbEntity
  8
目盛
100
AcDbLine
 10
338.3613239883813
 20
301.4742680483642
 30
0.0
 11
337.2944463139933
 21
299.3804027165215
 31
0.0
  0
LINE
  5
1802
330
18
100
AcDbEntity
  8
目盛
100
AcDbLine
 10
337.6630965860631
 20
301.816326123236
 30
0.0
 11
337.0031386841372
 21
300.4138441919138
 31
0.0
  0
LINE
  5
1803
330
18
100
AcDbEntity
  8
目盛
100
AcDbLine
 10
336.9544694130383
 20
302.1362835603806
 30
0.0
 11
336.3388901825544
 21
300.7137638905704
 31
0.0
  0
LINE
  5
1804
330
18
100
AcDbEntity
  8
目盛
100
AcDbLine
 10
341.0366227216678
 20
299.8921007879975
 30
0.0
 11
340.1653934859969
 21
298.6101258978719
 31
0.0
  0
TEXT
  5
1807
330
18
100
AcDbEntity
  8
文字
100
AcDbText
 10
326.2771347722157
 20
297.507484169987
 30
0.0
 40
2.5
  1
0
  7
STYLE3
100
AcDbText
  0
TEXT
  5
1808
330
18
100
AcDbEntity
  8
文字
100
AcDbText
 10
330.6056455478736
 20
296.2551075807592
 30
0.0
 40
2.5
  1
10
  7
STYLE3
100
AcDbText
  0
TEXT
  5
1809
330
18
100
AcDbEntity
  8
文字
100
AcDbText
 10
336.5720775592326
 20
293.6183480722307
 30
0.0
 40
2.5
  1
20
  7
STYLE3
100
AcDbText
  0
TEXT
  5
180A
330
18
100
AcDbEntity
  8
文字
100
AcDbText
 10
340.5946683009868
 20
289.2540483298521
 30
0.0
 40
2.5
  1
30
  7
STYLE3
100
AcDbText
  0
TEXT
  5
180B
330
18
100
AcDbEntity
  8
文字
100
AcDbText
 10
342.9306379223576
 20
283.8099294827649
 30
0.0
 40
2.5
  1
40
  7
STYLE3
100
AcDbText
  0
TEXT
  5
180C
330
18
100
AcDbEntity
  8
文字
100
AcDbText
 10
344.0110154837426
 20
278.0192953272208
 30
0.0
 40
2.5
  1
50
  7
STYLE3
100
AcDbText
  0
TEXT
  5
180D
330
18
100
AcDbEntity
  8
文字
100
AcDbText
 10
342.8869746606854
 20
272.1858712029749
 30
0.0
 40
2.5
  1
60
  7
STYLE3
100
AcDbText
  0
TEXT
  5
180E
330
18
100
AcDbEntity
  8
文字
100
AcDbText
 10
340.8949910430247
 20
267.2583092694019
 30
0.0
 40
2.5
  1
70
  7
STYLE3
100
AcDbText
  0
TEXT
  5
180F
330
18
100
AcDbEntity
  8
文字
100
AcDbText
 10
336.873800407294
 20
262.6806179084872
 30
0.0
 40
2.5
  1
80
  7
STYLE3
100
AcDbText
  0
TEXT
  5
1810
330
18
100
AcDbEntity
  8
文字
100
AcDbText
 10
319.0142484343032
 20
296.6424552034289
 30
0.0
 40
2.5
  1
10
  7
STYLE3
100
AcDbText
  0
TEXT
  5
1811
330
18
100
AcDbEntity
  8
文字
100
AcDbText
 10
314.2549865835034
 20
293.9640244508995
 30
0.0
 40
2.5
  1
20
  7
STYLE3
100
AcDbText
  0
TEXT
  5
1812
330
18
100
AcDbEntity
  8
文字
100
AcDbText
 10
309.9312328794856
 20
289.9881901459896
 30
0.0
 40
2.5
  1
30
  7
STYLE3
100
AcDbText
  0
TEXT
  5
1813
330
18
100
AcDbEntity
  8
文字
100
AcDbText
 10
306.6467141358574
 20
284.5007221953255
 30
0.0
 40
2.5
  1
40
  7
STYLE3
100
AcDbText
  0
TEXT
  5
1814
330
18
100
AcDbEntity
  8
文字
100
AcDbText
 10
305.5666161258427
 20
278.3210630124869
 30
0.0
 40
2.5
  1
50
  7
STYLE3
100
AcDbText
  0
TEXT
  5
1815
330
18
100
AcDbEntity
  8
文字
100
AcDbText
 10
306.9489968697169
 20
271.884663562486
 30
0.0
 40
2.5
  1
60
  7
STYLE3
100
AcDbText
  0
TEXT
  5
1816
330
18
100
AcDbEntity
  8
文字
100
AcDbText
 10
309.6303510347065
 20
266.4836144790138
 30
0.0
 40
2.5
  1
70
  7
STYLE3
100
AcDbText
  0
TEXT
  5
1817
330
18
100
AcDbEntity
  8
文字
100
AcDbText
 10
313.2216292494069
 20
262.9222897409905
 30
0.0
 40
2.5
  1
80
  7
STYLE3
100
AcDbText
  0
TEXT
  5
1818
330
18
100
AcDbEntity
  8
文字
100
AcDbText
 10
318.7144855780633
 20
259.7678555041489
 30
0.0
 40
2.5
  1
90
  7
STYLE3
100
AcDbText
  0
TEXT
  5
1819
330
18
100
AcDbEntity
  8
文字
100
AcDbText
 10
323.8191335385965
 20
258.7316662078324
 30
0.0
 40
2.5
  1
100
 41
0.8
  7
STYLE3
100
AcDbText
  0
TEXT
  5
181A
330
18
100
AcDbEntity
  8
文字
100
AcDbText
 10
331.6412416421049
 20
259.8545537113026
 30
0.0
 40
2.5
  1
90
  7
STYLE3
100
AcDbText
  0
TEXT
  5
1939
330
18
100
AcDbEntity
  8
文字
100
AcDbText
 10
323.8271432029799
 20
283.9210051438357
 30
0.0
 40
1.3
  1
NO.25S
  7
STYLE3
100
AcDbText
  0
LINE
  5
1984
330
18
100
AcDbEntity
  8
外形線
100
AcDbLine
 10
323.4250591198275
 20
273.770599078808
 30
0.0
 11
323.4250591198275
 21
274.2705990788079
 31
0.0
  0
POINT
  5
1985
330
18
100
AcDbEntity
  8
DEFPOINTS
  6
ByBlock
 62
     0
100
AcDbPoint
 10
321.9572283965466
 20
274.0381175312099
 30
0.0
  0
LINE
  5
1986
330
18
100
AcDbEntity
  8
外形線
100
AcDbLine
 10
322.111736893734
 20
273.5625892730623
 30
0.0
 11
321.9572283965466
 21
274.0381175312099
 31
0.0
  0
LINE
  5
1987
330
18
100
AcDbEntity
  8
外形線
100
AcDbLine
 10
320.9269717975845
 20
272.9589213049015
 30
0.0
 11
320.6330791714383
 21
273.3634298020889
 31
0.0
  0
LINE
  5
1988
330
18
100
AcDbEntity
  8
外形線
100
AcDbLine
 10
319.986736893734
 20
272.018686401051
 30
0.0
 11
319.5822283965465
 21
272.3125790271971
 31
0.0
  0
LINE
  5
1989
330
18
100
AcDbEntity
  8
外形線
100
AcDbLine
 10
319.3830689255731
 20
270.8339213049014
 30
0.0
 11
318.9075406674255
 21
270.9884298020889
 31
0.0
  0
LINE
  5
198A
330
18
100
AcDbEntity
  8
外形線
100
AcDbLine
 10
319.1750591198275
 20
269.520599078808
 30
0.0
 11
318.6750591198275
 21
269.520599078808
 31
0.0
  0
LINE
  5
198B
330
18
100
AcDbEntity
  8
外形線
100
AcDbLine
 10
327.6750591198275
 20
269.520599078808
 30
0.0
 11
328.1750591198275
 21
269.520599078808
 31
0.0
  0
LINE
  5
198C
330
18
100
AcDbEntity
  8
外形線
100
AcDbLine
 10
327.467049314082
 20
270.8339213049014
 30
0.0
 11
327.9425775722295
 21
270.9884298020889
 31
0.0
  0
LINE
  5
198D
330
18
100
AcDbEntity
  8
外形線
100
AcDbLine
 10
326.8633813459211
 20
272.018686401051
 30
0.0
 11
327.2678898431085
 21
272.3125790271971
 31
0.0
  0
LINE
  5
198E
330
18
100
AcDbEntity
  8
外形線
100
AcDbLine
 10
325.9231464420705
 20
272.9589213049015
 30
0.0
 11
326.2170390682168
 21
273.3634298020889
 31
0.0
  0
LINE
  5
198F
330
18
100
AcDbEntity
  8
外形線
100
AcDbLine
 10
324.738381345921
 20
273.5625892730623
 30
0.0
 11
324.8928898431085
 21
274.0381175312099
 31
0.0
  0
POINT
  5
1990
330
18
100
AcDbEntity
  8
DEFPOINTS
  6
ByBlock
 62
     0
100
AcDbPoint
 10
324.8928898431085
 20
274.0381175312099
 30
0.0
  0
TEXT
  5
1991
330
18
100
AcDbEntity
  8
文字
100
AcDbText
 10
325.2715925805568
 20
268.1731746225741
 30
0.0
 40
1.0
  1
.4
  7
STYLE3
100
AcDbText
  0
TEXT
  5
1992
330
18
100
AcDbEntity
  8
文字
100
AcDbText
 10
325.1922525041455
 20
270.1508512214861
 30
0.0
 40
1.0
  1
.6
  7
STYLE3
100
AcDbText
  0
TEXT
  5
1993
330
18
100
AcDbEntity
  8
文字
100
AcDbText
 10
324.4499299088556
 20
271.8610823805559
 30
0.0
 40
1.0
  1
.8
  7
STYLE3
100
AcDbText
  0
TEXT
  5
1994
330
18
100
AcDbEntity
  8
文字
100
AcDbText
 10
322.9715130958051
 20
272.3860467288819
 30
0.0
 40
1.0
  1
0
  7
STYLE3
100
AcDbText
  0
TEXT
  5
1995
330
18
100
AcDbEntity
  8
文字
100
AcDbText
 10
319.608713670535
 20
270.1207711821299
 30
0.0
 40
1.0
  1
.4
  7
STYLE3
100
AcDbText
  0
TEXT
  5
1996
330
18
100
AcDbEntity
  8
文字
100
AcDbText
 10
320.5402179526582
 20
271.7232286953481
 30
0.0
 40
1.0
  1
.2
  7
STYLE3
100
AcDbText
  0
CIRCLE
  5
19BF
330
18
100
AcDbEntity
  8
外形線
100
AcDbCircle
 10
323.4250591198275
 20
269.520599078808
 30
0.0
 40
4.75
  0
LINE
  5
19C0
330
18
100
AcDbEntity
  8
外形線
100
AcDbLine
 10
319.3830689255731
 20
268.2072768527144
 30
0.0
 11
318.9075406674255
 21
268.0527683555269
 31
0.0
  0
LINE
  5
19C1
330
18
100
AcDbEntity
  8
外形線
100
AcDbLine
 10
319.986736893734
 20
267.0225117565649
 30
0.0
 11
319.5822283965465
 21
266.7286191304187
 31
0.0
  0
LINE
  5
19C2
330
18
100
AcDbEntity
  8
外形線
100
AcDbLine
 10
320.9269717975845
 20
266.0822768527144
 30
0.0
 11
320.6330791714383
 21
265.6777683555269
 31
0.0
  0
LINE
  5
19C3
330
18
100
AcDbEntity
  8
外形線
100
AcDbLine
 10
322.111736893734
 20
265.4786088845535
 30
0.0
 11
321.9572283965466
 21
265.003080626406
 31
0.0
  0
LINE
  5
19C4
330
18
100
AcDbEntity
  8
外形線
100
AcDbLine
 10
323.4250591198275
 20
265.270599078808
 30
0.0
 11
323.4250591198275
 21
264.7705990788079
 31
0.0
  0
LINE
  5
19C5
330
18
100
AcDbEntity
  8
外形線
100
AcDbLine
 10
324.738381345921
 20
265.4786088845535
 30
0.0
 11
324.8928898431085
 21
265.003080626406
 31
0.0
  0
LINE
  5
19C6
330
18
100
AcDbEntity
  8
外形線
100
AcDbLine
 10
325.9231464420705
 20
266.0822768527144
 30
0.0
 11
326.2170390682168
 21
265.6777683555269
 31
0.0
  0
LINE
  5
19C7
330
18
100
AcDbEntity
  8
外形線
100
AcDbLine
 10
326.8633813459211
 20
267.0225117565649
 30
0.0
 11
327.2678898431085
 21
266.7286191304187
 31
0.0
  0
LINE
  5
19C8
330
18
100
AcDbEntity
  8
外形線
100
AcDbLine
 10
327.467049314082
 20
268.2072768527144
 30
0.0
 11
327.9425775722295
 21
268.0527683555269
 31
0.0
  0
TEXT
  5
19C9
330
18
100
AcDbEntity
  8
文字
100
AcDbText
 10
319.6232682300642
 20
268.0619748831083
 30
0.0
 40
1.0
  1
.6
  7
STYLE3
100
AcDbText
  0
TEXT
  5
19CA
330
18
100
AcDbEntity
  8
文字
100
AcDbText
 10
322.9900032780503
 20
265.5877806799969
 30
0.0
 40
1.0
  1
0
  7
STYLE3
100
AcDbText
  0
TEXT
  5
19CB
330
18
100
AcDbEntity
  8
文字
100
AcDbText
 10
324.7151072730286
 20
266.3383789213903
 30
0.0
 40
1.0
  1
.2
  7
STYLE3
100
AcDbText
  0
TEXT
  5
19CC
330
18
100
AcDbEntity
  8
文字
100
AcDbText
 10
320.8197109537116
 20
266.4495786608559
 30
0.0
 40
1.0
  1
.8
  7
STYLE3
100
AcDbText
  0
TEXT
  5
1A0F
330
18
100
AcDbEntity
  8
文字
100
AcDbText
 10
332.8296775854794
 20
247.1519415665397
 30
0.0
 40
1.0
  1
0
  7
STYLE3
100
AcDbText
  0
TEXT
  5
1A10
330
18
100
AcDbEntity
  8
文字
100
AcDbText
 10
331.639135381862
 20
245.7401633647285
 30
0.0
 40
1.0
  1
-0.03
  7
STYLE3
100
AcDbText
  0
HATCH
  5
1A11
330
18
100
AcDbEntity
  8
針
100
AcDbHatch
 10
0.0
 20
0.0
 30
0.0
210
0.0
220
0.0
230
1.0
  2
SOLID
 70
     1
 71
     0
 91
        1
 92
        7
 72
     1
 73
     1
 93
        7
 10
325.5001223953258
 20
281.0287638587132
 42
-0.1649924501947782
 10
325.682618803351
 20
280.4127480588734
 42
-0.1719454326713527
 10
326.6284038880279
 20
281.0999011452442
 42
-0.1649924501947309
 10
326.0989325389417
 20
281.463824894251
 42
0.0
 10
312.7849967132401
 20
299.2868568308102
 42
0.0
 10
312.724320438662
 20
299.2427729368883
 42
0.0
 10
312.6636441640838
 20
299.1986890429664
 42
0.0
 97
        0
 75
     0
 76
     1
 47
0.0639391368235378
 98
        1
 10
324.3246589197994
 20
283.2181704511835
450
        0
451
        0
460
0.0
461
0.0
452
        0
462
0.0
453
        0
470

  0
LINE
  5
1A12
330
18
100
AcDbEntity
  8
針
100
AcDbLine
 10
325.5001223953258
 20
281.0287638587131
 30
0.0
 11
312.6636441640838
 21
299.1986890429664
 31
0.0
  0
LINE
  5
1A13
330
18
100
AcDbEntity
  8
針
100
AcDbLine
 10
326.0989325389417
 20
281.4638248942511
 30
0.0
 11
312.7849967132401
 21
299.2868568308102
 31
0.0
  0
ARC
  5
1A14
330
18
100
AcDbEntity
  8
針
100
AcDbCircle
 10
326.9000818966476
 20
282.062289351548
 30
0.0
 40
1.0
100
AcDbArc
 50
216.7600014781239
 51
254.2358574327112
  0
CIRCLE
  5
1A15
330
18
100
AcDbEntity
  8
針
100
AcDbCircle
 10
327.1250591198275
 20
279.4218565747021
 30
0.0
 40
1.75
  0
CIRCLE
  5
1A16
330
18
100
AcDbEntity
  8
針
100
AcDbCircle
 10
327.1250591198275
 20
279.4218565747021
 30
0.0
 40
1.549999999999999
  0
ARC
  5
1A17
330
18
100
AcDbEntity
  8
針
100
AcDbCircle
 10
324.6833801068789
 20
280.4517612293754
 30
0.0
 40
1.0
100
AcDbArc
 50
357.7641425672888
 51
35.23999852187607
  0
CIRCLE
  5
1A18
330
18
100
AcDbEntity
  8
針
100
AcDbCircle
 10
327.1250591198275
 20
279.4218565747021
 30
0.0
 40
0.3
  0
LINE
  5
1A19
330
18
100
AcDbEntity
  8
針
100
AcDbLine
 10
312.724320438662
 20
299.2427729368883
 30
0.0
 11
312.7849967132401
 21
299.2868568308102
 31
0.0
  0
LINE
  5
1A1A
330
18
100
AcDbEntity
  8
針
100
AcDbLine
 10
312.724320438662
 20
299.2427729368883
 30
0.0
 11
312.6636441640839
 21
299.1986890429664
 31
0.0
  0
HATCH
  5
1A1B
330
18
100
AcDbEntity
  8
針
100
AcDbHatch
 10
0.0
 20
0.0
 30
0.0
210
0.0
220
0.0
230
1.0
  2
SOLID
 70
     1
 71
     0
 91
        2
 92
        7
 72
     1
 73
     1
 93
        5
 10
322.3759704740045
 20
269.1898226993532
 42
0.31735696877887
 10
323.3853034693365
 20
268.4213177279909
 42
0.0
 10
323.6595201647063
 20
268.7769836475137
 42
0.0
 10
323.6505884694557
 20
268.8053113657467
 42
-0.4142135623731173
 10
322.7097714067664
 20
269.2950697291797
 42
0.0
 97
        0
 92
        7
 72
     1
 73
     1
 93
        4
 10
322.3759704740045
 20
269.1898226993532
 42
0.0
 10
322.7097714067664
 20
269.2950697291797
 42
-0.4142135623730728
 10
323.1995297701993
 20
270.235886791869
 42
0.0
 10
323.0942827403728
 20
270.5696877246309
 42
0.4142135623730844
 97
        0
 75
     0
 76
     1
 47
0.0161501285364394
 98
        2
 10
322.7150276387623
 20
268.8737799862729
 10
322.5165803589192
 20
269.5568808387546
450
        0
451
        0
460
0.0
461
0.0
452
        0
462
0.0
453
        0
470

  0
HATCH
  5
1A1C
330
18
100
AcDbEntity
  8
針
100
AcDbHatch
 10
0.0
 20
0.0
 30
0.0
210
0.0
220
0.0
230
1.0
  2
SOLID
 70
     1
 71
     0
 91
        4
 92
        7
 72
     1
 73
     1
 93
        4
 10
323.6103974373491
 20
270.6048728948057
 42
0.0
 10
323.5514261545014
 20
270.2598766806246
 42
-0.4142135623730951
 10
324.1643367216442
 20
269.3942320441343
 42
0.0
 10
324.5093329358253
 20
269.3352607612865
 42
0.4142135623730996
 97
        0
 92
        7
 72
     1
 73
     1
 93
        5
 10
323.5514261545014
 20
270.2598766806246
 42
0.0
 10
323.6103974373491
 20
270.6048728948057
 42
0.3173569687788799
 10
322.4655125129854
 20
270.0584376319982
 42
0.0
 10
322.6565037222123
 20
269.6519706587673
 42
0.0
 10
322.6857815180109
 20
269.6469661134818
 42
-0.4142135623730839
 97
        0
 92
        7
 72
     1
 73
     1
 93
        4
 10
324.5093329358253
 20
269.3352607612865
 42
0.0
 10
324.1643367216442
 20
269.3942320441343
 42
-0.4142135623730951
 10
323.2986920851538
 20
268.7813214769913
 42
0.0
 10
323.2397208023061
 20
268.4363252628102
 42
0.4142135623730996
 97
        0
 92
        7
 72
     1
 73
     1
 93
        4
 10
323.2986920851538
 20
268.7813214769913
 42
-0.1036385141593389
 10
323.0125515939582
 20
268.8942305442366
 42
0.0
 10
323.2266223085503
 20
268.4386458303124
 42
0.003023315109616
 10
323.2397208023061
 20
268.4363252628102
 42
0.0
 97
        0
 75
     0
 76
     1
 47
0.0223982890607777
 98
        4
 10
324.2871836458545
 20
270.0067062173196
 10
323.1646477988899
 20
270.3576467886902
 10
324.2871213410922
 20
269.0750678482511
 10
323.224357172482
 20
268.7113734807929
450
        0
451
        0
460
0.0
461
0.0
452
        0
462
0.0
453
        0
470

  0
CIRCLE
  5
1A1D
330
18
100
AcDbEntity
  8
針
100
AcDbCircle
 10
323.4250591198275
 20
269.5205990788079
 30
0.0
 40
1.1
  0
CIRCLE
  5
1A1E
330
18
100
AcDbEntity
  8
針
100
AcDbCircle
 10
323.4250591198275
 20
269.520599078808
 30
0.0
 40
0.75
  0
HATCH
  5
1A1F
330
18
100
AcDbEntity
  8
針
100
AcDbHatch
 10
0.0
 20
0.0
 30
0.0
210
0.0
220
0.0
230
1.0
  2
SOLID
 70
     1
 71
     0
 91
        1
 92
        7
 72
     1
 73
     1
 93
        7
 10
323.9389991270342
 20
274.1934853035083
 42
0.0
 10
323.8393884516639
 20
274.2023008212068
 42
0.0
 10
323.7397777762936
 20
274.2111163389055
 42
0.0
 10
323.4091895786883
 20
270.9850689482433
 42
-0.2935495917910092
 10
323.0721895887182
 20
270.5624642783488
 42
-0.2104432563350663
 10
323.9554199309083
 20
270.4842989335708
 42
-0.2935491884945053
 10
323.6978779661111
 20
270.9595201044145
 42
0.0
 97
        0
 75
     0
 76
     1
 47
0.0140573597042523
 98
        1
 10
323.7386031379028
 20
272.3987238442906
450
        0
451
        0
460
0.0
461
0.0
452
        0
462
0.0
453
        0
470

  0
LINE
  5
1A20
330
18
100
AcDbEntity
  8
針
100
AcDbLine
 10
323.6978779661111
 20
270.9595201044145
 30
0.0
 11
323.938999127034
 21
274.1934853035082
 31
0.0
  0
LINE
  5
1A21
330
18
100
AcDbEntity
  8
針
100
AcDbLine
 10
323.4091895786883
 20
270.9850689482434
 30
0.0
 11
323.7397777762936
 21
274.2111163389055
 31
0.0
  0
CIRCLE
  5
1A22
330
18
100
AcDbEntity
  8
針
 62
     4
100
AcDbCircle
 10
323.4250591198275
 20
269.520599078808
 30
0.0
 40
0.4
  0
ARC
  5
1A23
330
18
100
AcDbEntity
  8
針
100
AcDbCircle
 10
324.1964939731619
 20
270.9223438013087
 30
0.0
 40
0.5
100
AcDbArc
 50
175.7359744876442
 51
241.1742940693899
  0
ARC
  5
1A24
330
18
100
AcDbEntity
  8
針
100
AcDbCircle
 10
322.9117943473049
 20
271.0360393690487
 30
0.0
 40
0.5
100
AcDbArc
 50
288.710736664429
 51
354.1490562461748
  0
LINE
  5
1A25
330
18
100
AcDbEntity
  8
文字
100
AcDbLine
 10
328.121934090171
 20
269.3221916370086
 30
0.0
 11
328.1261225741476
 21
269.5221477737037
 31
0.0
  0
LINE
  5
1A26
330
18
100
AcDbEntity
  8
ﾊｯﾁﾝｸ
100
AcDbLine
 10
412.2589455089508
 20
227.8147276792224
 30
0.0
 11
412.6660744044305
 21
228.2218565747021
 31
0.0
  0
LINE
  5
1A27
330
18
100
AcDbEntity
  8
ﾊｯﾁﾝｸ
100
AcDbLine
 10
412.2589455089509
 20
226.4676892610621
 30
0.0
 11
414.013112822591
 21
228.2218565747021
 31
0.0
  0
LINE
  5
1A28
330
18
100
AcDbEntity
  8
ﾊｯﾁﾝｸ
100
AcDbLine
 10
412.2601512407513
 20
225.121856574702
 30
0.0
 11
414.758945508951
 21
227.6206508429017
 31
0.0
  0
LINE
  5
1A29
330
18
100
AcDbEntity
  8
ﾊｯﾁﾝｸ
100
AcDbLine
 10
413.6071896589117
 20
225.121856574702
 30
0.0
 11
414.7589455089509
 21
226.2736124247413
 31
0.0
  0
LINE
  5
1A2A
330
18
100
AcDbEntity
  8
ﾊｯﾁﾝｸ
100
AcDbLine
 10
412.3529934331363
 20
225.1218565747021
 30
0.0
 11
412.2589455089509
 21
225.2159044988875
 31
0.0
  0
LINE
  5
1A2B
330
18
100
AcDbEntity
  8
ﾊｯﾁﾝｸ
100
AcDbLine
 10
413.7000318512967
 20
225.121856574702
 30
0.0
 11
412.2589455089509
 21
226.5629429170478
 31
0.0
  0
LINE
  5
1A2C
330
18
100
AcDbEntity
  8
ﾊｯﾁﾝｸ
100
AcDbLine
 10
414.7589455089509
 20
225.4099813352083
 30
0.0
 11
412.2589455089509
 21
227.9099813352082
 31
0.0
  0
LINE
  5
1A2D
330
18
100
AcDbEntity
  8
ﾊｯﾁﾝｸ
100
AcDbLine
 10
414.758945508951
 20
226.7570197533686
 30
0.0
 11
413.2941086876175
 21
228.221856574702
 31
0.0
  0
LINE
  5
1A2E
330
18
100
AcDbEntity
  8
ﾊｯﾁﾝｸ
100
AcDbLine
 10
414.7589455089509
 20
228.104058171529
 30
0.0
 11
414.6411471057779
 21
228.221856574702
 31
0.0
  0
LINE
  5
1A2F
330
18
100
AcDbEntity
  8
ﾊｯﾁﾝｸ
100
AcDbLine
 10
324.6250591198275
 20
227.8147276792224
 30
0.0
 11
325.0321880153072
 21
228.2218565747021
 31
0.0
  0
LINE
  5
1A30
330
18
100
AcDbEntity
  8
ﾊｯﾁﾝｸ
100
AcDbLine
 10
324.6250591198275
 20
226.4676892610621
 30
0.0
 11
326.3792264334676
 21
228.2218565747021
 31
0.0
  0
LINE
  5
1A31
330
18
100
AcDbEntity
  8
ﾊｯﾁﾝｸ
100
AcDbLine
 10
324.626264851628
 20
225.1218565747021
 30
0.0
 11
327.1250591198276
 21
227.6206508429017
 31
0.0
  0
LINE
  5
1A32
330
18
100
AcDbEntity
  8
ﾊｯﾁﾝｸ
100
AcDbLine
 10
325.9733032697883
 20
225.1218565747021
 30
0.0
 11
327.1250591198275
 21
226.2736124247413
 31
0.0
  0
LINE
  5
1A33
330
18
100
AcDbEntity
  8
ﾊｯﾁﾝｸ
100
AcDbLine
 10
324.719107044013
 20
225.1218565747021
 30
0.0
 11
324.6250591198275
 21
225.2159044988875
 31
0.0
  0
LINE
  5
1A34
330
18
100
AcDbEntity
  8
ﾊｯﾁﾝｸ
100
AcDbLine
 10
326.0661454621733
 20
225.121856574702
 30
0.0
 11
324.6250591198275
 21
226.5629429170479
 31
0.0
  0
LINE
  5
1A35
330
18
100
AcDbEntity
  8
ﾊｯﾁﾝｸ
100
AcDbLine
 10
327.1250591198275
 20
225.4099813352083
 30
0.0
 11
324.6250591198275
 21
227.9099813352083
 31
0.0
  0
LINE
  5
1A36
330
18
100
AcDbEntity
  8
ﾊｯﾁﾝｸ
100
AcDbLine
 10
327.1250591198275
 20
226.7570197533686
 30
0.0
 11
325.6602222984941
 21
228.2218565747021
 31
0.0
  0
LINE
  5
1A37
330
18
100
AcDbEntity
  8
ﾊｯﾁﾝｸ
100
AcDbLine
 10
327.1250591198275
 20
228.104058171529
 30
0.0
 11
327.0072607166544
 21
228.2218565747021
 31
0.0
  0
LINE
  5
1A38
330
18
100
AcDbEntity
  8
ﾊｯﾁﾝｸ
  6
Continuous
100
AcDbLine
 10
410.7589455089509
 20
314.2883503709999
 30
0.0
 11
410.992451712653
 21
314.5218565747021
 31
0.0
  0
LINE
  5
1A39
330
18
100
AcDbEntity
  8
ﾊｯﾁﾝｸ
  6
Continuous
100
AcDbLine
 10
410.7589455089509
 20
312.5205834180335
 30
0.0
 11
412.7602186656194
 21
314.5218565747021
 31
0.0
  0
LINE
  5
1A3A
330
18
100
AcDbEntity
  8
ﾊｯﾁﾝｸ
  6
Continuous
100
AcDbLine
 10
410.7589455089509
 20
310.7528164650672
 30
0.0
 11
414.5279856185857
 21
314.521856574702
 31
0.0
  0
LINE
  5
1A3B
330
18
100
AcDbEntity
  8
ﾊｯﾁﾝｸ
  6
Continuous
100
AcDbLine
 10
410.7589455089509
 20
308.9850495121008
 30
0.0
 11
414.7589455089509
 21
312.9850495121008
 31
0.0
  0
LINE
  5
1A3C
330
18
100
AcDbEntity
  8
ﾊｯﾁﾝｸ
  6
Continuous
100
AcDbLine
 10
412.0635195245184
 20
308.5218565747021
 30
0.0
 11
414.7589455089509
 21
311.2172825591344
 31
0.0
  0
LINE
  5
1A3D
330
18
100
AcDbEntity
  8
ﾊｯﾁﾝｸ
  6
Continuous
100
AcDbLine
 10
413.8312864774849
 20
308.521856574702
 30
0.0
 11
414.7589455089509
 21
309.4495156061681
 31
0.0
  0
LINE
  5
1A3E
330
18
100
AcDbEntity
  8
ﾊｯﾁﾝｸ
  6
Continuous
100
AcDbLine
 10
410.8104911552698
 20
308.5218565747021
 30
0.0
 11
410.7589455089509
 21
308.573402221021
 31
0.0
  0
LINE
  5
1A3F
330
18
100
AcDbEntity
  8
ﾊｯﾁﾝｸ
  6
Continuous
100
AcDbLine
 10
412.578258108236
 20
308.5218565747021
 30
0.0
 11
410.7589455089509
 21
310.3411691739873
 31
0.0
  0
LINE
  5
1A40
330
18
100
AcDbEntity
  8
ﾊｯﾁﾝｸ
  6
Continuous
100
AcDbLine
 10
414.3460250612025
 20
308.5218565747021
 30
0.0
 11
410.7589455089508
 21
312.1089361269537
 31
0.0
  0
LINE
  5
1A41
330
18
100
AcDbEntity
  8
ﾊｯﾁﾝｸ
  6
Continuous
100
AcDbLine
 10
414.7589455089509
 20
309.8767030799201
 30
0.0
 11
410.7589455089509
 21
313.8767030799201
 31
0.0
  0
LINE
  5
1A42
330
18
100
AcDbEntity
  8
ﾊｯﾁﾝｸ
  6
Continuous
100
AcDbLine
 10
414.7589455089509
 20
311.6444700328864
 30
0.0
 11
411.8815589671353
 21
314.521856574702
 31
0.0
  0
LINE
  5
1A43
330
18
100
AcDbEntity
  8
ﾊｯﾁﾝｸ
  6
Continuous
100
AcDbLine
 10
414.7589455089509
 20
313.4122369858527
 30
0.0
 11
413.6493259201015
 21
314.5218565747021
 31
0.0
  0
TEXT
  5
1A44
330
18
100
AcDbEntity
  8
文字
 62
     6
100
AcDbText
 10
441.1727333558182
 20
294.8369503473833
 30
0.0
 40
2.5
  1
φ6.5
  7
STYLE3
100
AcDbText
  0
LINE
  5
1A5A
330
18
100
AcDbEntity
  8
0
  6
ByBlock
 62
     2
100
AcDbLine
 10
414.7589455089507
 20
325.7051569593207
 30
0.0
 11
414.7589455089507
 21
332.4406621034552
 31
0.0
  0
LINE
  5
1A5B
330
18
100
AcDbEntity
  8
0
  6
ByBlock
 62
     2
100
AcDbLine
 10
421.7589455089508
 20
305.2218565747021
 30
0.0
 11
421.7589455089508
 21
332.4406621034552
 31
0.0
  0
LINE
  5
1A5C
330
18
100
AcDbEntity
  8
0
  6
ByBlock
 62
     2
100
AcDbLine
 10
417.2589455089507
 20
331.1906621034552
 30
0.0
 11
419.2589455089508
 21
331.1906621034552
 31
0.0
  0
INSERT
  5
1A5D
330
18
100
AcDbEntity
  8
0
  6
ByBlock
 62
     2
100
AcDbBlockReference
  2
_OPEN
 10
414.7589455089507
 20
331.1906621034552
 30
0.0
 41
2.5
 42
2.5
 43
2.5
 50
180.0
  0
INSERT
  5
1A5E
330
18
100
AcDbEntity
  8
0
  6
ByBlock
 62
     2
100
AcDbBlockReference
  2
_OPEN
 10
421.7589455089508
 20
331.1906621034552
 30
0.0
 41
2.5
 42
2.5
 43
2.5
  0
MTEXT
  5
1A5F
330
18
100
AcDbEntity
  8
0
  6
ByBlock
 62
     6
100
AcDbMText
 10
418.2589455089507
 20
333.0656621034552
 30
0.0
 40
2.5
 41
0.0
 71
     5
 72
     1
  1
\A1;7
  7
STYLE3
 73
     1
 44
1.0
  0
POINT
  5
1A60
330
18
100
AcDbEntity
  8
DEFPOINTS
  6
ByBlock
 62
     0
100
AcDbPoint
 10
414.7589455089507
 20
325.7051569593207
 30
0.0
  0
POINT
  5
1A61
330
18
100
AcDbEntity
  8
DEFPOINTS
  6
ByBlock
 62
     0
100
AcDbPoint
 10
421.7589455089508
 20
305.2218565747021
 30
0.0
  0
POINT
  5
1A62
330
18
100
AcDbEntity
  8
DEFPOINTS
  6
ByBlock
 62
     0
100
AcDbPoint
 10
421.7589455089508
 20
331.1906621034552
 30
0.0
  0
LINE
  5
1A63
330
18
100
AcDbEntity
  8
0
  6
ByBlock
 62
     2
100
AcDbLine
 10
302.3750591198275
 20
279.4218565747021
 30
0.0
 11
302.3750591198275
 21
331.485796683525
 31
0.0
  0
LINE
  5
1A64
330
18
100
AcDbEntity
  8
0
  6
ByBlock
 62
     2
100
AcDbLine
 10
351.8750591198275
 20
279.4218565747021
 30
0.0
 11
351.8750591198275
 21
331.485796683525
 31
0.0
  0
LINE
  5
1A65
330
18
100
AcDbEntity
  8
0
  6
ByBlock
 62
     2
100
AcDbLine
 10
304.8750591198275
 20
330.2357966835249
 30
0.0
 11
349.3750591198276
 21
330.2357966835249
 31
0.0
  0
INSERT
  5
1A66
330
18
100
AcDbEntity
  8
0
  6
ByBlock
 62
     2
100
AcDbBlockReference
  2
_OPEN
 10
302.3750591198275
 20
330.2357966835249
 30
0.0
 41
2.5
 42
2.5
 43
2.5
 50
180.0
  0
INSERT
  5
1A67
330
18
100
AcDbEntity
  8
0
  6
ByBlock
 62
     2
100
AcDbBlockReference
  2
_OPEN
 10
351.8750591198275
 20
330.2357966835249
 30
0.0
 41
2.5
 42
2.5
 43
2.5
  0
MTEXT
  5
1A68
330
18
100
AcDbEntity
  8
0
  6
ByBlock
 62
     6
100
AcDbMText
 10
327.1250591198275
 20
332.110796683525
 30
0.0
 40
2.5
 41
0.0
 71
     5
 72
     1
  1
\A1;φ49.5
  7
STYLE3
 73
     1
 44
1.0
  0
POINT
  5
1A69
330
18
100
AcDbEntity
  8
DEFPOINTS
  6
ByBlock
 62
     0
100
AcDbPoint
 10
302.3750591198275
 20
279.4218565747021
 30
0.0
  0
POINT
  5
1A6A
330
18
100
AcDbEntity
  8
DEFPOINTS
  6
ByBlock
 62
     0
100
AcDbPoint
 10
351.8750591198275
 20
279.4218565747021
 30
0.0
  0
POINT
  5
1A6B
330
18
100
AcDbEntity
  8
DEFPOINTS
  6
ByBlock
 62
     0
100
AcDbPoint
 10
351.8750591198275
 20
330.2357966835249
 30
0.0
  0
LINE
  5
1A6C
330
18
100
AcDbEntity
  8
0
  6
ByBlock
 62
     2
100
AcDbLine
 10
403.5589455089508
 20
307.2718565747022
 30
0.0
 11
387.8672079875307
 21
307.2718565747022
 31
0.0
  0
LINE
  5
1A6D
330
18
100
AcDbEntity
  8
0
  6
ByBlock
 62
     2
100
AcDbLine
 10
403.5589455089508
 20
251.571856574702
 30
0.0
 11
387.8672079875307
 21
251.571856574702
 31
0.0
  0
LINE
  5
1A6E
330
18
100
AcDbEntity
  8
0
  6
ByBlock
 62
     2
100
AcDbLine
 10
389.1172079875307
 20
304.7718565747022
 30
0.0
 11
389.1172079875307
 21
254.071856574702
 31
0.0
  0
INSERT
  5
1A6F
330
18
100
AcDbEntity
  8
0
  6
ByBlock
 62
     2
100
AcDbBlockReference
  2
_OPEN
 10
389.1172079875307
 20
307.2718565747022
 30
0.0
 41
2.5
 42
2.5
 43
2.5
 50
90.0
  0
INSERT
  5
1A70
330
18
100
AcDbEntity
  8
0
  6
ByBlock
 62
     2
100
AcDbBlockReference
  2
_OPEN
 10
389.1172079875307
 20
251.571856574702
 30
0.0
 41
2.5
 42
2.5
 43
2.5
 50
270.0
  0
MTEXT
  5
1A71
330
18
100
AcDbEntity
  8
0
  6
ByBlock
 62
     6
100
AcDbMText
 10
387.2422079875306
 20
279.4218565747021
 30
0.0
 40
2.5
 41
0.0
 71
     5
 72
     1
  1
\A1;φ55.7
  7
STYLE3
 11
0.0000000000000001
 21
1.0
 31
0.0
 73
     1
 44
1.0
  0
POINT
  5
1A72
330
18
100
AcDbEntity
  8
DEFPOINTS
  6
ByBlock
 62
     0
100
AcDbPoint
 10
403.5589455089508
 20
307.2718565747022
 30
0.0
  0
POINT
  5
1A73
330
18
100
AcDbEntity
  8
DEFPOINTS
  6
ByBlock
 62
     0
100
AcDbPoint
 10
403.5589455089508
 20
251.571856574702
 30
0.0
  0
POINT
  5
1A74
330
18
100
AcDbEntity
  8
DEFPOINTS
  6
ByBlock
 62
     0
100
AcDbPoint
 10
389.1172079875307
 20
251.571856574702
 30
0.0
  0
LINE
  5
1A75
330
18
100
AcDbEntity
  8
0
  6
ByBlock
 62
     2
100
AcDbLine
 10
285.2252338652265
 20
322.0218565747021
 30
0.0
 11
278.2544227063752
 21
322.0218565747021
 31
0.0
  0
LINE
  5
1A76
330
18
100
AcDbEntity
  8
0
  6
ByBlock
 62
     2
100
AcDbLine
 10
285.2252338652265
 20
219.4218565747021
 30
0.0
 11
278.2544227063752
 21
219.4218565747021
 31
0.0
  0
LINE
  5
1A77
330
18
100
AcDbEntity
  8
0
  6
ByBlock
 62
     2
100
AcDbLine
 10
279.5044227063752
 20
319.5218565747021
 30
0.0
 11
279.5044227063752
 21
221.9218565747021
 31
0.0
  0
INSERT
  5
1A78
330
18
100
AcDbEntity
  8
0
  6
ByBlock
 62
     2
100
AcDbBlockReference
  2
_OPEN
 10
279.5044227063752
 20
322.0218565747021
 30
0.0
 41
2.5
 42
2.5
 43
2.5
 50
90.0
  0
INSERT
  5
1A79
330
18
100
AcDbEntity
  8
0
  6
ByBlock
 62
     2
100
AcDbBlockReference
  2
_OPEN
 10
279.5044227063752
 20
219.4218565747021
 30
0.0
 41
2.5
 42
2.5
 43
2.5
 50
270.0
  0
MTEXT
  5
1A7A
330
18
100
AcDbEntity
  8
0
  6
ByBlock
 62
     6
100
AcDbMText
 10
277.6294227063752
 20
270.7218565747021
 30
0.0
 40
2.5
 41
0.0
 71
     5
 72
     1
  1
\A1;102.6
  7
STYLE3
 11
0.0000000000000001
 21
1.0
 31
0.0
 73
     1
 44
1.0
  0
POINT
  5
1A7B
330
18
100
AcDbEntity
  8
DEFPOINTS
  6
ByBlock
 62
     0
100
AcDbPoint
 10
285.2252338652265
 20
322.0218565747021
 30
0.0
  0
POINT
  5
1A7C
330
18
100
AcDbEntity
  8
DEFPOINTS
  6
ByBlock
 62
     0
100
AcDbPoint
 10
285.2252338652265
 20
219.4218565747021
 30
0.0
  0
POINT
  5
1A7D
330
18
100
AcDbEntity
  8
DEFPOINTS
  6
ByBlock
 62
     0
100
AcDbPoint
 10
279.5044227063752
 20
219.4218565747021
 30
0.0
  0
LINE
  5
1A7E
330
18
100
AcDbEntity
  8
0
  6
ByBlock
 62
     2
100
AcDbLine
 10
327.1250591198275
 20
322.0218565747021
 30
0.0
 11
285.2252338652265
 21
322.0218565747021
 31
0.0
  0
LINE
  5
1A7F
330
18
100
AcDbEntity
  8
0
  6
ByBlock
 62
     2
100
AcDbLine
 10
299.2750591198275
 20
279.4218565747021
 30
0.0
 11
285.2252338652265
 21
279.4218565747021
 31
0.0
  0
LINE
  5
1A80
330
18
100
AcDbEntity
  8
0
  6
ByBlock
 62
     2
100
AcDbLine
 10
286.4752338652264
 20
319.5218565747021
 30
0.0
 11
286.4752338652264
 21
281.9218565747021
 31
0.0
  0
INSERT
  5
1A81
330
18
100
AcDbEntity
  8
0
  6
ByBlock
 62
     2
100
AcDbBlockReference
  2
_OPEN
 10
286.4752338652264
 20
322.0218565747021
 30
0.0
 41
2.5
 42
2.5
 43
2.5
 50
90.0
  0
INSERT
  5
1A82
330
18
100
AcDbEntity
  8
0
  6
ByBlock
 62
     2
100
AcDbBlockReference
  2
_OPEN
 10
286.4752338652264
 20
279.4218565747021
 30
0.0
 41
2.5
 42
2.5
 43
2.5
 50
270.0
  0
MTEXT
  5
1A83
330
18
100
AcDbEntity
  8
0
  6
ByBlock
 62
     6
100
AcDbMText
 10
284.6002338652265
 20
300.7218565747021
 30
0.0
 40
2.5
 41
0.0
 71
     5
 72
     1
  1
\A1;42.6
  7
STYLE3
 11
0.0000000000000001
 21
1.0
 31
0.0
 73
     1
 44
1.0
  0
POINT
  5
1A84
330
18
100
AcDbEntity
  8
DEFPOINTS
  6
ByBlock
 62
     0
100
AcDbPoint
 10
327.1250591198275
 20
322.0218565747021
 30
0.0
  0
POINT
  5
1A85
330
18
100
AcDbEntity
  8
DEFPOINTS
  6
ByBlock
 62
     0
100
AcDbPoint
 10
299.2750591198275
 20
279.4218565747021
 30
0.0
  0
POINT
  5
1A86
330
18
100
AcDbEntity
  8
DEFPOINTS
  6
ByBlock
 62
     0
100
AcDbPoint
 10
286.4752338652264
 20
279.4218565747021
 30
0.0
  0
LINE
  5
1A87
330
18
100
AcDbEntity
  8
0
  6
ByBlock
 62
     2
100
AcDbLine
 10
324.6250591198276
 20
230.4168900487218
 30
0.0
 11
324.6250591198276
 21
232.644130986833
 31
0.0
  0
LINE
  5
1A88
330
18
100
AcDbEntity
  8
0
  6
ByBlock
 62
     2
100
AcDbLine
 10
329.6250591198276
 20
230.140656631218
 30
0.0
 11
329.6250591198276
 21
232.644130986833
 31
0.0
  0
LINE
  5
1A89
330
18
100
AcDbEntity
  8
0
  6
ByBlock
 62
     2
100
AcDbLine
 10
322.1250591198276
 20
231.3941309868329
 30
0.0
 11
319.6250591198276
 21
231.3941309868329
 31
0.0
  0
LINE
  5
1A8A
330
18
100
AcDbEntity
  8
0
  6
ByBlock
 62
     2
100
AcDbLine
 10
332.1250591198276
 20
231.3941309868329
 30
0.0
 11
340.3988686436371
 21
231.3941309868329
 31
0.0
  0
LINE
  5
1A8B
330
18
100
AcDbEntity
  8
0
  6
ByBlock
 62
     2
100
AcDbLine
 10
324.6250591198276
 20
231.3941309868329
 30
0.0
 11
329.6250591198276
 21
231.3941309868329
 31
0.0
  0
INSERT
  5
1A8C
330
18
100
AcDbEntity
  8
0
  6
ByBlock
 62
     2
100
AcDbBlockReference
  2
_OPEN
 10
324.6250591198276
 20
231.3941309868329
 30
0.0
 41
2.5
 42
2.5
 43
2.5
  0
INSERT
  5
1A8D
330
18
100
AcDbEntity
  8
0
  6
ByBlock
 62
     2
100
AcDbBlockReference
  2
_OPEN
 10
329.6250591198276
 20
231.3941309868329
 30
0.0
 41
2.5
 42
2.5
 43
2.5
 50
180.0
  0
MTEXT
  5
1A8E
330
18
100
AcDbEntity
  8
0
  6
ByBlock
 62
     6
100
AcDbMText
 10
337.5119638817324
 20
233.269130986833
 30
0.0
 40
2.5
 41
0.0
 71
     5
 72
     1
  1
\A1;φ5
  7
STYLE3
 73
     1
 44
1.0
  0
POINT
  5
1A8F
330
18
100
AcDbEntity
  8
DEFPOINTS
  6
ByBlock
 62
     0
100
AcDbPoint
 10
324.6250591198276
 20
230.4168900487218
 30
0.0
  0
POINT
  5
1A90
330
18
100
AcDbEntity
  8
DEFPOINTS
  6
ByBlock
 62
     0
100
AcDbPoint
 10
329.6250591198276
 20
230.140656631218
 30
0.0
  0
POINT
  5
1A91
330
18
100
AcDbEntity
  8
DEFPOINTS
  6
ByBlock
 62
     0
100
AcDbPoint
 10
329.6250591198276
 20
231.3941309868329
 30
0.0
  0
LINE
  5
1A92
330
18
100
AcDbEntity
  8
0
  6
ByBlock
 62
     2
100
AcDbLine
 10
324.6250591198276
 20
228.421856574702
 30
0.0
 11
292.9012250275214
 21
228.421856574702
 31
0.0
  0
LINE
  5
1A93
330
18
100
AcDbEntity
  8
0
  6
ByBlock
 62
     2
100
AcDbLine
 10
294.1512250275214
 20
236.921856574702
 30
0.0
 11
294.1512250275214
 21
239.4218565747021
 31
0.0
  0
LINE
  5
1A94
330
18
100
AcDbEntity
  8
0
  6
ByBlock
 62
     2
100
AcDbLine
 10
294.1512250275214
 20
225.921856574702
 30
0.0
 11
294.1512250275214
 21
223.4218565747021
 31
0.0
  0
LINE
  5
1A95
330
18
100
AcDbEntity
  8
0
  6
ByBlock
 62
     2
100
AcDbLine
 10
294.1512250275214
 20
234.421856574702
 30
0.0
 11
294.1512250275214
 21
228.421856574702
 31
0.0
  0
INSERT
  5
1A96
330
18
100
AcDbEntity
  8
0
  6
ByBlock
 62
     2
100
AcDbBlockReference
  2
_OPEN
 10
294.1512250275214
 20
234.421856574702
 30
0.0
 41
2.5
 42
2.5
 43
2.5
 50
270.0
  0
INSERT
  5
1A97
330
18
100
AcDbEntity
  8
0
  6
ByBlock
 62
     2
100
AcDbBlockReference
  2
_OPEN
 10
294.1512250275214
 20
228.421856574702
 30
0.0
 41
2.5
 42
2.5
 43
2.5
 50
90.0
  0
MTEXT
  5
1A98
330
18
100
AcDbEntity
  8
0
  6
ByBlock
 62
     6
100
AcDbMText
 10
292.2762250275214
 20
231.4218565747021
 30
0.0
 40
2.5
 41
0.0
 71
     5
 72
     1
  1
\A1;6
  7
STYLE3
 11
0.0000000000000001
 21
1.0
 31
0.0
 73
     1
 44
1.0
  0
POINT
  5
1A99
330
18
100
AcDbEntity
  8
DEFPOINTS
  6
ByBlock
 62
     0
100
AcDbPoint
 10
323.4250591198276
 20
234.421856574702
 30
0.0
  0
POINT
  5
1A9A
330
18
100
AcDbEntity
  8
DEFPOINTS
  6
ByBlock
 62
     0
100
AcDbPoint
 10
324.6250591198276
 20
228.421856574702
 30
0.0
  0
POINT
  5
1A9B
330
18
100
AcDbEntity
  8
DEFPOINTS
  6
ByBlock
 62
     0
100
AcDbPoint
 10
294.1512250275214
 20
228.421856574702
 30
0.0
  0
LINE
  5
1A9C
330
18
100
AcDbEntity
  8
0
  6
ByBlock
 62
     2
100
AcDbLine
 10
327.1250591198275
 20
219.4218565747021
 30
0.0
 11
285.2252338652265
 21
219.4218565747021
 31
0.0
  0
LINE
  5
1A9D
330
18
100
AcDbEntity
  8
0
  6
ByBlock
 62
     2
100
AcDbLine
 10
286.4752338652264
 20
276.9218565747021
 30
0.0
 11
286.4752338652264
 21
221.9218565747021
 31
0.0
  0
INSERT
  5
1A9E
330
18
100
AcDbEntity
  8
0
  6
ByBlock
 62
     2
100
AcDbBlockReference
  2
_OPEN
 10
286.4752338652264
 20
279.4218565747021
 30
0.0
 41
2.5
 42
2.5
 43
2.5
 50
90.0
  0
INSERT
  5
1A9F
330
18
100
AcDbEntity
  8
0
  6
ByBlock
 62
     2
100
AcDbBlockReference
  2
_OPEN
 10
286.4752338652264
 20
219.4218565747021
 30
0.0
 41
2.5
 42
2.5
 43
2.5
 50
270.0
  0
MTEXT
  5
1AA0
330
18
100
AcDbEntity
  8
0
  6
ByBlock
 62
     6
100
AcDbMText
 10
284.6002338652265
 20
249.4218565747021
 30
0.0
 40
2.5
 41
0.0
 71
     5
 72
     1
  1
\A1;60
  7
STYLE3
 11
0.0000000000000001
 21
1.0
 31
0.0
 73
     1
 44
1.0
  0
POINT
  5
1AA1
330
18
100
AcDbEntity
  8
DEFPOINTS
  6
ByBlock
 62
     0
100
AcDbPoint
 10
299.2750591198275
 20
279.4218565747021
 30
0.0
  0
POINT
  5
1AA2
330
18
100
AcDbEntity
  8
DEFPOINTS
  6
ByBlock
 62
     0
100
AcDbPoint
 10
327.1250591198275
 20
219.4218565747021
 30
0.0
  0
POINT
  5
1AA3
330
18
100
AcDbEntity
  8
DEFPOINTS
  6
ByBlock
 62
     0
100
AcDbPoint
 10
286.4752338652264
 20
219.4218565747021
 30
0.0
  0
LINE
  5
1AA4
330
18
100
AcDbEntity
  8
0
  6
ByBlock
 62
     2
100
AcDbLine
 10
310.3567783349607
 20
219.4218565747021
 30
0.0
 11
292.9012250275214
 21
219.4218565747021
 31
0.0
  0
LINE
  5
1AA5
330
18
100
AcDbEntity
  8
0
  6
ByBlock
 62
     2
100
AcDbLine
 10
294.1512250275214
 20
225.921856574702
 30
0.0
 11
294.1512250275214
 21
221.9218565747021
 31
0.0
  0
INSERT
  5
1AA6
330
18
100
AcDbEntity
  8
0
  6
ByBlock
 62
     2
100
AcDbBlockReference
  2
_OPEN
 10
294.1512250275214
 20
228.421856574702
 30
0.0
 41
2.5
 42
2.5
 43
2.5
 50
90.0
  0
INSERT
  5
1AA7
330
18
100
AcDbEntity
  8
0
  6
ByBlock
 62
     2
100
AcDbBlockReference
  2
_OPEN
 10
294.1512250275214
 20
219.4218565747021
 30
0.0
 41
2.5
 42
2.5
 43
2.5
 50
270.0
  0
MTEXT
  5
1AA8
330
18
100
AcDbEntity
  8
0
  6
ByBlock
 62
     6
100
AcDbMText
 10
292.2762250275214
 20
223.921856574702
 30
0.0
 40
2.5
 41
0.0
 71
     5
 72
     1
  1
\A1;9
  7
STYLE3
 11
0.0000000000000001
 21
1.0
 31
0.0
 73
     1
 44
1.0
  0
POINT
  5
1AA9
330
18
100
AcDbEntity
  8
DEFPOINTS
  6
ByBlock
 62
     0
100
AcDbPoint
 10
324.6250591198276
 20
228.421856574702
 30
0.0
  0
POINT
  5
1AAA
330
18
100
AcDbEntity
  8
DEFPOINTS
  6
ByBlock
 62
     0
100
AcDbPoint
 10
310.3567783349607
 20
219.4218565747021
 30
0.0
  0
POINT
  5
1AAB
330
18
100
AcDbEntity
  8
DEFPOINTS
  6
ByBlock
 62
     0
100
AcDbPoint
 10
294.1512250275214
 20
219.4218565747021
 30
0.0
  0
LINE
  5
1AAC
330
18
100
AcDbEntity
  8
0
  6
ByBlock
 62
     2
100
AcDbLine
 10
387.8672079875307
 20
251.571856574702
 30
0.0
 11
381.0150518161488
 21
251.571856574702
 31
0.0
  0
LINE
  5
1AAD
330
18
100
AcDbEntity
  8
0
  6
ByBlock
 62
     2
100
AcDbLine
 10
414.7589455089509
 20
219.4218565747021
 30
0.0
 11
381.0150518161488
 21
219.4218565747021
 31
0.0
  0
LINE
  5
1AAE
330
18
100
AcDbEntity
  8
0
  6
ByBlock
 62
     2
100
AcDbLine
 10
382.2650518161489
 20
249.071856574702
 30
0.0
 11
382.2650518161489
 21
221.9218565747021
 31
0.0
  0
INSERT
  5
1AAF
330
18
100
AcDbEntity
  8
0
  6
ByBlock
 62
     2
100
AcDbBlockReference
  2
_OPEN
 10
382.2650518161489
 20
251.571856574702
 30
0.0
 41
2.5
 42
2.5
 43
2.5
 50
90.0
  0
INSERT
  5
1AB0
330
18
100
AcDbEntity
  8
0
  6
ByBlock
 62
     2
100
AcDbBlockReference
  2
_OPEN
 10
382.2650518161489
 20
219.4218565747021
 30
0.0
 41
2.5
 42
2.5
 43
2.5
 50
270.0
  0
MTEXT
  5
1AB1
330
18
100
AcDbEntity
  8
0
  6
ByBlock
 62
     6
100
AcDbMText
 10
380.3900518161488
 20
235.496856574702
 30
0.0
 40
2.5
 41
0.0
 71
     5
 72
     1
  1
\A1;32.15
  7
STYLE3
 11
0.0000000000000001
 21
1.0
 31
0.0
 73
     1
 44
1.0
  0
POINT
  5
1AB2
330
18
100
AcDbEntity
  8
DEFPOINTS
  6
ByBlock
 62
     0
100
AcDbPoint
 10
387.8672079875307
 20
251.571856574702
 30
0.0
  0
POINT
  5
1AB3
330
18
100
AcDbEntity
  8
DEFPOINTS
  6
ByBlock
 62
     0
100
AcDbPoint
 10
414.7589455089509
 20
219.4218565747021
 30
0.0
  0
POINT
  5
1AB4
330
18
100
AcDbEntity
  8
DEFPOINTS
  6
ByBlock
 62
     0
100
AcDbPoint
 10
382.2650518161489
 20
219.4218565747021
 30
0.0
  0
LINE
  5
1AB5
330
18
100
AcDbEntity
  8
0
  6
ByBlock
 62
     2
100
AcDbLine
 10
396.8448921606163
 20
251.571856574702
 30
0.0
 11
395.5948921606163
 21
251.571856574702
 31
0.0
  0
LINE
  5
1AB6
330
18
100
AcDbEntity
  8
0
  6
ByBlock
 62
     2
100
AcDbLine
 10
410.7589455089509
 20
238.921856574702
 30
0.0
 11
395.5948921606163
 21
238.921856574702
 31
0.0
  0
LINE
  5
1AB7
330
18
100
AcDbEntity
  8
0
  6
ByBlock
 62
     2
100
AcDbLine
 10
396.8448921606163
 20
249.071856574702
 30
0.0
 11
396.8448921606163
 21
241.421856574702
 31
0.0
  0
INSERT
  5
1AB8
330
18
100
AcDbEntity
  8
0
  6
ByBlock
 62
     2
100
AcDbBlockReference
  2
_OPEN
 10
396.8448921606163
 20
251.571856574702
 30
0.0
 41
2.5
 42
2.5
 43
2.5
 50
90.0
  0
INSERT
  5
1AB9
330
18
100
AcDbEntity
  8
0
  6
ByBlock
 62
     2
100
AcDbBlockReference
  2
_OPEN
 10
396.8448921606163
 20
238.921856574702
 30
0.0
 41
2.5
 42
2.5
 43
2.5
 50
270.0
  0
MTEXT
  5
1ABA
330
18
100
AcDbEntity
  8
0
  6
ByBlock
 62
     6
100
AcDbMText
 10
394.9698921606163
 20
245.246856574702
 30
0.0
 40
2.5
 41
0.0
 71
     5
 72
     1
  1
\A1;12.65
  7
STYLE3
 11
0.0000000000000001
 21
1.0
 31
0.0
 73
     1
 44
1.0
  0
POINT
  5
1ABB
330
18
100
AcDbEntity
  8
DEFPOINTS
  6
ByBlock
 62
     0
100
AcDbPoint
 10
396.8448921606163
 20
251.571856574702
 30
0.0
  0
POINT
  5
1ABC
330
18
100
AcDbEntity
  8
DEFPOINTS
  6
ByBlock
 62
     0
100
AcDbPoint
 10
410.7589455089509
 20
238.921856574702
 30
0.0
  0
POINT
  5
1ABD
330
18
100
AcDbEntity
  8
DEFPOINTS
  6
ByBlock
 62
     0
100
AcDbPoint
 10
396.8448921606163
 20
238.921856574702
 30
0.0
  0
LINE
  5
1ABE
330
18
100
AcDbEntity
  8
0
  6
ByBlock
 62
     2
100
AcDbLine
 10
411.058945508951
 20
234.421856574702
 30
0.0
 11
387.8672079875307
 21
234.421856574702
 31
0.0
  0
LINE
  5
1ABF
330
18
100
AcDbEntity
  8
0
  6
ByBlock
 62
     2
100
AcDbLine
 10
389.1172079875307
 20
249.071856574702
 30
0.0
 11
389.1172079875307
 21
236.921856574702
 31
0.0
  0
INSERT
  5
1AC0
330
18
100
AcDbEntity
  8
0
  6
ByBlock
 62
     2
100
AcDbBlockReference
  2
_OPEN
 10
389.1172079875307
 20
251.571856574702
 30
0.0
 41
2.5
 42
2.5
 43
2.5
 50
90.0
  0
INSERT
  5
1AC1
330
18
100
AcDbEntity
  8
0
  6
ByBlock
 62
     2
100
AcDbBlockReference
  2
_OPEN
 10
389.1172079875307
 20
234.421856574702
 30
0.0
 41
2.5
 42
2.5
 43
2.5
 50
270.0
  0
MTEXT
  5
1AC2
330
18
100
AcDbEntity
  8
0
  6
ByBlock
 62
     6
100
AcDbMText
 10
387.2422079875306
 20
242.996856574702
 30
0.0
 40
2.5
 41
0.0
 71
     5
 72
     1
  1
\A1;17.15
  7
STYLE3
 11
0.0000000000000001
 21
1.0
 31
0.0
 73
     1
 44
1.0
  0
POINT
  5
1AC3
330
18
100
AcDbEntity
  8
DEFPOINTS
  6
ByBlock
 62
     0
100
AcDbPoint
 10
403.5589455089508
 20
251.571856574702
 30
0.0
  0
POINT
  5
1AC4
330
18
100
AcDbEntity
  8
DEFPOINTS
  6
ByBlock
 62
     0
100
AcDbPoint
 10
411.058945508951
 20
234.421856574702
 30
0.0
  0
POINT
  5
1AC5
330
18
100
AcDbEntity
  8
DEFPOINTS
  6
ByBlock
 62
     0
100
AcDbPoint
 10
389.1172079875307
 20
234.421856574702
 30
0.0
  0
LINE
  5
1AC6
330
18
100
AcDbEntity
  8
ﾊｯﾁﾝｸ
  6
Continuous
100
AcDbLine
 10
323.1250591198276
 20
314.2883503709999
 30
0.0
 11
323.3585653235298
 21
314.5218565747021
 31
0.0
  0
LINE
  5
1AC7
330
18
100
AcDbEntity
  8
ﾊｯﾁﾝｸ
  6
Continuous
100
AcDbLine
 10
323.1250591198276
 20
312.5205834180335
 30
0.0
 11
325.1263322764961
 21
314.5218565747021
 31
0.0
  0
LINE
  5
1AC8
330
18
100
AcDbEntity
  8
ﾊｯﾁﾝｸ
  6
Continuous
100
AcDbLine
 10
323.1250591198276
 20
310.7528164650672
 30
0.0
 11
326.8940992294625
 21
314.521856574702
 31
0.0
  0
LINE
  5
1AC9
330
18
100
AcDbEntity
  8
ﾊｯﾁﾝｸ
  6
Continuous
100
AcDbLine
 10
323.1250591198276
 20
308.9850495121008
 30
0.0
 11
327.1250591198276
 21
312.9850495121008
 31
0.0
  0
LINE
  5
1ACA
330
18
100
AcDbEntity
  8
ﾊｯﾁﾝｸ
  6
Continuous
100
AcDbLine
 10
324.4296331353952
 20
308.5218565747021
 30
0.0
 11
327.1250591198276
 21
311.2172825591344
 31
0.0
  0
LINE
  5
1ACB
330
18
100
AcDbEntity
  8
ﾊｯﾁﾝｸ
  6
Continuous
100
AcDbLine
 10
326.1974000883616
 20
308.5218565747021
 30
0.0
 11
327.1250591198276
 21
309.4495156061681
 31
0.0
  0
LINE
  5
1ACC
330
18
100
AcDbEntity
  8
ﾊｯﾁﾝｸ
  6
Continuous
100
AcDbLine
 10
323.1766047661466
 20
308.5218565747021
 30
0.0
 11
323.1250591198276
 21
308.573402221021
 31
0.0
  0
LINE
  5
1ACD
330
18
100
AcDbEntity
  8
ﾊｯﾁﾝｸ
  6
Continuous
100
AcDbLine
 10
324.9443717191129
 20
308.521856574702
 30
0.0
 11
323.1250591198276
 21
310.3411691739873
 31
0.0
  0
LINE
  5
1ACE
330
18
100
AcDbEntity
  8
ﾊｯﾁﾝｸ
  6
Continuous
100
AcDbLine
 10
326.7121386720792
 20
308.5218565747021
 30
0.0
 11
323.1250591198276
 21
312.1089361269536
 31
0.0
  0
LINE
  5
1ACF
330
18
100
AcDbEntity
  8
ﾊｯﾁﾝｸ
  6
Continuous
100
AcDbLine
 10
327.1250591198276
 20
309.8767030799201
 30
0.0
 11
323.1250591198276
 21
313.8767030799201
 31
0.0
  0
LINE
  5
1AD0
330
18
100
AcDbEntity
  8
ﾊｯﾁﾝｸ
  6
Continuous
100
AcDbLine
 10
327.1250591198276
 20
311.6444700328864
 30
0.0
 11
324.2476725780119
 21
314.5218565747021
 31
0.0
  0
LINE
  5
1AD1
330
18
100
AcDbEntity
  8
ﾊｯﾁﾝｸ
  6
Continuous
100
AcDbLine
 10
327.1250591198276
 20
313.4122369858527
 30
0.0
 11
326.0154395309783
 21
314.5218565747021
 31
0.0
  0
LINE
  5
1AD2
330
18
100
AcDbEntity
  8
0
  6
ByBlock
 62
     2
100
AcDbLine
 10
421.5589455089508
 20
305.4218565747021
 30
0.0
 11
460.0943750449856
 21
305.4218565747021
 31
0.0
  0
LINE
  5
1AD3
330
18
100
AcDbEntity
  8
0
  6
ByBlock
 62
     2
100
AcDbLine
 10
421.7589455089508
 20
253.4218565747021
 30
0.0
 11
460.0943750449856
 21
253.4218565747021
 31
0.0
  0
LINE
  5
1AD4
330
18
100
AcDbEntity
  8
0
  6
ByBlock
 62
     2
100
AcDbLine
 10
458.8443750449857
 20
302.9218565747021
 30
0.0
 11
458.8443750449857
 21
255.9218565747021
 31
0.0
  0
INSERT
  5
1AD5
330
18
100
AcDbEntity
  8
0
  6
ByBlock
 62
     2
100
AcDbBlockReference
  2
_OPEN
 10
458.8443750449857
 20
305.4218565747021
 30
0.0
 41
2.5
 42
2.5
 43
2.5
 50
90.0
  0
INSERT
  5
1AD6
330
18
100
AcDbEntity
  8
0
  6
ByBlock
 62
     2
100
AcDbBlockReference
  2
_OPEN
 10
458.8443750449857
 20
253.4218565747021
 30
0.0
 41
2.5
 42
2.5
 43
2.5
 50
270.0
  0
MTEXT
  5
1AD7
330
18
100
AcDbEntity
  8
0
  6
ByBlock
 62
     6
100
AcDbMText
 10
456.9693750449856
 20
279.4218565747021
 30
0.0
 40
2.5
 41
0.0
 71
     5
 72
     1
  1
\A1;φ52
  7
STYLE3
 11
0.0000000000000001
 21
1.0
 31
0.0
 73
     1
 44
1.0
  0
POINT
  5
1AD8
330
18
100
AcDbEntity
  8
DEFPOINTS
  6
ByBlock
 62
     0
100
AcDbPoint
 10
421.5589455089508
 20
305.4218565747021
 30
0.0
  0
POINT
  5
1AD9
330
18
100
AcDbEntity
  8
DEFPOINTS
  6
ByBlock
 62
     0
100
AcDbPoint
 10
421.7589455089508
 20
253.4218565747021
 30
0.0
  0
POINT
  5
1ADA
330
18
100
AcDbEntity
  8
DEFPOINTS
  6
ByBlock
 62
     0
100
AcDbPoint
 10
458.8443750449857
 20
253.4218565747021
 30
0.0
  0
LINE
  5
1ADB
330
18
100
AcDbEntity
  8
0
  6
ByBlock
 62
     2
100
AcDbLine
 10
425.7589455089506
 20
287.4234423181548
 30
0.0
 11
425.7589455089506
 21
295.6871467618777
 31
0.0
  0
LINE
  5
1ADC
330
18
100
AcDbEntity
  8
0
  6
ByBlock
 62
     2
100
AcDbLine
 10
430.7589455089507
 20
287.4218565747019
 30
0.0
 11
430.7589455089507
 21
295.6871467618777
 31
0.0
  0
LINE
  5
1ADD
330
18
100
AcDbEntity
  8
0
  6
ByBlock
 62
     2
100
AcDbLine
 10
423.2589455089507
 20
294.4371467618777
 30
0.0
 11
420.7589455089506
 21
294.4371467618777
 31
0.0
  0
LINE
  5
1ADE
330
18
100
AcDbEntity
  8
0
  6
ByBlock
 62
     2
100
AcDbLine
 10
433.2589455089507
 20
294.4371467618777
 30
0.0
 11
435.7589455089508
 21
294.4371467618777
 31
0.0
  0
LINE
  5
1ADF
330
18
100
AcDbEntity
  8
0
  6
ByBlock
 62
     2
100
AcDbLine
 10
425.7589455089506
 20
294.4371467618777
 30
0.0
 11
430.7589455089507
 21
294.4371467618777
 31
0.0
  0
INSERT
  5
1AE0
330
18
100
AcDbEntity
  8
0
  6
ByBlock
 62
     2
100
AcDbBlockReference
  2
_OPEN
 10
425.7589455089506
 20
294.4371467618777
 30
0.0
 41
2.5
 42
2.5
 43
2.5
  0
INSERT
  5
1AE1
330
18
100
AcDbEntity
  8
0
  6
ByBlock
 62
     2
100
AcDbBlockReference
  2
_OPEN
 10
430.7589455089507
 20
294.4371467618777
 30
0.0
 41
2.5
 42
2.5
 43
2.5
 50
180.0
  0
MTEXT
  5
1AE2
330
18
100
AcDbEntity
  8
0
  6
ByBlock
 62
     6
100
AcDbMText
 10
428.2589455089507
 20
296.3121467618777
 30
0.0
 40
2.5
 41
0.0
 71
     5
 72
     1
  1
\A1;5
  7
STYLE3
 73
     1
 44
1.0
  0
POINT
  5
1AE3
330
18
100
AcDbEntity
  8
DEFPOINTS
  6
ByBlock
 62
     0
100
AcDbPoint
 10
425.7589455089506
 20
287.4234423181548
 30
0.0
  0
POINT
  5
1AE4
330
18
100
AcDbEntity
  8
DEFPOINTS
  6
ByBlock
 62
     0
100
AcDbPoint
 10
430.7589455089507
 20
287.4218565747019
 30
0.0
  0
POINT
  5
1AE5
330
18
100
AcDbEntity
  8
DEFPOINTS
  6
ByBlock
 62
     0
100
AcDbPoint
 10
430.7589455089507
 20
294.4371467618777
 30
0.0
  0
LINE
  5
1AE6
330
18
100
AcDbEntity
  8
外形線
 62
     2
100
AcDbLine
 10
437.7099231546206
 20
284.782876267816
 30
0.0
 11
441.5411631584603
 21
294.4371467618777
 31
0.0
  0
LINE
  5
1AE7
330
18
100
AcDbEntity
  8
外形線
 62
     2
100
AcDbLine
 10
441.5411631584603
 20
294.4371467618777
 30
0.0
 11
451.0774661355119
 21
294.4371467618777
 31
0.0
  0
LINE
  5
1AEC
330
18
100
AcDbEntity
  8
0
  6
ByBlock
 62
     2
100
AcDbLine
 10
424.7589455089508
 20
271.9218565747019
 30
0.0
 11
424.7589455089508
 21
259.0625769728995
 31
0.0
  0
LINE
  5
1AED
330
18
100
AcDbEntity
  8
0
  6
ByBlock
 62
     2
100
AcDbLine
 10
435.2589455089509
 20
261.1409969442969
 30
0.0
 11
435.2589455089509
 21
259.0625769728995
 31
0.0
  0
LINE
  5
1AEE
330
18
100
AcDbEntity
  8
0
  6
ByBlock
 62
     2
100
AcDbLine
 10
427.2589455089508
 20
260.3125769728996
 30
0.0
 11
432.7589455089509
 21
260.3125769728996
 31
0.0
  0
INSERT
  5
1AEF
330
18
100
AcDbEntity
  8
0
  6
ByBlock
 62
     2
100
AcDbBlockReference
  2
_OPEN
 10
424.7589455089508
 20
260.3125769728996
 30
0.0
 41
2.5
 42
2.5
 43
2.5
 50
180.0
  0
INSERT
  5
1AF0
330
18
100
AcDbEntity
  8
0
  6
ByBlock
 62
     2
100
AcDbBlockReference
  2
_OPEN
 10
435.2589455089509
 20
260.3125769728996
 30
0.0
 41
2.5
 42
2.5
 43
2.5
  0
MTEXT
  5
1AF1
330
18
100
AcDbEntity
  8
0
  6
ByBlock
 62
     6
100
AcDbMText
 10
430.0089455089509
 20
262.1875769728995
 30
0.0
 40
2.5
 41
0.0
 71
     5
 72
     1
  1
\A1;10.5
  7
STYLE3
 73
     1
 44
1.0
  0
POINT
  5
1AF2
330
18
100
AcDbEntity
  8
DEFPOINTS
  6
ByBlock
 62
     0
100
AcDbPoint
 10
424.7589455089508
 20
271.9218565747019
 30
0.0
  0
POINT
  5
1AF3
330
18
100
AcDbEntity
  8
DEFPOINTS
  6
ByBlock
 62
     0
100
AcDbPoint
 10
435.2589455089509
 20
261.1409969442969
 30
0.0
  0
POINT
  5
1AF4
330
18
100
AcDbEntity
  8
DEFPOINTS
  6
ByBlock
 62
     0
100
AcDbPoint
 10
435.2589455089509
 20
260.3125769728996
 30
0.0
  0
LINE
  5
1AF5
330
18
100
AcDbEntity
  8
外形線
 62
     2
100
AcDbLine
 10
438.1088800101607
 20
284.662690833887
 30
0.0
 11
436.9888105510462
 21
282.3891351345758
 31
0.0
  0
LINE
  5
1AF6
330
18
100
AcDbEntity
  8
外形線
 62
     2
100
AcDbLine
 10
436.9888105510462
 20
282.3891351345758
 30
0.0
 11
437.3109662990805
 21
284.9030617017451
 31
0.0
  0
LINE
  5
1AF7
330
18
100
AcDbEntity
  8
外形線
 62
     2
100
AcDbLine
 10
436.9888105510462
 20
282.3891351345758
 30
0.0
 11
437.7099231546207
 21
284.782876267816
 31
0.0
  0
ARC
  5
1B38
330
18
100
AcDbEntity
  8
外形線
100
AcDbCircle
 10
327.1250591198275
 20
220.6218565747021
 30
0.0
 40
1.199999999999999
100
AcDbArc
 50
189.59406822686
 51
350.4059317731399
  0
ARC
  5
1B39
330
18
100
AcDbEntity
  8
外形線
100
AcDbCircle
 10
414.7589455089509
 20
220.6218565747021
 30
0.0
 40
1.199999999999999
100
AcDbArc
 50
189.59406822686
 51
350.4059317731399
  0
TEXT
  5
1B60
330
18
100
AcDbEntity
  8
文字
100
AcDbText
 10
324.1589555144782
 20
356.8267272460762
 30
0.0
 40
4.0
  1
Model No.25S Dial Gauge
  7
STYLE3
100
AcDbText
  0
LINE
  5
1B61
330
18
100
AcDbEntity
  8
外形線
100
AcDbLine
 10
323.7272875144782
 20
354.4361852460761
 30
0.0
 11
398.7272875144782
 21
354.4361852460761
 31
0.0
  0
LINE
  5
1B62
330
18
100
AcDbEntity
  8
外形線
100
AcDbLine
 10
323.7272875144782
 20
353.4361852460762
 30
0.0
 11
398.7272875144782
 21
353.4361852460762
 31
0.0
  0
TEXT
  5
1B63
330
18
100
AcDbEntity
  8
0
  6
Continuous
100
AcDbText
 10
351.7863955144783
 20
184.0207522460761
 30
0.0
 40
2.1
  1
Design and specifications are subject to change without notice for future improvement.
  7
STYLE3
100
AcDbText
  0
LINE
  5
1B64
330
18
100
AcDbEntity
  8
外形線
100
AcDbLine
 10
350.3289285144782
 20
172.5079832460761
 30
0.0
 11
350.3289285144782
 21
192.9029672460761
 31
0.0
  0
LINE
  5
1B65
330
18
100
AcDbEntity
  8
外形線
100
AcDbLine
 10
350.3289285144782
 20
182.1227612460761
 30
0.0
 11
491.1203465144782
 21
182.1227612460761
 31
0.0
  0
TEXT
  5
1B66
330
18
100
AcDbEntity
  8
0
  6
Continuous
100
AcDbText
 10
395.0991735144782
 20
176.0042672460761
 30
0.0
 40
2.399999999999999
  1
mm
  7
STYLE3
100
AcDbText
  0
TEXT
  5
1B67
330
18
100
AcDbEntity
  8
0
  6
Continuous
100
AcDbText
 10
351.4949045144783
 20
174.2561242460761
 30
0.0
 40
2.1
  1
3RD Angle Projection
  7
STYLE3
100
AcDbText
  0
TEXT
  5
1B68
330
18
100
AcDbEntity
  8
0
  6
Continuous
100
AcDbText
 10
354.1183475144783
 20
177.7524072460761
 30
0.0
 40
3.0
  1
三　　角　　法
  7
STYLE3
100
AcDbText
  0
TEXT
  5
1B69
330
18
100
AcDbEntity
  8
0
  6
Continuous
100
AcDbText
 10
387.0571255144782
 20
177.7583612460761
 30
0.0
 40
3.0
  1
単位
  7
STYLE3
100
AcDbText
  0
TEXT
  5
1B6A
330
18
100
AcDbEntity
  8
0
  6
Continuous
100
AcDbText
 10
387.2288465144782
 20
174.2561252460761
 30
0.0
 40
2.1
  1
Unit
  7
STYLE3
100
AcDbText
  0
LINE
  5
1B6B
330
18
100
AcDbEntity
  8
外形線
100
AcDbLine
 10
385.5996565144782
 20
182.1227612460761
 30
0.0
 11
385.5996565144782
 21
172.5079832460761
 31
0.0
  0
TEXT
  5
1B6C
330
18
100
AcDbEntity
  8
0
  6
Continuous
100
AcDbText
 10
453.7006585144782
 20
178.0437642460761
 30
0.0
 40
3.0
  1
株式会社　尾崎製作所
  7
STYLE3
100
AcDbText
  0
TEXT
  5
1B6D
330
18
100
AcDbEntity
  8
0
  6
Continuous
100
AcDbText
 10
454.5751375144782
 20
174.2561242460761
 30
0.0
 40
2.1
  1
OZAKI MFG. CO., LTD.
  7
STYLE3
100
AcDbText
  0
TEXT
  5
1B6E
330
18
100
AcDbEntity
  8
0
  6
Continuous
100
AcDbText
 10
433.2961035144782
 20
176.0042662460761
 30
0.0
 40
2.1
  1
2010.06.08
  7
STYLE3
100
AcDbText
  0
TEXT
  5
1B6F
330
18
100
AcDbEntity
  8
0
  6
Continuous
100
AcDbText
 10
414.4575255144782
 20
176.2956242460761
 30
0.0
 40
2.399999999999999
  1
1/1
  7
STYLE3
100
AcDbText
  0
TEXT
  5
1B70
330
18
100
AcDbEntity
  8
0
  6
Continuous
100
AcDbText
 10
404.3750215144782
 20
177.4670042460761
 30
0.0
 40
3.0
  1
尺 度
  7
STYLE3
100
AcDbText
  0
TEXT
  5
1B71
330
18
100
AcDbEntity
  8
0
  6
Continuous
100
AcDbText
 10
404.8382365144782
 20
174.5474822460761
 30
0.0
 40
2.1
  1
Scale
  7
STYLE3
100
AcDbText
  0
LINE
  5
1B72
330
18
100
AcDbEntity
  8
外形線
100
AcDbLine
 10
403.0892735144782
 20
182.1227612460761
 30
0.0
 11
403.0892735144782
 21
172.5079832460761
 31
0.0
  0
TEXT
  5
1B73
330
18
100
AcDbEntity
  8
0
  6
Continuous
100
AcDbText
 10
424.5512965144782
 20
174.2561262460761
 30
0.0
 40
2.1
  1
Date
  7
STYLE3
100
AcDbText
  0
TEXT
  5
1B74
330
18
100
AcDbEntity
  8
0
  6
Continuous
100
AcDbText
 10
424.1679355144782
 20
177.5892092460761
 30
0.0
 40
3.0
  1
日 付
  7
STYLE3
100
AcDbText
  0
LINE
  5
1B75
330
18
100
AcDbEntity
  8
外形線
100
AcDbLine
 10
422.6193455144781
 20
182.1227612460761
 30
0.0
 11
422.6193455144781
 21
172.5079832460761
 31
0.0
  0
LINE
  5
1B76
330
18
100
AcDbEntity
  8
外形線
100
AcDbLine
 10
452.3516955144781
 20
182.1227612460761
 30
0.0
 11
452.3516955144781
 21
172.5079832460761
 31
0.0
  0
LINE
  5
1B77
330
18
100
AcDbEntity
  8
外形線
100
AcDbLine
 10
350.3289285144782
 20
192.9029672460761
 30
0.0
 11
491.1203465144782
 21
192.9029672460761
 31
0.0
  0
TEXT
  5
1B78
330
18
100
AcDbEntity
  8
0
  6
Continuous
100
AcDbText
 10
352.0778895144783
 20
187.9499002460761
 30
0.0
 40
3.5
  1
仕様及び外観は予告なく変更される場合がございますのでご了承下さい。
  7
STYLE3
100
AcDbText
  0
ENDSEC
  0
SECTION
  2
OBJECTS
  0
DICTIONARY
  5
C
330
0
100
AcDbDictionary
281
     1
  3
ACAD_COLOR
350
1B2D
  3
ACAD_GROUP
350
D
  3
ACAD_IMAGE_DICT
350
E58
  3
ACAD_LAYOUT
350
1B30
  3
ACAD_MATERIAL
350
1B2C
  3
ACAD_MLINESTYLE
350
1B
  3
ACAD_PLOTSETTINGS
350
1B31
  3
ACAD_PLOTSTYLENAME
350
1B2A
  3
ACAD_TABLESTYLE
350
1B2E
  3
ACDBVARIABLEDICTIONARY
350
1025
  0
DICTIONARY
  5
1B2D
102
{ACAD_REACTORS
330
C
102
}
330
C
100
AcDbDictionary
281
     1
  0
DICTIONARY
  5
D
102
{ACAD_REACTORS
330
C
102
}
330
C
100
AcDbDictionary
281
     1
  0
DICTIONARY
  5
E58
102
{ACAD_REACTORS
330
C
102
}
330
C
100
AcDbDictionary
281
     1
  3
ROGO01
350
E59
  0
DICTIONARY
  5
1B30
102
{ACAD_REACTORS
330
C
102
}
330
C
100
AcDbDictionary
281
     1
  3
Model
350
1B32
  3
レイアウト1
350
1B33
  0
DICTIONARY
  5
1B2C
102
{ACAD_REACTORS
330
C
102
}
330
C
100
AcDbDictionary
281
     1
  0
DICTIONARY
  5
1B
102
{ACAD_REACTORS
330
C
102
}
330
C
100
AcDbDictionary
281
     1
  3
STANDARD
350
1C
  0
DICTIONARY
  5
1B31
102
{ACAD_REACTORS
330
C
102
}
330
C
100
AcDbDictionary
281
     1
  0
ACDBDICTIONARYWDFLT
  5
1B2A
102
{ACAD_REACTORS
330
C
102
}
330
C
100
AcDbDictionary
281
     1
  3
Normal
350
1B2B
100
AcDbDictionaryWithDefault
340
1B2B
  0
DICTIONARY
  5
1B2E
102
{ACAD_REACTORS
330
C
102
}
330
C
100
AcDbDictionary
281
     1
  3
Standard
350
1B2F
  0
DICTIONARY
  5
1025
102
{ACAD_REACTORS
330
C
102
}
330
C
100
AcDbDictionary
281
     1
  3
CTABLESTYLE
350
1B3B
  3
SORTENTS
350
1026
  0
IMAGEDEF
  5
E59
102
{ACAD_REACTORS
330
E58
102
}
330
E58
100
AcDbRasterImageDef
 90
        0
  1
D:\ﾃｽﾄ\rogo01.TIF
 10
3388.0
 20
4668.0
 11
0.0635
 21
0.0635
280
     1
281
     5
  0
LAYOUT
  5
1B32
102
{ACAD_REACTORS
330
1B30
102
}
330
1B30
100
AcDbPlotSettings
  1

  2
WIDR Printer
  4

  6

 40
0.0
 41
0.0
 42
0.0
 43
0.0
 44
0.0
 45
0.0
 46
0.0
 47
0.0
 48
0.0
 49
0.0
140
0.0
141
0.0
142
1.0
143
1.0
 70
  1712
 72
     0
 73
     0
 74
     0
  7
AutoCad LT 98.ctb
 75
     0
147
1.0
 76
     0
 77
     2
 78
   300
148
0.0
149
0.0
100
AcDbLayout
  1
Model
 70
     1
 71
     0
 10
0.0
 20
0.0
 11
12.0
 21
9.0
 12
0.0
 22
0.0
 32
0.0
 14
0.0
 24
0.0
 34
0.0
 15
0.0
 25
0.0
 35
0.0
146
0.0
 13
0.0
 23
0.0
 33
0.0
 16
1.0
 26
0.0
 36
0.0
 17
0.0
 27
1.0
 37
0.0
 76
     0
330
18
  0
LAYOUT
  5
1B33
102
{ACAD_REACTORS
330
1B30
102
}
330
1B30
100
AcDbPlotSettings
  1

  2
WIDR Printer
  4

  6

 40
0.0
 41
0.0
 42
0.0
 43
0.0
 44
0.0
 45
0.0
 46
0.0
 47
0.0
 48
0.0
 49
0.0
140
0.0
141
0.0
142
1.0
143
1.0
 70
   688
 72
     0
 73
     0
 74
     5
  7
AutoCad LT 98.ctb
 75
    16
147
1.0
 76
     0
 77
     2
 78
   300
148
0.0
149
0.0
100
AcDbLayout
  1
レイアウト1
 70
     1
 71
     1
 10
0.0
 20
0.0
 11
420.0
 21
297.0
 12
0.0
 22
0.0
 32
0.0
 14
1.000000000000000E+20
 24
1.000000000000000E+20
 34
1.000000000000000E+20
 15
-1.000000000000000E+20
 25
-1.000000000000000E+20
 35
-1.000000000000000E+20
146
0.0
 13
0.0
 23
0.0
 33
0.0
 16
1.0
 26
0.0
 36
0.0
 17
0.0
 27
1.0
 37
0.0
 76
     0
330
15
  0
MLINESTYLE
  5
1C
102
{ACAD_REACTORS
330
1B
102
}
330
1B
100
AcDbMlineStyle
  2
STANDARD
 70
     0
  3

 62
   256
 51
90.0
 52
90.0
 71
     2
 49
0.5
 62
   256
  6
BYLAYER
 49
-0.5
 62
   256
  6
BYLAYER
  0
ACDBPLACEHOLDER
  5
1B2B
102
{ACAD_REACTORS
330
1B2A
102
}
330
1B2A
  0
ACAD_PROXY_OBJECT
  5
1B2F
102
{ACAD_REACTORS
330
1B2E
102
}
330
1B2E
100
AcDbProxyObject
 90
      499
 91
      505
 95
  2555929
 70
     0
 93
     1849
310
4214DD185B99185C992420000000000000F83F0000000000003E0FC00000000000004901028000000C1008070000C3001FDFF8000000C1003FBFF000000182007F7FE00000030400FEFFC00000060801FDFF8000000C1003FBFF000000182000000000000000C2020B0000001820100E000186003FBFF000000182007F7FE0
310
0000030400FEFFC00000060801FDFF8000000C1003FBFF000000182007F7FE0000003040000000000000012404160000003040201C00030C007F7FE00000030400FEFFC00000060801FDFF8000000C1003FBFF000000182007F7FE00000030400FEFFC000000608000
340
F
340
F
340
F
 94
        0
  0
DICTIONARYVAR
  5
1B3B
102
{ACAD_REACTORS
330
1025
102
}
330
1025
100
DictionaryVariables
280
     0
  1
STANDARD
  0
DICTIONARYVAR
  5
1026
102
{ACAD_REACTORS
330
1025
102
}
330
1025
100
DictionaryVariables
280
     0
  1
96
  0
ENDSEC
  0
EOF
