  0
SECTION
  2
HEADER
  9
$ACADVER
  1
AC1018
  9
$ACADMAINTVER
 70
     0
  9
$DWGCODEPAGE
  3
ANSI_932
  9
$INSBASE
 10
0.0
 20
0.0
 30
0.0
  9
$EXTMIN
 10
236.4898498283646
 20
171.6287515666504
 30
-0.0000000349181948
  9
$EXTMAX
 10
491.9090935963797
 20
367.0725802714662
 30
0.0000000814935746
  9
$LIMMIN
 10
0.0
 20
0.0
  9
$LIMMAX
 10
420.0
 20
297.0
  9
$ORTHOMODE
 70
     0
  9
$REGENMODE
 70
     1
  9
$FILLMODE
 70
     1
  9
$QTEXTMODE
 70
     0
  9
$MIRRTEXT
 70
     1
  9
$LTSCALE
 40
1.0
  9
$ATTMODE
 70
     1
  9
$TEXTSIZE
 40
3.0
  9
$TRACEWID
 40
1.0
  9
$TEXTSTYLE
  7
STYLE3
  9
$CLAYER
  8
文字
  9
$CELTYPE
  6
BYLAYER
  9
$CECOLOR
 62
   256
  9
$CELTSCALE
 40
1.0
  9
$DISPSILH
 70
     0
  9
$DIMSCALE
 40
1.0
  9
$DIMASZ
 40
2.5
  9
$DIMEXO
 40
0.0
  9
$DIMDLI
 40
3.75
  9
$DIMRND
 40
0.0
  9
$DIMDLE
 40
0.0
  9
$DIMEXE
 40
1.25
  9
$DIMTP
 40
0.0
  9
$DIMTM
 40
0.0
  9
$DIMTXT
 40
2.5
  9
$DIMCEN
 40
2.5
  9
$DIMTSZ
 40
0.0
  9
$DIMTOL
 70
     0
  9
$DIMLIM
 70
     0
  9
$DIMTIH
 70
     0
  9
$DIMTOH
 70
     0
  9
$DIMSE1
 70
     0
  9
$DIMSE2
 70
     0
  9
$DIMTAD
 70
     1
  9
$DIMZIN
 70
     8
  9
$DIMBLK
  1

  9
$DIMASO
 70
     1
  9
$DIMSHO
 70
     1
  9
$DIMPOST
  1

  9
$DIMAPOST
  1

  9
$DIMALT
 70
     0
  9
$DIMALTD
 70
     4
  9
$DIMALTF
 40
0.0394
  9
$DIMLFAC
 40
1.0
  9
$DIMTOFL
 70
     1
  9
$DIMTVP
 40
0.0
  9
$DIMTIX
 70
     0
  9
$DIMSOXD
 70
     0
  9
$DIMSAH
 70
     1
  9
$DIMBLK1
  1
OPEN
  9
$DIMBLK2
  1
OPEN
  9
$DIMSTYLE
  2
STYLE3
  9
$DIMCLRD
 70
     2
  9
$DIMCLRE
 70
     2
  9
$DIMCLRT
 70
     6
  9
$DIMTFAC
 40
1.0
  9
$DIMGAP
 40
0.625
  9
$DIMJUST
 70
     0
  9
$DIMSD1
 70
     0
  9
$DIMSD2
 70
     0
  9
$DIMTOLJ
 70
     1
  9
$DIMTZIN
 70
     0
  9
$DIMALTZ
 70
     0
  9
$DIMALTTZ
 70
     0
  9
$DIMUPT
 70
     0
  9
$DIMDEC
 70
     2
  9
$DIMTDEC
 70
     4
  9
$DIMALTU
 70
     8
  9
$DIMALTTD
 70
     4
  9
$DIMTXSTY
  7
STYLE3
  9
$DIMAUNIT
 70
     0
  9
$DIMADEC
 70
     0
  9
$DIMALTRND
 40
0.0
  9
$DIMAZIN
 70
     0
  9
$DIMDSEP
 70
    46
  9
$DIMATFIT
 70
     3
  9
$DIMFRAC
 70
     0
  9
$DIMLDRBLK
  1

  9
$DIMLUNIT
 70
     2
  9
$DIMLWD
 70
    -2
  9
$DIMLWE
 70
    -2
  9
$DIMTMOVE
 70
     0
  9
$LUNITS
 70
     2
  9
$LUPREC
 70
     4
  9
$SKETCHINC
 40
1.0
  9
$FILLETRAD
 40
0.0
  9
$AUNITS
 70
     0
  9
$AUPREC
 70
     0
  9
$MENU
  1
.
  9
$ELEVATION
 40
0.0
  9
$PELEVATION
 40
0.0
  9
$THICKNESS
 40
0.0
  9
$LIMCHECK
 70
     0
  9
$CHAMFERA
 40
0.4
  9
$CHAMFERB
 40
0.4
  9
$CHAMFERC
 40
20.0
  9
$CHAMFERD
 40
0.0
  9
$SKPOLY
 70
     0
  9
$TDCREATE
 40
2451197.720910995
  9
$TDUCREATE
 40
2451197.345910995
  9
$TDUPDATE
 40
2455356.468210359
  9
$TDUUPDATE
 40
2455356.093210359
  9
$TDINDWG
 40
0.1842360764
  9
$TDUSRTIMER
 40
0.1842360764
  9
$USRTIMER
 70
     1
  9
$ANGBASE
 50
0.0
  9
$ANGDIR
 70
     0
  9
$PDMODE
 70
     0
  9
$PDSIZE
 40
0.0
  9
$PLINEWID
 40
0.0
  9
$SPLFRAME
 70
     0
  9
$SPLINETYPE
 70
     6
  9
$SPLINESEGS
 70
     8
  9
$HANDSEED
  5
196B
  9
$SURFTAB1
 70
     6
  9
$SURFTAB2
 70
     6
  9
$SURFTYPE
 70
     6
  9
$SURFU
 70
     6
  9
$SURFV
 70
     6
  9
$UCSBASE
  2

  9
$UCSNAME
  2

  9
$UCSORG
 10
0.0
 20
0.0
 30
0.0
  9
$UCSXDIR
 10
1.0
 20
0.0
 30
0.0
  9
$UCSYDIR
 10
0.0
 20
1.0
 30
0.0
  9
$UCSORTHOREF
  2

  9
$UCSORTHOVIEW
 70
     0
  9
$UCSORGTOP
 10
0.0
 20
0.0
 30
0.0
  9
$UCSORGBOTTOM
 10
0.0
 20
0.0
 30
0.0
  9
$UCSORGLEFT
 10
0.0
 20
0.0
 30
0.0
  9
$UCSORGRIGHT
 10
0.0
 20
0.0
 30
0.0
  9
$UCSORGFRONT
 10
0.0
 20
0.0
 30
0.0
  9
$UCSORGBACK
 10
0.0
 20
0.0
 30
0.0
  9
$PUCSBASE
  2

  9
$PUCSNAME
  2

  9
$PUCSORG
 10
0.0
 20
0.0
 30
0.0
  9
$PUCSXDIR
 10
1.0
 20
0.0
 30
0.0
  9
$PUCSYDIR
 10
0.0
 20
1.0
 30
0.0
  9
$PUCSORTHOREF
  2

  9
$PUCSORTHOVIEW
 70
     0
  9
$PUCSORGTOP
 10
0.0
 20
0.0
 30
0.0
  9
$PUCSORGBOTTOM
 10
0.0
 20
0.0
 30
0.0
  9
$PUCSORGLEFT
 10
0.0
 20
0.0
 30
0.0
  9
$PUCSORGRIGHT
 10
0.0
 20
0.0
 30
0.0
  9
$PUCSORGFRONT
 10
0.0
 20
0.0
 30
0.0
  9
$PUCSORGBACK
 10
0.0
 20
0.0
 30
0.0
  9
$USERI1
 70
     0
  9
$USERI2
 70
     0
  9
$USERI3
 70
     0
  9
$USERI4
 70
     0
  9
$USERI5
 70
     0
  9
$USERR1
 40
0.0
  9
$USERR2
 40
0.0
  9
$USERR3
 40
0.0
  9
$USERR4
 40
0.0
  9
$USERR5
 40
0.0
  9
$WORLDVIEW
 70
     1
  9
$SHADEDGE
 70
     3
  9
$SHADEDIF
 70
    70
  9
$TILEMODE
 70
     1
  9
$MAXACTVP
 70
    48
  9
$PINSBASE
 10
0.0
 20
0.0
 30
0.0
  9
$PLIMCHECK
 70
     0
  9
$PEXTMIN
 10
1.000000000000000E+20
 20
1.000000000000000E+20
 30
1.000000000000000E+20
  9
$PEXTMAX
 10
-1.000000000000000E+20
 20
-1.000000000000000E+20
 30
-1.000000000000000E+20
  9
$PLIMMIN
 10
0.0
 20
0.0
  9
$PLIMMAX
 10
420.0
 20
297.0
  9
$UNITMODE
 70
     0
  9
$VISRETAIN
 70
     1
  9
$PLINEGEN
 70
     0
  9
$PSLTSCALE
 70
     1
  9
$TREEDEPTH
 70
  3020
  9
$CMLSTYLE
  2
STANDARD
  9
$CMLJUST
 70
     0
  9
$CMLSCALE
 40
20.0
  9
$PROXYGRAPHICS
 70
     1
  9
$MEASUREMENT
 70
     1
  9
$CELWEIGHT
370
    -1
  9
$ENDCAPS
280
     0
  9
$JOINSTYLE
280
     0
  9
$LWDISPLAY
290
     0
  9
$INSUNITS
 70
     0
  9
$HYPERLINKBASE
  1

  9
$STYLESHEET
  1

  9
$XEDIT
290
     1
  9
$CEPSNTYPE
380
     0
  9
$PSTYLEMODE
290
     1
  9
$FINGERPRINTGUID
  2
{FB20F79C-5AA7-4589-B240-A86771D51BCE}
  9
$VERSIONGUID
  2
{6F10E788-2CA3-4F97-96C4-C78B3F41E1DE}
  9
$EXTNAMES
290
     1
  9
$PSVPSCALE
 40
0.0
  9
$OLESTARTUP
290
     0
  9
$SORTENTS
280
    96
  9
$INDEXCTL
280
     0
  9
$HIDETEXT
280
     0
  9
$XCLIPFRAME
290
     0
  9
$HALOGAP
280
     0
  9
$OBSCOLOR
 70
   257
  9
$OBSLTYPE
280
     0
  9
$INTERSECTIONDISPLAY
280
     0
  9
$INTERSECTIONCOLOR
 70
   257
  9
$DIMASSOC
280
     1
  9
$PROJECTNAME
  1

  0
ENDSEC
  0
SECTION
  2
CLASSES
  0
CLASS
  1
HATCH
  2
AcDbHatch
  3
ObjectDBX Classes
 90
        0
 91
       14
280
     0
281
     1
  0
CLASS
  1
LWPOLYLINE
  2
AcDbPolyline
  3
ObjectDBX Classes
 90
        0
 91
        1
280
     0
281
     1
  0
CLASS
  1
DICTIONARYVAR
  2
AcDbDictionaryVar
  3
ObjectDBX Classes
 90
        0
 91
        2
280
     0
281
     0
  0
CLASS
  1
ACDBDICTIONARYWDFLT
  2
AcDbDictionaryWithDefault
  3
ObjectDBX Classes
 90
        0
 91
        1
280
     0
281
     0
  0
CLASS
  1
TABLESTYLE
  2
AcDbTableStyle
  3
ObjectDBX Classes
 90
     2047
 91
        1
280
     0
281
     0
  0
ENDSEC
  0
SECTION
  2
TABLES
  0
TABLE
  2
VPORT
  5
8
330
0
100
AcDbSymbolTable
 70
     2
  0
VPORT
  5
196A
330
8
100
AcDbSymbolTableRecord
100
AcDbViewportTableRecord
  2
*Active
 70
     0
 10
0.0
 20
0.0
 11
1.0
 21
1.0
 12
364.1994717123722
 22
269.3506659190583
 13
0.0
 23
0.0
 14
10.0
 24
10.0
 15
10.0
 25
10.0
 16
0.0
 26
0.0
 36
1.0
 17
0.0
 27
0.0
 37
0.0
 40
196.9300935618867
 41
1.530456852791878
 42
50.0
 43
0.0
 44
0.0
 50
0.0
 51
0.0
 71
     0
 72
   100
 73
     1
 74
     1
 75
     0
 76
     0
 77
     0
 78
     0
281
     0
 65
     1
110
0.0
120
0.0
130
0.0
111
1.0
121
0.0
131
0.0
112
0.0
122
1.0
132
0.0
 79
     0
146
0.0
  0
ENDTAB
  0
TABLE
  2
LTYPE
  5
5
330
0
100
AcDbSymbolTable
 70
     4
  0
LTYPE
  5
12
330
5
100
AcDbSymbolTableRecord
100
AcDbLinetypeTableRecord
  2
BYBLOCK
 70
     0
  3

 72
    65
 73
     0
 40
0.0
  0
LTYPE
  5
13
330
5
100
AcDbSymbolTableRecord
100
AcDbLinetypeTableRecord
  2
BYLAYER
 70
     0
  3

 72
    65
 73
     0
 40
0.0
  0
LTYPE
  5
14
330
5
100
AcDbSymbolTableRecord
100
AcDbLinetypeTableRecord
  2
CONTINUOUS
 70
     0
  3
Solid line
 72
    65
 73
     0
 40
0.0
  0
LTYPE
  5
22
330
5
100
AcDbSymbolTableRecord
100
AcDbLinetypeTableRecord
  2
CENTER2
 70
     0
  3
Center (.5x) ___ _ ___ _ ___ _ ___ _ ___ _ ___
 72
    65
 73
     4
 40
28.575
 49
19.05
 74
     0
 49
-3.174999999999999
 74
     0
 49
3.174999999999999
 74
     0
 49
-3.174999999999999
 74
     0
  0
LTYPE
  5
24
330
5
100
AcDbSymbolTableRecord
100
AcDbLinetypeTableRecord
  2
PHANTOM2
 70
     0
  3
Phantom (.5x) ___ _ _ ___ _ _ ___ _ _ ___ _ _
 72
    65
 73
     6
 40
31.75
 49
15.875
 74
     0
 49
-3.174999999999999
 74
     0
 49
3.174999999999999
 74
     0
 49
-3.174999999999999
 74
     0
 49
3.174999999999999
 74
     0
 49
-3.174999999999999
 74
     0
  0
ENDTAB
  0
TABLE
  2
LAYER
  5
2
330
0
100
AcDbSymbolTable
 70
    16
  0
LAYER
  5
E
330
2
100
AcDbSymbolTableRecord
100
AcDbLayerTableRecord
  2
0
 70
     0
 62
     7
  6
CONTINUOUS
370
    -3
390
190F
  0
LAYER
  5
25
330
2
100
AcDbSymbolTableRecord
100
AcDbLayerTableRecord
  2
外形線
 70
     0
 62
     7
  6
CONTINUOUS
370
    -3
390
190F
  0
LAYER
  5
26
330
2
100
AcDbSymbolTableRecord
100
AcDbLayerTableRecord
  2
寸法線
 70
     0
 62
     2
  6
CONTINUOUS
370
    -3
390
190F
  0
LAYER
  5
27
330
2
100
AcDbSymbolTableRecord
100
AcDbLayerTableRecord
  2
中心線
 70
     0
 62
     4
  6
CENTER2
370
    -3
390
190F
  0
LAYER
  5
29
330
2
100
AcDbSymbolTableRecord
100
AcDbLayerTableRecord
  2
想像線
 70
     0
 62
     1
  6
PHANTOM2
370
    -3
390
190F
  0
LAYER
  5
2A
330
2
100
AcDbSymbolTableRecord
100
AcDbLayerTableRecord
  2
ﾊｯﾁﾝｸ
 70
     0
 62
     4
  6
CONTINUOUS
370
    -3
390
190F
  0
LAYER
  5
2B
330
2
100
AcDbSymbolTableRecord
100
AcDbLayerTableRecord
  2
文字
 70
     0
 62
     6
  6
CONTINUOUS
370
    -3
390
190F
  0
LAYER
  5
2C
330
2
100
AcDbSymbolTableRecord
100
AcDbLayerTableRecord
  2
目盛
 70
     0
 62
    70
  6
CONTINUOUS
370
    -3
390
190F
  0
LAYER
  5
2D
330
2
100
AcDbSymbolTableRecord
100
AcDbLayerTableRecord
  2
針
 70
     0
 62
     5
  6
CONTINUOUS
370
    -3
390
190F
  0
LAYER
  5
53
330
2
100
AcDbSymbolTableRecord
100
AcDbLayerTableRecord
  2
DEFPOINTS
 70
     0
 62
     7
  6
CONTINUOUS
290
     0
370
    -3
390
190F
  0
LAYER
  5
A5
330
2
100
AcDbSymbolTableRecord
100
AcDbLayerTableRecord
  2
C
 70
     0
 62
     7
  6
CONTINUOUS
370
    -3
390
190F
  0
LAYER
  5
991
330
2
100
AcDbSymbolTableRecord
100
AcDbLayerTableRecord
  2
ROGO
 70
     0
 62
     6
  6
CONTINUOUS
370
    -3
390
190F
  0
ENDTAB
  0
TABLE
  2
STYLE
  5
3
330
0
100
AcDbSymbolTable
 70
     3
  0
STYLE
  5
F
330
3
100
AcDbSymbolTableRecord
100
AcDbTextStyleTableRecord
  2
STANDARD
 70
     0
 40
0.0
 41
1.0
 50
0.0
 71
     0
 42
2.5
  3
txt
  4

  0
STYLE
  5
3F
330
3
100
AcDbSymbolTableRecord
100
AcDbTextStyleTableRecord
  2
STYLE3
 70
     0
 40
0.0
 41
1.0
 50
0.0
 71
     0
 42
3.0
  3
romans.shx
  4
bigfont.shx
  0
ENDTAB
  0
TABLE
  2
VIEW
  5
6
330
0
100
AcDbSymbolTable
 70
     0
  0
ENDTAB
  0
TABLE
  2
UCS
  5
7
330
0
100
AcDbSymbolTable
 70
     0
  0
ENDTAB
  0
TABLE
  2
APPID
  5
9
330
0
100
AcDbSymbolTable
 70
     1
  0
APPID
  5
10
330
9
100
AcDbSymbolTableRecord
100
AcDbRegAppTableRecord
  2
ACAD
 70
     0
  0
ENDTAB
  0
TABLE
  2
DIMSTYLE
  5
A
330
0
100
AcDbSymbolTable
 70
     3
100
AcDbDimStyleTable
 71
     0
  0
DIMSTYLE
105
1D
330
A
100
AcDbSymbolTableRecord
100
AcDbDimStyleTableRecord
  2
STANDARD
 70
     0
 41
2.5
 42
0.625
 43
3.75
 44
1.25
 73
     0
 74
     0
 77
     1
 78
     8
140
2.5
141
2.5
143
0.0394
147
0.625
171
     4
172
     1
273
     8
274
     4
277
     6
340
F
  0
DIMSTYLE
105
8F
330
A
100
AcDbSymbolTableRecord
100
AcDbDimStyleTableRecord
  2
STYLE3
 70
     0
 41
2.5
 42
0.0
 43
3.75
 44
1.25
 73
     0
 74
     0
 77
     1
 78
     8
140
2.5
141
2.5
143
0.0394
147
0.625
171
     4
172
     1
173
     1
176
     2
177
     2
178
     6
271
     1
273
     8
274
     4
340
3F
341
45
343
45
344
45
  0
ENDTAB
  0
TABLE
  2
BLOCK_RECORD
  5
1
330
0
100
AcDbSymbolTable
 70
     2
  0
BLOCK_RECORD
  5
18
330
1
100
AcDbSymbolTableRecord
100
AcDbBlockTableRecord
  2
*MODEL_SPACE
340
1916
  0
BLOCK_RECORD
  5
15
330
1
100
AcDbSymbolTableRecord
100
AcDbBlockTableRecord
  2
*PAPER_SPACE
340
1917
  0
BLOCK_RECORD
  5
45
330
1
100
AcDbSymbolTableRecord
100
AcDbBlockTableRecord
  2
_OPEN
340
0
102
{BLKREFS
331
1163
331
1164
331
12BC
331
12BD
331
12EE
331
1378
331
1379
331
1851
331
1852
331
1859
331
185A
331
1873
331
1874
331
187C
331
187D
331
1885
331
1886
331
188E
331
188F
331
1897
331
1898
331
189F
331
18A0
331
18B0
331
18B1
331
18BA
331
18BB
331
18C3
331
18C4
331
18D5
331
18D6
331
18E9
331
18EA
102
}
  0
ENDTAB
  0
ENDSEC
  0
SECTION
  2
BLOCKS
  0
BLOCK
  5
19
330
18
100
AcDbEntity
  8
0
100
AcDbBlockBegin
  2
*MODEL_SPACE
 70
     0
 10
0.0
 20
0.0
 30
0.0
  3
*MODEL_SPACE
  1

  0
ENDBLK
  5
1A
330
18
100
AcDbEntity
  8
0
100
AcDbBlockEnd
  0
BLOCK
  5
16
330
15
100
AcDbEntity
 67
     1
  8
0
100
AcDbBlockBegin
  2
*PAPER_SPACE
 70
     0
 10
0.0
 20
0.0
 30
0.0
  3
*PAPER_SPACE
  1

  0
ENDBLK
  5
17
330
15
100
AcDbEntity
 67
     1
  8
0
100
AcDbBlockEnd
  0
BLOCK
  5
46
330
45
100
AcDbEntity
  8
0
100
AcDbBlockBegin
  2
_OPEN
 70
     0
 10
0.0
 20
0.0
 30
0.0
  3
_OPEN
  1

  0
LINE
  5
47
330
45
100
AcDbEntity
  8
0
  6
ByBlock
 62
     0
100
AcDbLine
 10
-1.0
 20
0.1666666666666666
 30
0.0
 11
0.0
 21
0.0
 31
0.0
  0
LINE
  5
48
330
45
100
AcDbEntity
  8
0
  6
ByBlock
 62
     0
100
AcDbLine
 10
0.0
 20
0.0
 30
0.0
 11
-1.0
 21
-0.1666666666666666
 31
0.0
  0
LINE
  5
49
330
45
100
AcDbEntity
  8
0
  6
ByBlock
 62
     0
100
AcDbLine
 10
0.0
 20
0.0
 30
0.0
 11
-1.0
 21
0.0
 31
0.0
  0
ENDBLK
  5
4A
330
45
100
AcDbEntity
  8
0
100
AcDbBlockEnd
  0
ENDSEC
  0
SECTION
  2
ENTITIES
  0
LWPOLYLINE
  5
10B
330
18
100
AcDbEntity
  8
C
100
AcDbPolyline
 90
        5
 70
     0
 43
0.4
 10
236.6915604445414
 20
366.8501752555372
 10
491.6915604445414
 20
366.8501752555372
 10
491.6915604445414
 20
171.8501752555372
 10
236.6915604445414
 20
171.8501752555372
 10
236.6915604445414
 20
366.8501752555372
  0
LINE
  5
175
330
18
100
AcDbEntity
  8
中心線
100
AcDbLine
 10
292.6616990100742
 20
284.1729430023191
 30
0.0
 11
372.754484321152
 21
284.1729430023191
 31
0.0
  0
LINE
  5
176
330
18
100
AcDbEntity
  8
中心線
100
AcDbLine
 10
332.5312918449021
 20
336.0998245316576
 30
0.0
 11
332.5312918449021
 21
209.1604132894552
 31
0.0
  0
CIRCLE
  5
177
330
18
100
AcDbEntity
  8
外形線
100
AcDbCircle
 10
332.5312918449021
 20
284.1729430023191
 30
0.0
 40
33.0
  0
LINE
  5
179
330
18
100
AcDbEntity
  8
中心線
100
AcDbLine
 10
410.843548059472
 20
335.3433896682732
 30
0.0
 11
410.843548059472
 21
209.1604132894552
 31
0.0
  0
LINE
  5
17A
330
18
100
AcDbEntity
  8
中心線
100
AcDbLine
 10
389.5215473361229
 20
284.1729430023191
 30
0.0
 11
442.1867263318564
 21
284.1729430023191
 31
0.0
  0
LINE
  5
17E
330
18
100
AcDbEntity
  8
外形線
100
AcDbLine
 10
405.5435480594719
 20
315.4229430023192
 30
0.0
 11
417.8435480594719
 21
315.4229430023191
 31
0.0
  0
LINE
  5
17F
330
18
100
AcDbEntity
  8
外形線
100
AcDbLine
 10
405.543548059472
 20
252.9229430023192
 30
0.0
 11
417.8435480594719
 21
252.9229430023191
 31
0.0
  0
LINE
  5
186
330
18
100
AcDbEntity
  8
外形線
100
AcDbLine
 10
407.243548059472
 20
226.1729430023191
 30
0.0
 11
414.443548059472
 21
226.1729430023191
 31
0.0
  0
LINE
  5
187
330
18
100
AcDbEntity
  8
外形線
100
AcDbLine
 10
414.843548059472
 20
252.9229430023191
 30
0.0
 11
414.843548059472
 21
231.172943002319
 31
0.0
  0
LINE
  5
188
330
18
100
AcDbEntity
  8
外形線
100
AcDbLine
 10
406.843548059472
 20
252.9229430023191
 30
0.0
 11
406.843548059472
 21
231.172943002319
 31
0.0
  0
LINE
  5
189
330
18
100
AcDbEntity
  8
外形線
100
AcDbLine
 10
406.843548059472
 20
231.172943002319
 30
0.0
 11
414.843548059472
 21
231.172943002319
 31
0.0
  0
LINE
  5
18B
330
18
100
AcDbEntity
  8
外形線
100
AcDbLine
 10
414.7435480594721
 20
231.172943002319
 30
0.0
 11
414.743548059472
 21
226.4729430023191
 31
0.0
  0
LINE
  5
18C
330
18
100
AcDbEntity
  8
外形線
100
AcDbLine
 10
406.943548059472
 20
231.172943002319
 30
0.0
 11
406.943548059472
 21
226.4729430023191
 31
0.0
  0
LINE
  5
18D
330
18
100
AcDbEntity
  8
外形線
100
AcDbLine
 10
406.943548059472
 20
226.4729430023191
 30
0.0
 11
407.243548059472
 21
226.1729430023191
 31
0.0
  0
LINE
  5
18E
330
18
100
AcDbEntity
  8
外形線
100
AcDbLine
 10
414.443548059472
 20
226.1729430023191
 30
0.0
 11
414.743548059472
 21
226.4729430023191
 31
0.0
  0
LINE
  5
18F
330
18
100
AcDbEntity
  8
外形線
 62
     4
100
AcDbLine
 10
406.943548059472
 20
226.4729430023191
 30
0.0
 11
414.743548059472
 21
226.4729430023191
 31
0.0
  0
LINE
  5
C7C
330
18
100
AcDbEntity
  8
外形線
100
AcDbLine
 10
408.593548059472
 20
220.1729430023191
 30
0.0
 11
413.093548059472
 21
220.1729430023191
 31
0.0
  0
LINE
  5
C81
330
18
100
AcDbEntity
  8
外形線
100
AcDbLine
 10
413.3435480594719
 20
219.9729430023191
 30
0.0
 11
413.3435480594719
 21
216.8729430023191
 31
0.0
  0
LINE
  5
C82
330
18
100
AcDbEntity
  8
外形線
100
AcDbLine
 10
408.343548059472
 20
219.9729430023191
 30
0.0
 11
408.343548059472
 21
216.8729430023191
 31
0.0
  0
LINE
  5
C83
330
18
100
AcDbEntity
  8
外形線
100
AcDbLine
 10
408.593548059472
 20
216.6729430023191
 30
0.0
 11
413.093548059472
 21
216.6729430023191
 31
0.0
  0
LINE
  5
C84
330
18
100
AcDbEntity
  8
外形線
100
AcDbLine
 10
408.343548059472
 20
219.9729430023191
 30
0.0
 11
413.3435480594719
 21
219.9729430023191
 31
0.0
  0
LINE
  5
C85
330
18
100
AcDbEntity
  8
外形線
100
AcDbLine
 10
408.343548059472
 20
216.8729430023191
 30
0.0
 11
413.3435480594719
 21
216.8729430023191
 31
0.0
  0
LINE
  5
C86
330
18
100
AcDbEntity
  8
外形線
100
AcDbLine
 10
413.093548059472
 20
220.1729430023191
 30
0.0
 11
413.3435480594719
 21
219.9729430023191
 31
0.0
  0
LINE
  5
C87
330
18
100
AcDbEntity
  8
外形線
100
AcDbLine
 10
408.593548059472
 20
220.1729430023191
 30
0.0
 11
408.343548059472
 21
219.9729430023191
 31
0.0
  0
LINE
  5
C88
330
18
100
AcDbEntity
  8
外形線
100
AcDbLine
 10
413.3435480594719
 20
216.8729430023191
 30
0.0
 11
413.093548059472
 21
216.6729430023191
 31
0.0
  0
LINE
  5
C89
330
18
100
AcDbEntity
  8
外形線
100
AcDbLine
 10
408.343548059472
 20
216.8729430023191
 30
0.0
 11
408.593548059472
 21
216.6729430023191
 31
0.0
  0
LINE
  5
C8B
330
18
100
AcDbEntity
  8
外形線
100
AcDbLine
 10
409.543548059472
 20
212.1729430023191
 30
0.0
 11
412.1435480594719
 21
212.1729430023191
 31
0.0
  0
LINE
  5
C8C
330
18
100
AcDbEntity
  8
外形線
100
AcDbLine
 10
413.093548059472
 20
216.6729430023191
 30
0.0
 11
412.1435480594719
 21
212.1729430023191
 31
0.0
  0
LINE
  5
C8D
330
18
100
AcDbEntity
  8
外形線
100
AcDbLine
 10
408.593548059472
 20
216.6729430023191
 30
0.0
 11
409.543548059472
 21
212.1729430023191
 31
0.0
  0
MTEXT
  5
CCF
330
18
100
AcDbEntity
  8
DEFPOINTS
  6
Continuous
100
AcDbMText
 10
1020.150236874081
 20
235.6127542084339
 30
0.0
 40
1.0
 41
0.0
 71
     4
 72
     1
  1
\A1;
 73
     1
 44
1.0
  0
POINT
  5
D0E
330
18
100
AcDbEntity
  8
DEFPOINTS
  6
ByBlock
 62
     0
100
AcDbPoint
 10
410.843548059472
 20
211.1729430023191
 30
0.0
  0
MTEXT
  5
D2A
330
18
100
AcDbEntity
  8
文字
100
AcDbMText
 10
587.2894464320802
 20
261.690736446668
 30
0.0
 40
1.0
 41
6.927999999999999
 71
     1
 72
     5
  1

  7
STYLE3
 73
     1
 44
1.0
  0
MTEXT
  5
DA6
330
18
100
AcDbEntity
  8
DEFPOINTS
  6
Continuous
100
AcDbMText
 10
909.0252560872217
 20
184.9382877341189
 30
0.0
 40
0.35
 41
0.0
 71
     4
 72
     1
  1
\A1;
 73
     1
 44
1.0
  0
LINE
  5
ED8
330
18
100
AcDbEntity
  8
ﾊｯﾁﾝｸ
100
AcDbLine
 10
398.643548059472
 20
316.2496544114173
 30
0.0
 11
403.8435480594722
 21
316.2496544114173
 31
0.0
  0
LINE
  5
ED9
330
18
100
AcDbEntity
  8
ﾊｯﾁﾝｸ
100
AcDbLine
 10
398.643548059472
 20
315.0496544114173
 30
0.0
 11
403.8435480594722
 21
315.0496544114173
 31
0.0
  0
LINE
  5
EDA
330
18
100
AcDbEntity
  8
ﾊｯﾁﾝｸ
100
AcDbLine
 10
398.643548059472
 20
313.8496544114174
 30
0.0
 11
403.8435480594722
 21
313.8496544114174
 31
0.0
  0
LINE
  5
EDB
330
18
100
AcDbEntity
  8
ﾊｯﾁﾝｸ
100
AcDbLine
 10
398.643548059472
 20
312.4496544114174
 30
0.0
 11
403.8435480594722
 21
312.4496544114174
 31
0.0
  0
LINE
  5
EDC
330
18
100
AcDbEntity
  8
ﾊｯﾁﾝｸ
100
AcDbLine
 10
398.643548059472
 20
311.0496544114174
 30
0.0
 11
403.8435480594722
 21
311.0496544114174
 31
0.0
  0
LINE
  5
EDD
330
18
100
AcDbEntity
  8
ﾊｯﾁﾝｸ
100
AcDbLine
 10
398.6435480594721
 20
285.572943002319
 30
0.0
 11
403.8435480594722
 21
285.5729430023191
 31
0.0
  0
LINE
  5
EDE
330
18
100
AcDbEntity
  8
ﾊｯﾁﾝｸ
100
AcDbLine
 10
398.6435480594721
 20
286.972943002319
 30
0.0
 11
403.8435480594722
 21
286.9729430023191
 31
0.0
  0
LINE
  5
EE1
330
18
100
AcDbEntity
  8
ﾊｯﾁﾝｸ
100
AcDbLine
 10
398.6435480594721
 20
284.1729430023192
 30
0.0
 11
403.8435480594722
 21
284.1729430023191
 31
0.0
  0
LINE
  5
F1E
330
18
100
AcDbEntity
  8
外形線
100
AcDbLine
 10
334.7812918449021
 20
216.6729430023191
 30
0.0
 11
333.831291844902
 21
212.1729430023191
 31
0.0
  0
LINE
  5
F1F
330
18
100
AcDbEntity
  8
外形線
100
AcDbLine
 10
330.2812918449021
 20
216.6729430023191
 30
0.0
 11
331.2312918449021
 21
212.1729430023191
 31
0.0
  0
POINT
  5
F20
330
18
100
AcDbEntity
  8
DEFPOINTS
  6
ByBlock
 62
     0
100
AcDbPoint
 10
332.5312918449021
 20
211.1729430023191
 30
0.0
  0
LINE
  5
F22
330
18
100
AcDbEntity
  8
外形線
100
AcDbLine
 10
331.2312918449021
 20
212.1729430023191
 30
0.0
 11
333.831291844902
 21
212.1729430023191
 31
0.0
  0
LINE
  5
F23
330
18
100
AcDbEntity
  8
外形線
100
AcDbLine
 10
330.2812918449021
 20
220.1729430023191
 30
0.0
 11
334.7812918449021
 21
220.1729430023191
 31
0.0
  0
LINE
  5
F25
330
18
100
AcDbEntity
  8
外形線
100
AcDbLine
 10
330.0312918449021
 20
219.9729430023191
 30
0.0
 11
335.0312918449021
 21
219.9729430023191
 31
0.0
  0
LINE
  5
F26
330
18
100
AcDbEntity
  8
外形線
100
AcDbLine
 10
330.2812918449021
 20
216.6729430023191
 30
0.0
 11
334.7812918449021
 21
216.6729430023191
 31
0.0
  0
LINE
  5
F27
330
18
100
AcDbEntity
  8
外形線
100
AcDbLine
 10
330.0312918449021
 20
216.8729430023191
 30
0.0
 11
335.0312918449021
 21
216.8729430023191
 31
0.0
  0
LINE
  5
F28
330
18
100
AcDbEntity
  8
外形線
100
AcDbLine
 10
330.2812918449021
 20
220.1729430023191
 30
0.0
 11
330.0312918449021
 21
219.9729430023191
 31
0.0
  0
LINE
  5
F29
330
18
100
AcDbEntity
  8
外形線
100
AcDbLine
 10
330.0312918449021
 20
216.8729430023191
 30
0.0
 11
330.2812918449021
 21
216.6729430023191
 31
0.0
  0
LINE
  5
F2A
330
18
100
AcDbEntity
  8
外形線
100
AcDbLine
 10
330.0312918449021
 20
219.9729430023191
 30
0.0
 11
330.0312918449021
 21
216.8729430023191
 31
0.0
  0
LINE
  5
F2B
330
18
100
AcDbEntity
  8
外形線
100
AcDbLine
 10
334.7812918449021
 20
220.1729430023191
 30
0.0
 11
335.0312918449021
 21
219.9729430023191
 31
0.0
  0
LINE
  5
F2C
330
18
100
AcDbEntity
  8
外形線
100
AcDbLine
 10
335.0312918449021
 20
216.8729430023191
 30
0.0
 11
334.7812918449021
 21
216.6729430023191
 31
0.0
  0
LINE
  5
F2D
330
18
100
AcDbEntity
  8
外形線
100
AcDbLine
 10
335.0312918449021
 20
219.9729430023191
 30
0.0
 11
335.0312918449021
 21
216.8729430023191
 31
0.0
  0
LINE
  5
F2E
330
18
100
AcDbEntity
  8
外形線
100
AcDbLine
 10
328.5312918449021
 20
251.164421375321
 30
0.0
 11
328.5312918449021
 21
231.172943002319
 31
0.0
  0
LINE
  5
F2F
330
18
100
AcDbEntity
  8
外形線
100
AcDbLine
 10
336.5312918449021
 20
251.164421375321
 30
0.0
 11
336.5312918449021
 21
231.172943002319
 31
0.0
  0
LINE
  5
F30
330
18
100
AcDbEntity
  8
外形線
 62
     4
100
AcDbLine
 10
328.6312918449021
 20
226.4729430023191
 30
0.0
 11
336.431291844902
 21
226.4729430023191
 31
0.0
  0
LINE
  5
F31
330
18
100
AcDbEntity
  8
外形線
100
AcDbLine
 10
328.9312918449021
 20
226.1729430023191
 30
0.0
 11
336.131291844902
 21
226.1729430023191
 31
0.0
  0
LINE
  5
F32
330
18
100
AcDbEntity
  8
外形線
100
AcDbLine
 10
328.5312918449021
 20
231.172943002319
 30
0.0
 11
336.5312918449021
 21
231.172943002319
 31
0.0
  0
LINE
  5
F33
330
18
100
AcDbEntity
  8
外形線
100
AcDbLine
 10
328.6312918449021
 20
231.172943002319
 30
0.0
 11
328.6312918449021
 21
226.4729430023191
 31
0.0
  0
LINE
  5
F34
330
18
100
AcDbEntity
  8
外形線
100
AcDbLine
 10
328.6312918449021
 20
226.4729430023191
 30
0.0
 11
328.9312918449021
 21
226.1729430023191
 31
0.0
  0
LINE
  5
F35
330
18
100
AcDbEntity
  8
外形線
100
AcDbLine
 10
336.4312918449021
 20
231.172943002319
 30
0.0
 11
336.431291844902
 21
226.4729430023191
 31
0.0
  0
LINE
  5
F36
330
18
100
AcDbEntity
  8
外形線
100
AcDbLine
 10
336.131291844902
 20
226.1729430023191
 30
0.0
 11
336.431291844902
 21
226.4729430023191
 31
0.0
  0
CIRCLE
  5
100D
330
18
100
AcDbEntity
  8
外形線
100
AcDbCircle
 10
332.5312918449021
 20
284.1729430023191
 30
0.0
 40
29.0
  0
LINE
  5
115F
330
18
100
AcDbEntity
  8
0
  6
ByBlock
 62
     2
100
AcDbLine
 10
328.5312918449021
 20
236.566943997055
 30
0.0
 11
328.5312918449021
 21
239.691943997055
 31
0.0
  0
LINE
  5
1160
330
18
100
AcDbEntity
  8
0
  6
ByBlock
 62
     2
100
AcDbLine
 10
336.5312918449021
 20
235.1854770634778
 30
0.0
 11
336.5312918449021
 21
239.691943997055
 31
0.0
  0
LINE
  5
1161
330
18
100
AcDbEntity
  8
0
  6
ByBlock
 62
     2
100
AcDbLine
 10
331.031291844902
 20
238.441943997055
 30
0.0
 11
334.0312918449021
 21
238.441943997055
 31
0.0
  0
LINE
  5
1162
330
18
100
AcDbEntity
  8
0
  6
ByBlock
 62
     2
100
AcDbLine
 10
336.5312918449021
 20
238.441943997055
 30
0.0
 11
345.894135055705
 21
238.441943997055
 31
0.0
  0
INSERT
  5
1163
330
18
100
AcDbEntity
  8
0
  6
ByBlock
 62
     2
100
AcDbBlockReference
  2
_OPEN
 10
328.5312918449021
 20
238.441943997055
 30
0.0
 41
2.5
 42
2.5
 43
2.5
 50
180.0
  0
INSERT
  5
1164
330
18
100
AcDbEntity
  8
0
  6
ByBlock
 62
     2
100
AcDbBlockReference
  2
_OPEN
 10
336.5312918449021
 20
238.441943997055
 30
0.0
 41
2.5
 42
2.5
 43
2.5
  0
MTEXT
  5
1165
330
18
100
AcDbEntity
  8
0
  6
ByBlock
 62
     6
100
AcDbMText
 10
341.1614669452557
 20
240.250095009173
 30
0.0
 40
2.5
 41
0.0
 71
     5
 72
     1
  1
φ8.0
  7
STYLE3
 73
     1
 44
1.0
  0
POINT
  5
1166
330
18
100
AcDbEntity
  8
DEFPOINTS
  6
ByBlock
 62
     0
100
AcDbPoint
 10
328.5312918449021
 20
236.566943997055
 30
0.0
  0
POINT
  5
1167
330
18
100
AcDbEntity
  8
DEFPOINTS
  6
ByBlock
 62
     0
100
AcDbPoint
 10
336.5312918449021
 20
235.1854770634778
 30
0.0
  0
POINT
  5
1168
330
18
100
AcDbEntity
  8
DEFPOINTS
  6
ByBlock
 62
     0
100
AcDbPoint
 10
336.5312918449021
 20
238.441943997055
 30
0.0
  0
MTEXT
  5
11B0
330
18
100
AcDbEntity
  8
0
  6
ByBlock
 62
     6
100
AcDbMText
 10
341.5192483147702
 20
224.7060906561573
 30
0.0
 40
2.5
 41
0.0
 71
     5
 72
     1
  1
φ4.5
  7
STYLE3
 73
     1
 44
1.0
  0
LINE
  5
1282
330
18
100
AcDbEntity
  8
中心線
 48
0.5
100
AcDbLine
 10
430.843548059472
 20
294.320477850301
 30
0.0
 11
430.8435480594719
 21
273.6436442374623
 31
0.0
  0
CIRCLE
  5
1283
330
18
100
AcDbEntity
  8
外形線
100
AcDbCircle
 10
430.843548059472
 20
284.1729430023191
 30
0.0
 40
3.25
  0
ARC
  5
1284
330
18
100
AcDbEntity
  8
外形線
100
AcDbCircle
 10
430.843548059472
 20
284.1729430023191
 30
0.0
 40
8.0
100
AcDbArc
 50
270.0
 51
90.00000000000447
  0
LINE
  5
128B
330
18
100
AcDbEntity
  8
外形線
100
AcDbLine
 10
419.843548059472
 20
296.4984441029092
 30
0.0
 11
419.843548059472
 21
296.3691942350605
 31
0.0
  0
LINE
  5
128E
330
18
100
AcDbEntity
  8
外形線
100
AcDbLine
 10
423.0266729483232
 20
292.8835680124235
 30
0.0
 11
430.843548059472
 21
292.1729430023191
 31
0.0
  0
ARC
  5
1291
330
18
100
AcDbEntity
  8
外形線
100
AcDbCircle
 10
423.343548059472
 20
296.3691942350605
 30
0.0
 40
3.5
100
AcDbArc
 50
178.6319081918533
 51
264.8055710922652
  0
LINE
  5
1293
330
18
100
AcDbEntity
  8
外形線
100
AcDbLine
 10
419.6982416856262
 20
296.8182493761648
 30
0.0
 11
419.4821281294018
 21
297.0343629323893
 31
0.0
  0
ARC
  5
1294
330
18
100
AcDbEntity
  8
外形線
100
AcDbCircle
 10
146.7762353004582
 20
289.6971288000752
 30
0.0
 40
272.6532446783106
100
AcDbArc
 50
358.8390595143408
 51
5.028737861739205
  0
ARC
  5
1296
330
18
100
AcDbEntity
  8
外形線
100
AcDbCircle
 10
418.1806253579475
 20
313.5808392934503
 30
0.0
 40
0.2
100
AcDbArc
 50
4.535957030696843
 51
90.0
  0
ARC
  5
1297
330
18
100
AcDbEntity
  8
外形線
100
AcDbCircle
 10
419.344688295033
 20
296.4646959855715
 30
0.0
 40
0.5
100
AcDbArc
 50
358.6319081918515
 51
45.0
  0
ARC
  5
1298
330
18
100
AcDbEntity
  8
外形線
100
AcDbCircle
 10
419.835681519995
 20
297.3879163229825
 30
0.0
 40
0.5
100
AcDbArc
 50
182.2072769008187
 51
225.0
  0
LINE
  5
1299
330
18
100
AcDbEntity
  8
外形線
100
AcDbLine
 10
423.0266729483232
 20
275.4623179922146
 30
0.0
 11
430.843548059472
 21
276.1729430023191
 31
0.0
  0
ARC
  5
129A
330
18
100
AcDbEntity
  8
外形線
100
AcDbCircle
 10
146.7762353004806
 20
278.6487572045626
 30
0.0
 40
272.6532446782883
100
AcDbArc
 50
354.9712621382604
 51
1.160940485659371
  0
ARC
  5
129B
330
18
100
AcDbEntity
  8
外形線
100
AcDbCircle
 10
423.343548059472
 20
271.9766917695777
 30
0.0
 40
3.5
100
AcDbArc
 50
95.19442890773484
 51
181.3680918081467
  0
LINE
  5
129C
330
18
100
AcDbEntity
  8
外形線
100
AcDbLine
 10
419.843548059472
 20
271.847441901729
 30
0.0
 11
419.843548059472
 21
271.9766917695777
 31
0.0
  0
ARC
  5
129D
330
18
100
AcDbEntity
  8
外形線
100
AcDbCircle
 10
419.835681519995
 20
270.9579696816557
 30
0.0
 40
0.5
100
AcDbArc
 50
135.0
 51
177.7927230991813
  0
LINE
  5
129E
330
18
100
AcDbEntity
  8
外形線
100
AcDbLine
 10
419.6982416856262
 20
271.5276366284733
 30
0.0
 11
419.4821281294018
 21
271.3115230722489
 31
0.0
  0
ARC
  5
129F
330
18
100
AcDbEntity
  8
外形線
100
AcDbCircle
 10
419.344688295033
 20
271.8811900190666
 30
0.0
 40
0.5
100
AcDbArc
 50
315.0
 51
1.368091808148501
  0
LINE
  5
12A1
330
18
100
AcDbEntity
  8
外形線
100
AcDbLine
 10
419.8445457655878
 20
296.4527582667577
 30
0.0
 11
419.8445457655878
 21
271.8931277378794
 31
0.0
  0
LINE
  5
12A2
330
18
100
AcDbEntity
  8
外形線
100
AcDbLine
 10
419.3360525035581
 20
297.3686589624614
 30
0.0
 11
419.3188429340401
 21
297.4636504087598
 31
0.0
  0
LINE
  5
12A3
330
18
100
AcDbEntity
  8
外形線
100
AcDbLine
 10
419.3360525035581
 20
270.9772270421768
 30
0.0
 11
419.3184904873862
 21
270.8698773858362
 31
0.0
  0
LINE
  5
12A4
330
18
100
AcDbEntity
  8
想像線
 48
0.5
100
AcDbLine
 10
421.6425514152242
 20
293.3103365371187
 30
0.0
 11
421.6425514152241
 21
275.0355494675194
 31
0.0
  0
LINE
  5
12A6
330
18
100
AcDbEntity
  8
想像線
 48
0.5
100
AcDbLine
 10
426.6425514152243
 20
292.5548517881598
 30
0.0
 11
426.6425514152244
 21
275.7910342164784
 31
0.0
  0
LINE
  5
12B7
330
18
100
AcDbEntity
  8
0
  6
ByBlock
 62
     2
100
AcDbLine
 10
421.6425514152242
 20
293.3103365371187
 30
0.0
 11
421.6425514152242
 21
302.8387876953009
 31
0.0
  0
LINE
  5
12B8
330
18
100
AcDbEntity
  8
0
  6
ByBlock
 62
     2
100
AcDbLine
 10
426.6425514152243
 20
292.5548517881598
 30
0.0
 11
426.6425514152243
 21
302.8387876953009
 31
0.0
  0
LINE
  5
12B9
330
18
100
AcDbEntity
  8
0
  6
ByBlock
 62
     2
100
AcDbLine
 10
419.1425514152242
 20
301.5887876953009
 30
0.0
 11
416.6425514152242
 21
301.5887876953009
 31
0.0
  0
LINE
  5
12BA
330
18
100
AcDbEntity
  8
0
  6
ByBlock
 62
     2
100
AcDbLine
 10
429.1425514152243
 20
301.5887876953009
 30
0.0
 11
431.6425514152243
 21
301.5887876953009
 31
0.0
  0
LINE
  5
12BB
330
18
100
AcDbEntity
  8
0
  6
ByBlock
 62
     2
100
AcDbLine
 10
421.6425514152242
 20
301.5887876953009
 30
0.0
 11
426.6425514152243
 21
301.5887876953009
 31
0.0
  0
INSERT
  5
12BC
330
18
100
AcDbEntity
  8
0
  6
ByBlock
 62
     2
100
AcDbBlockReference
  2
_OPEN
 10
421.6425514152242
 20
301.5887876953009
 30
0.0
 41
2.5
 42
2.5
 43
2.5
  0
INSERT
  5
12BD
330
18
100
AcDbEntity
  8
0
  6
ByBlock
 62
     2
100
AcDbBlockReference
  2
_OPEN
 10
426.6425514152243
 20
301.5887876953009
 30
0.0
 41
2.5
 42
2.5
 43
2.5
 50
180.0
  0
POINT
  5
12BF
330
18
100
AcDbEntity
  8
DEFPOINTS
  6
ByBlock
 62
     0
100
AcDbPoint
 10
421.6425514152242
 20
293.3103365371187
 30
0.0
  0
POINT
  5
12C0
330
18
100
AcDbEntity
  8
DEFPOINTS
  6
ByBlock
 62
     0
100
AcDbPoint
 10
426.6425514152243
 20
292.5548517881598
 30
0.0
  0
POINT
  5
12C1
330
18
100
AcDbEntity
  8
DEFPOINTS
  6
ByBlock
 62
     0
100
AcDbPoint
 10
426.6425514152243
 20
301.5887876953009
 30
0.0
  0
TEXT
  5
12C2
330
18
100
AcDbEntity
  8
寸法線
 62
     6
100
AcDbText
 10
421.0841263087161
 20
303.087467151519
 30
0.0
 40
2.5
  1
5.0
  7
STYLE3
100
AcDbText
  0
LINE
  5
12E9
330
18
100
AcDbEntity
  8
0
  6
ByBlock
 62
     2
100
AcDbLine
 10
440.9905822301434
 20
301.5887876953009
 30
0.0
 11
433.738207526762
 21
289.1411868136097
 31
0.0
  0
INSERT
  5
12EE
330
18
100
AcDbEntity
  8
0
  6
ByBlock
 62
     2
100
AcDbBlockReference
  2
_OPEN
 10
432.4796599322881
 20
286.9810808087007
 30
0.0
 41
2.5
 42
2.5
 43
2.5
 50
239.7735393033029
  0
POINT
  5
12EF
330
18
100
AcDbEntity
  8
DEFPOINTS
  6
ByBlock
 62
     0
100
AcDbPoint
 10
432.4796599322881
 20
286.9810808087007
 30
0.0
  0
POINT
  5
12F0
330
18
100
AcDbEntity
  8
DEFPOINTS
  6
ByBlock
 62
     0
100
AcDbPoint
 10
429.2074361866559
 20
281.3648051959373
 30
0.0
  0
LINE
  5
12F1
330
18
100
AcDbEntity
  8
寸法線
100
AcDbLine
 10
440.9905822301434
 20
301.5887876953009
 30
0.0
 11
449.9930800517621
 21
301.5887876953009
 31
0.0
  0
TEXT
  5
12F2
330
18
100
AcDbEntity
  8
文字
100
AcDbText
 10
441.3301068358195
 20
302.2515910724531
 30
0.0
 40
2.5
  1
φ6.5
  7
STYLE3
100
AcDbText
  0
LINE
  5
1362
330
18
100
AcDbEntity
  8
外形線
100
AcDbLine
 10
334.781291844902
 20
226.1729430023191
 30
0.0
 11
334.7812918449021
 21
220.1729430023191
 31
0.0
  0
LINE
  5
1363
330
18
100
AcDbEntity
  8
外形線
100
AcDbLine
 10
330.2812918449021
 20
226.1729430023191
 30
0.0
 11
330.2812918449021
 21
220.1729430023191
 31
0.0
  0
LINE
  5
1373
330
18
100
AcDbEntity
  8
0
  6
ByBlock
 62
     2
100
AcDbLine
 10
330.2812918449021
 20
223.154677234671
 30
0.0
 11
330.2812918449021
 21
221.6475898398364
 31
0.0
  0
LINE
  5
1374
330
18
100
AcDbEntity
  8
0
  6
ByBlock
 62
     2
100
AcDbLine
 10
334.7812918449021
 20
223.1832427029642
 30
0.0
 11
334.7812918449021
 21
221.6475898398364
 31
0.0
  0
LINE
  5
1375
330
18
100
AcDbEntity
  8
0
  6
ByBlock
 62
     2
100
AcDbLine
 10
327.7812918449021
 20
222.8975898398364
 30
0.0
 11
325.281291844902
 21
222.8975898398364
 31
0.0
  0
LINE
  5
1376
330
18
100
AcDbEntity
  8
0
  6
ByBlock
 62
     2
100
AcDbLine
 10
337.281291844902
 20
222.8975898398364
 30
0.0
 11
346.2693870829973
 21
222.8975898398364
 31
0.0
  0
LINE
  5
1377
330
18
100
AcDbEntity
  8
0
  6
ByBlock
 62
     2
100
AcDbLine
 10
330.2812918449021
 20
222.8975898398364
 30
0.0
 11
334.7812918449021
 21
222.8975898398364
 31
0.0
  0
INSERT
  5
1378
330
18
100
AcDbEntity
  8
0
  6
ByBlock
 62
     2
100
AcDbBlockReference
  2
_OPEN
 10
330.2812918449021
 20
222.8975898398364
 30
0.0
 41
2.5
 42
2.5
 43
2.5
  0
INSERT
  5
1379
330
18
100
AcDbEntity
  8
0
  6
ByBlock
 62
     2
100
AcDbBlockReference
  2
_OPEN
 10
334.7812918449021
 20
222.8975898398364
 30
0.0
 41
2.5
 42
2.5
 43
2.5
 50
180.0
  0
POINT
  5
137B
330
18
100
AcDbEntity
  8
DEFPOINTS
  6
ByBlock
 62
     0
100
AcDbPoint
 10
330.2812918449021
 20
223.154677234671
 30
0.0
  0
POINT
  5
137C
330
18
100
AcDbEntity
  8
DEFPOINTS
  6
ByBlock
 62
     0
100
AcDbPoint
 10
334.7812918449021
 20
223.1832427029642
 30
0.0
  0
POINT
  5
137D
330
18
100
AcDbEntity
  8
DEFPOINTS
  6
ByBlock
 62
     0
100
AcDbPoint
 10
334.7812918449021
 20
222.8975898398364
 30
0.0
  0
LINE
  5
137E
330
18
100
AcDbEntity
  8
外形線
100
AcDbLine
 10
413.093548059472
 20
226.172943002319
 30
0.0
 11
413.093548059472
 21
220.1729430023191
 31
0.0
  0
LINE
  5
137F
330
18
100
AcDbEntity
  8
外形線
100
AcDbLine
 10
408.593548059472
 20
226.1729430023191
 30
0.0
 11
408.593548059472
 21
220.1729430023191
 31
0.0
  0
LINE
  5
13BD
330
18
100
AcDbEntity
  8
外形線
 62
     4
100
AcDbLine
 10
332.531291844902
 20
324.1729430023191
 30
0.0
 11
332.531291844902
 21
318.172943002319
 31
0.0
  0
LINE
  5
13BE
330
18
100
AcDbEntity
  8
外形線
 62
     4
100
AcDbLine
 10
331.281291844902
 20
324.1729430023191
 30
0.0
 11
331.281291844902
 21
318.172943002319
 31
0.0
  0
LINE
  5
13BF
330
18
100
AcDbEntity
  8
外形線
 62
     4
100
AcDbLine
 10
330.281291844902
 20
324.1729430023191
 30
0.0
 11
330.2812918449019
 21
318.172943002319
 31
0.0
  0
LINE
  5
13C0
330
18
100
AcDbEntity
  8
外形線
 62
     4
100
AcDbLine
 10
329.281291844902
 20
324.1729430023191
 30
0.0
 11
329.281291844902
 21
318.172943002319
 31
0.0
  0
LINE
  5
13C1
330
18
100
AcDbEntity
  8
外形線
100
AcDbLine
 10
328.281291844902
 20
324.1729430023191
 30
0.0
 11
328.2812918449019
 21
318.172943002319
 31
0.0
  0
LINE
  5
13C2
330
18
100
AcDbEntity
  8
外形線
100
AcDbLine
 10
336.781291844902
 20
324.172943002319
 30
0.0
 11
336.7812918449021
 21
318.172943002319
 31
0.0
  0
LINE
  5
13C3
330
18
100
AcDbEntity
  8
外形線
100
AcDbLine
 10
328.2812918449019
 20
318.172943002319
 30
0.0
 11
336.7812918449021
 21
318.172943002319
 31
0.0
  0
LINE
  5
13C4
330
18
100
AcDbEntity
  8
外形線
100
AcDbLine
 10
328.531291844902
 20
318.172943002319
 30
0.0
 11
328.5312918449019
 21
316.9296217106375
 31
0.0
  0
LINE
  5
13C5
330
18
100
AcDbEntity
  8
外形線
100
AcDbLine
 10
336.5312918449021
 20
318.172943002319
 30
0.0
 11
336.5312918449021
 21
316.9296217106375
 31
0.0
  0
LINE
  5
13C6
330
18
100
AcDbEntity
  8
外形線
100
AcDbLine
 10
328.531291844902
 20
332.6729430023192
 30
0.0
 11
336.5312918449021
 21
332.6729430023191
 31
0.0
  0
LINE
  5
13C7
330
18
100
AcDbEntity
  8
外形線
100
AcDbLine
 10
328.281291844902
 20
324.1729430023191
 30
0.0
 11
336.781291844902
 21
324.172943002319
 31
0.0
  0
LINE
  5
13C8
330
18
100
AcDbEntity
  8
外形線
100
AcDbLine
 10
329.5312918449019
 20
333.6729430023191
 30
0.0
 11
335.531291844902
 21
333.6729430023191
 31
0.0
  0
LINE
  5
13C9
330
18
100
AcDbEntity
  8
外形線
100
AcDbLine
 10
328.531291844902
 20
332.6729430023192
 30
0.0
 11
328.5312918449019
 21
324.1729430023191
 31
0.0
  0
LINE
  5
13CA
330
18
100
AcDbEntity
  8
外形線
100
AcDbLine
 10
329.5312918449019
 20
333.6729430023191
 30
0.0
 11
328.5312918449019
 21
332.6729430023191
 31
0.0
  0
LINE
  5
13CB
330
18
100
AcDbEntity
  8
外形線
100
AcDbLine
 10
336.5312918449021
 20
332.6729430023191
 30
0.0
 11
336.5312918449021
 21
324.1729430023191
 31
0.0
  0
LINE
  5
13CC
330
18
100
AcDbEntity
  8
外形線
100
AcDbLine
 10
335.531291844902
 20
333.6729430023191
 30
0.0
 11
336.5312918449021
 21
332.6729430023191
 31
0.0
  0
LINE
  5
13CD
330
18
100
AcDbEntity
  8
外形線
100
AcDbLine
 10
406.8435480594719
 20
332.6729430023192
 30
0.0
 11
406.8435480594719
 21
324.1729430023191
 31
0.0
  0
LINE
  5
13CE
330
18
100
AcDbEntity
  8
外形線
100
AcDbLine
 10
414.843548059472
 20
332.6729430023191
 30
0.0
 11
414.843548059472
 21
324.1729430023191
 31
0.0
  0
LINE
  5
13CF
330
18
100
AcDbEntity
  8
外形線
100
AcDbLine
 10
406.593548059472
 20
324.1729430023191
 30
0.0
 11
415.093548059472
 21
324.172943002319
 31
0.0
  0
LINE
  5
13D0
330
18
100
AcDbEntity
  8
外形線
100
AcDbLine
 10
406.5935480594719
 20
318.172943002319
 30
0.0
 11
415.093548059472
 21
318.172943002319
 31
0.0
  0
LINE
  5
13D1
330
18
100
AcDbEntity
  8
外形線
100
AcDbLine
 10
406.593548059472
 20
324.1729430023191
 30
0.0
 11
406.5935480594719
 21
318.172943002319
 31
0.0
  0
LINE
  5
13D2
330
18
100
AcDbEntity
  8
外形線
 62
     4
100
AcDbLine
 10
407.5935480594719
 20
324.1729430023191
 30
0.0
 11
407.5935480594718
 21
318.172943002319
 31
0.0
  0
LINE
  5
13D3
330
18
100
AcDbEntity
  8
外形線
100
AcDbLine
 10
406.8435480594719
 20
318.172943002319
 30
0.0
 11
406.8435480594717
 21
315.4229430023191
 31
0.0
  0
LINE
  5
13D4
330
18
100
AcDbEntity
  8
外形線
100
AcDbLine
 10
415.093548059472
 20
324.172943002319
 30
0.0
 11
415.093548059472
 21
318.172943002319
 31
0.0
  0
LINE
  5
13D5
330
18
100
AcDbEntity
  8
外形線
 62
     4
100
AcDbLine
 10
408.5935480594719
 20
324.1729430023191
 30
0.0
 11
408.5935480594718
 21
318.172943002319
 31
0.0
  0
LINE
  5
13D6
330
18
100
AcDbEntity
  8
外形線
 62
     4
100
AcDbLine
 10
409.5935480594719
 20
324.1729430023191
 30
0.0
 11
409.5935480594719
 21
318.172943002319
 31
0.0
  0
LINE
  5
13D7
330
18
100
AcDbEntity
  8
外形線
 62
     4
100
AcDbLine
 10
410.8435480594719
 20
324.1729430023191
 30
0.0
 11
410.8435480594719
 21
318.172943002319
 31
0.0
  0
LINE
  5
13D8
330
18
100
AcDbEntity
  8
外形線
100
AcDbLine
 10
414.843548059472
 20
318.172943002319
 30
0.0
 11
414.843548059472
 21
315.4229430023192
 31
0.0
  0
LINE
  5
13D9
330
18
100
AcDbEntity
  8
外形線
100
AcDbLine
 10
406.8435480594719
 20
332.6729430023192
 30
0.0
 11
414.843548059472
 21
332.6729430023191
 31
0.0
  0
LINE
  5
13DA
330
18
100
AcDbEntity
  8
外形線
100
AcDbLine
 10
407.8435480594719
 20
333.6729430023191
 30
0.0
 11
406.8435480594719
 21
332.6729430023191
 31
0.0
  0
LINE
  5
13DB
330
18
100
AcDbEntity
  8
外形線
100
AcDbLine
 10
407.8435480594719
 20
333.6729430023191
 30
0.0
 11
413.843548059472
 21
333.6729430023191
 31
0.0
  0
LINE
  5
13DC
330
18
100
AcDbEntity
  8
外形線
100
AcDbLine
 10
413.843548059472
 20
333.6729430023191
 30
0.0
 11
414.843548059472
 21
332.6729430023191
 31
0.0
  0
LINE
  5
1409
330
18
100
AcDbEntity
  8
外形線
100
AcDbLine
 10
417.8435480594719
 20
315.4229430023191
 30
0.0
 11
417.8435480594719
 21
252.9229430023191
 31
0.0
  0
LINE
  5
140D
330
18
100
AcDbEntity
  8
外形線
100
AcDbLine
 10
418.1806253579475
 20
313.7808392934503
 30
0.0
 11
417.8435480594719
 21
313.7808392934504
 31
0.0
  0
LINE
  5
140E
330
18
100
AcDbEntity
  8
外形線
100
AcDbLine
 10
418.1806253579475
 20
254.5650467111879
 30
0.0
 11
417.8435480594719
 21
254.5650467111878
 31
0.0
  0
ARC
  5
140F
330
18
100
AcDbEntity
  8
外形線
100
AcDbCircle
 10
418.1806253579475
 20
254.7650467111878
 30
0.0
 40
0.2
100
AcDbArc
 50
270.0
 51
355.4640429693032
  0
LINE
  5
141D
330
18
100
AcDbEntity
  8
外形線
100
AcDbLine
 10
396.243548059472
 20
314.6729430023192
 30
0.0
 11
396.243548059472
 21
284.172943002319
 31
0.0
  0
LINE
  5
1422
330
18
100
AcDbEntity
  8
外形線
100
AcDbLine
 10
397.743548059472
 20
316.5729430023191
 30
0.0
 11
398.643548059472
 21
316.5729430023191
 31
0.0
  0
LINE
  5
1424
330
18
100
AcDbEntity
  8
外形線
100
AcDbLine
 10
398.9435480594721
 20
317.072943002319
 30
0.0
 11
403.4435480594719
 21
317.072943002319
 31
0.0
  0
LINE
  5
1425
330
18
100
AcDbEntity
  8
外形線
100
AcDbLine
 10
398.643548059472
 20
316.5729430023191
 30
0.0
 11
398.9435480594721
 21
317.072943002319
 31
0.0
  0
LINE
  5
1426
330
18
100
AcDbEntity
  8
外形線
100
AcDbLine
 10
403.8435480594719
 20
316.6729430023191
 30
0.0
 11
403.8435480594722
 21
316.2729430023191
 31
0.0
  0
LINE
  5
1428
330
18
100
AcDbEntity
  8
外形線
100
AcDbLine
 10
403.4435480594719
 20
317.072943002319
 30
0.0
 11
403.8435480594719
 21
316.6729430023191
 31
0.0
  0
LINE
  5
142A
330
18
100
AcDbEntity
  8
外形線
100
AcDbLine
 10
405.5435480594719
 20
315.672943002319
 30
0.0
 11
405.5435480594719
 21
284.1729430023191
 31
0.0
  0
LINE
  5
142B
330
18
100
AcDbEntity
  8
外形線
100
AcDbLine
 10
403.8435480594722
 20
316.2729430023191
 30
0.0
 11
404.643548059472
 21
316.2729430023191
 31
0.0
  0
LINE
  5
142C
330
18
100
AcDbEntity
  8
外形線
100
AcDbLine
 10
404.643548059472
 20
316.2729430023191
 30
0.0
 11
404.6435480594719
 21
315.672943002319
 31
0.0
  0
LINE
  5
142D
330
18
100
AcDbEntity
  8
外形線
100
AcDbLine
 10
404.6435480594719
 20
315.672943002319
 30
0.0
 11
405.5435480594719
 21
315.672943002319
 31
0.0
  0
ARC
  5
1430
330
18
100
AcDbEntity
  8
外形線
100
AcDbCircle
 10
397.743548059472
 20
316.0729430023191
 30
0.0
 40
0.5
100
AcDbArc
 50
90.0
 51
147.4072481032364
  0
LINE
  5
1432
330
18
100
AcDbEntity
  8
外形線
100
AcDbLine
 10
396.243548059472
 20
314.6729430023191
 30
0.0
 11
397.3222877862078
 21
316.3422751061785
 31
0.0
  0
LINE
  5
1433
330
18
100
AcDbEntity
  8
外形線
100
AcDbLine
 10
397.743548059472
 20
316.5729430023191
 30
0.0
 11
397.743548059472
 21
284.1729430023191
 31
0.0
  0
LINE
  5
1434
330
18
100
AcDbEntity
  8
外形線
100
AcDbLine
 10
398.643548059472
 20
316.5729430023191
 30
0.0
 11
398.643548059472
 21
284.1729430023193
 31
0.0
  0
LINE
  5
1435
330
18
100
AcDbEntity
  8
外形線
100
AcDbLine
 10
403.8435480594722
 20
316.2729430023191
 30
0.0
 11
403.8435480594722
 21
284.1729430023191
 31
0.0
  0
LINE
  5
1436
330
18
100
AcDbEntity
  8
外形線
100
AcDbLine
 10
404.6435480594719
 20
315.672943002319
 30
0.0
 11
404.6435480594719
 21
284.1729430023191
 31
0.0
  0
LINE
  5
1437
330
18
100
AcDbEntity
  8
外形線
100
AcDbLine
 10
404.6435480594719
 20
252.6729430023191
 30
0.0
 11
404.6435480594719
 21
284.1729430023191
 31
0.0
  0
LINE
  5
1438
330
18
100
AcDbEntity
  8
外形線
100
AcDbLine
 10
403.8435480594722
 20
252.0729430023191
 30
0.0
 11
403.8435480594722
 21
284.1729430023191
 31
0.0
  0
LINE
  5
1439
330
18
100
AcDbEntity
  8
外形線
100
AcDbLine
 10
398.643548059472
 20
251.7729430023191
 30
0.0
 11
398.643548059472
 21
284.1729430023189
 31
0.0
  0
LINE
  5
143A
330
18
100
AcDbEntity
  8
外形線
100
AcDbLine
 10
405.5435480594719
 20
252.6729430023191
 30
0.0
 11
405.5435480594719
 21
284.1729430023191
 31
0.0
  0
LINE
  5
143B
330
18
100
AcDbEntity
  8
外形線
100
AcDbLine
 10
397.743548059472
 20
251.7729430023191
 30
0.0
 11
397.743548059472
 21
284.1729430023191
 31
0.0
  0
LINE
  5
143C
330
18
100
AcDbEntity
  8
外形線
100
AcDbLine
 10
396.243548059472
 20
253.672943002319
 30
0.0
 11
396.243548059472
 21
284.1729430023191
 31
0.0
  0
LINE
  5
143D
330
18
100
AcDbEntity
  8
ﾊｯﾁﾝｸ
100
AcDbLine
 10
398.6435480594721
 20
282.7729430023191
 30
0.0
 11
403.8435480594722
 21
282.772943002319
 31
0.0
  0
LINE
  5
143E
330
18
100
AcDbEntity
  8
ﾊｯﾁﾝｸ
100
AcDbLine
 10
398.6435480594721
 20
281.3729430023191
 30
0.0
 11
403.8435480594722
 21
281.372943002319
 31
0.0
  0
ARC
  5
143F
330
18
100
AcDbEntity
  8
外形線
100
AcDbCircle
 10
397.743548059472
 20
252.2729430023191
 30
0.0
 40
0.5
100
AcDbArc
 50
212.5927518967635
 51
270.0
  0
LINE
  5
1440
330
18
100
AcDbEntity
  8
外形線
100
AcDbLine
 10
403.8435480594719
 20
251.6729430023191
 30
0.0
 11
403.8435480594722
 21
252.0729430023191
 31
0.0
  0
LINE
  5
1441
330
18
100
AcDbEntity
  8
外形線
100
AcDbLine
 10
396.243548059472
 20
253.6729430023191
 30
0.0
 11
397.3222877862078
 21
252.0036108984596
 31
0.0
  0
LINE
  5
1442
330
18
100
AcDbEntity
  8
ﾊｯﾁﾝｸ
100
AcDbLine
 10
398.643548059472
 20
252.0962315932208
 30
0.0
 11
403.8435480594722
 21
252.0962315932208
 31
0.0
  0
LINE
  5
1443
330
18
100
AcDbEntity
  8
ﾊｯﾁﾝｸ
100
AcDbLine
 10
398.643548059472
 20
253.2962315932209
 30
0.0
 11
403.8435480594722
 21
253.2962315932209
 31
0.0
  0
LINE
  5
1444
330
18
100
AcDbEntity
  8
ﾊｯﾁﾝｸ
100
AcDbLine
 10
398.643548059472
 20
254.4962315932208
 30
0.0
 11
403.8435480594722
 21
254.4962315932208
 31
0.0
  0
LINE
  5
1445
330
18
100
AcDbEntity
  8
ﾊｯﾁﾝｸ
100
AcDbLine
 10
398.643548059472
 20
255.8962315932208
 30
0.0
 11
403.8435480594722
 21
255.8962315932208
 31
0.0
  0
LINE
  5
1446
330
18
100
AcDbEntity
  8
ﾊｯﾁﾝｸ
100
AcDbLine
 10
398.643548059472
 20
257.2962315932207
 30
0.0
 11
403.8435480594722
 21
257.2962315932207
 31
0.0
  0
LINE
  5
1447
330
18
100
AcDbEntity
  8
外形線
100
AcDbLine
 10
404.6435480594719
 20
252.6729430023191
 30
0.0
 11
405.5435480594719
 21
252.6729430023191
 31
0.0
  0
LINE
  5
1448
330
18
100
AcDbEntity
  8
外形線
100
AcDbLine
 10
404.643548059472
 20
252.072943002319
 30
0.0
 11
404.6435480594719
 21
252.6729430023191
 31
0.0
  0
LINE
  5
1449
330
18
100
AcDbEntity
  8
外形線
100
AcDbLine
 10
403.8435480594722
 20
252.0729430023191
 30
0.0
 11
404.643548059472
 21
252.072943002319
 31
0.0
  0
LINE
  5
144A
330
18
100
AcDbEntity
  8
外形線
100
AcDbLine
 10
397.743548059472
 20
251.7729430023191
 30
0.0
 11
398.643548059472
 21
251.7729430023191
 31
0.0
  0
LINE
  5
144B
330
18
100
AcDbEntity
  8
外形線
100
AcDbLine
 10
398.9435480594721
 20
251.2729430023191
 30
0.0
 11
403.4435480594719
 21
251.2729430023191
 31
0.0
  0
LINE
  5
144C
330
18
100
AcDbEntity
  8
外形線
100
AcDbLine
 10
398.643548059472
 20
251.7729430023191
 30
0.0
 11
398.9435480594721
 21
251.2729430023191
 31
0.0
  0
LINE
  5
144D
330
18
100
AcDbEntity
  8
外形線
100
AcDbLine
 10
403.4435480594719
 20
251.2729430023191
 30
0.0
 11
403.8435480594719
 21
251.6729430023191
 31
0.0
  0
ARC
  5
144E
330
18
100
AcDbEntity
  8
外形線
100
AcDbCircle
 10
588.8456313928072
 20
284.1729430023191
 30
0.0
 40
195.0020833333352
100
AcDbArc
 50
171.0015012755167
 51
188.9984987244833
  0
CIRCLE
  5
14E5
330
18
100
AcDbEntity
  8
外形線
100
AcDbCircle
 10
332.5312918449021
 20
284.1729430023191
 30
0.0
 40
18.25
  0
LINE
  5
14E9
330
18
100
AcDbEntity
  8
目盛
100
AcDbLine
 10
332.5312918449021
 20
313.1729430023191
 30
0.0
 11
332.5312918449021
 21
309.6729430023191
 31
0.0
  0
LINE
  5
14EA
330
18
100
AcDbEntity
  8
目盛
100
AcDbLine
 10
333.4422038581678
 20
313.1586332529253
 30
0.0
 11
333.3919466436427
 21
311.5594227563401
 31
0.0
  0
LINE
  5
14EB
330
18
100
AcDbEntity
  8
目盛
100
AcDbLine
 10
334.3522169112522
 20
313.1157181267389
 30
0.0
 11
334.2517520800052
 21
311.5188753612537
 31
0.0
  0
LINE
  5
14EC
330
18
100
AcDbEntity
  8
目盛
100
AcDbLine
 10
335.260432931139
 20
313.0442399758083
 30
0.0
 11
335.1098596298293
 21
311.4513408324435
 31
0.0
  0
LINE
  5
14ED
330
18
100
AcDbEntity
  8
目盛
100
AcDbLine
 10
336.1659556182669
 20
312.9442693404389
 30
0.0
 11
335.965422444564
 21
311.3568858183358
 31
0.0
  0
LINE
  5
14EE
330
18
100
AcDbEntity
  8
目盛
100
AcDbLine
 10
337.0678913310688
 20
312.815904879578
 30
0.0
 11
336.6142313824521
 21
309.9516086918522
 31
0.0
  0
LINE
  5
14EF
330
18
100
AcDbEntity
  8
目盛
100
AcDbLine
 10
337.9653499678881
 20
312.659273273451
 30
0.0
 11
337.665539864551
 21
311.0876136722851
 31
0.0
  0
LINE
  5
14F0
330
18
100
AcDbEntity
  8
目盛
100
AcDbLine
 10
338.8574458454018
 20
312.4745290985428
 30
0.0
 11
338.5084166591674
 21
310.9130622794407
 31
0.0
  0
LINE
  5
14F1
330
18
100
AcDbEntity
  8
目盛
100
AcDbLine
 10
339.7432985726828
 20
312.2618546750494
 30
0.0
 11
339.3453947532191
 21
310.7121216172436
 31
0.0
  0
LINE
  5
14F2
330
18
100
AcDbEntity
  8
目盛
100
AcDbLine
 10
340.6220339200397
 20
312.0214598869504
 30
0.0
 11
340.1756481503769
 21
310.4849899898673
 31
0.0
  0
LINE
  5
14F4
330
18
100
AcDbEntity
  8
目盛
100
AcDbLine
 10
324.4405497697644
 20
312.0214598869504
 30
0.0
 11
324.8869355394271
 21
310.4849899898673
 31
0.0
  0
LINE
  5
14F5
330
18
100
AcDbEntity
  8
目盛
100
AcDbLine
 10
323.5697990080286
 20
311.7535819748785
 30
0.0
 11
324.6513584883409
 21
308.4248841678455
 31
0.0
  0
LINE
  5
14F6
330
18
100
AcDbEntity
  8
目盛
100
AcDbLine
 10
327.9946923587354
 20
312.815904879578
 30
0.0
 11
328.448352307352
 21
309.9516086918522
 31
0.0
  0
LINE
  5
14F7
330
18
100
AcDbEntity
  8
目盛
100
AcDbLine
 10
329.8021507586651
 20
313.0442399758083
 30
0.0
 11
329.9527240599748
 21
311.4513408324435
 31
0.0
  0
LINE
  5
14F8
330
18
100
AcDbEntity
  8
目盛
100
AcDbLine
 10
328.8966280715372
 20
312.9442693404389
 30
0.0
 11
329.0971612452401
 21
311.3568858183358
 31
0.0
  0
LINE
  5
14F9
330
18
100
AcDbEntity
  8
目盛
100
AcDbLine
 10
327.0972337219161
 20
312.659273273451
 30
0.0
 11
327.3970438252533
 21
311.0876136722851
 31
0.0
  0
LINE
  5
14FA
330
18
100
AcDbEntity
  8
目盛
100
AcDbLine
 10
326.2051378444023
 20
312.4745290985428
 30
0.0
 11
326.5541670306367
 21
310.9130622794407
 31
0.0
  0
LINE
  5
14FB
330
18
100
AcDbEntity
  8
目盛
100
AcDbLine
 10
325.3192851171213
 20
312.2618546750493
 30
0.0
 11
325.717188936585
 21
310.7121216172436
 31
0.0
  0
LINE
  5
14FC
330
18
100
AcDbEntity
  8
目盛
100
AcDbLine
 10
331.6203798316363
 20
313.1586332529253
 30
0.0
 11
331.6706370461613
 21
311.5594227563401
 31
0.0
  0
LINE
  5
14FD
330
18
100
AcDbEntity
  8
目盛
100
AcDbLine
 10
330.7103667785519
 20
313.1157181267389
 30
0.0
 11
330.8108316097989
 21
311.5188753612537
 31
0.0
  0
LINE
  5
14FE
330
18
100
AcDbEntity
  8
目盛
100
AcDbLine
 10
316.2308738871902
 20
308.1582796562814
 30
0.0
 11
317.1302072917537
 21
306.834950737442
 31
0.0
  0
LINE
  5
14FF
330
18
100
AcDbEntity
  8
目盛
100
AcDbLine
 10
315.4855195284203
 20
307.6344358391925
 30
0.0
 11
317.542767911444
 21
304.8028763588802
 31
0.0
  0
LINE
  5
1500
330
18
100
AcDbEntity
  8
目盛
100
AcDbLine
 10
319.3655673524553
 20
310.0121322037817
 30
0.0
 11
320.6821398016999
 21
307.4282132836354
 31
0.0
  0
LINE
  5
1501
330
18
100
AcDbEntity
  8
目盛
100
AcDbLine
 10
321.0140030164934
 20
310.7878271471545
 30
0.0
 11
321.6494396415092
 21
309.3194197460602
 31
0.0
  0
LINE
  5
1502
330
18
100
AcDbEntity
  8
目盛
100
AcDbLine
 10
320.1836923895149
 20
310.4129275238336
 30
0.0
 11
320.8649392560191
 21
308.965204239888
 31
0.0
  0
LINE
  5
1503
330
18
100
AcDbEntity
  8
目盛
100
AcDbLine
 10
318.5604352959523
 20
309.5858367235911
 30
0.0
 11
319.3312411745151
 21
308.1837460355209
 31
0.0
  0
LINE
  5
1504
330
18
100
AcDbEntity
  8
目盛
100
AcDbLine
 10
317.7690907881413
 20
309.1344617854334
 30
0.0
 11
318.5835570533419
 21
307.7572745422271
 31
0.0
  0
LINE
  5
1505
330
18
100
AcDbEntity
  8
目盛
100
AcDbLine
 10
316.9923147905111
 20
308.6584528418775
 30
0.0
 11
317.8496376624776
 21
307.3075281610742
 31
0.0
  0
LINE
  5
1506
330
18
100
AcDbEntity
  8
目盛
100
AcDbLine
 10
322.7078921577886
 20
311.4584853019916
 30
0.0
 11
323.249872830181
 21
309.9530760716648
 31
0.0
  0
LINE
  5
1507
330
18
100
AcDbEntity
  8
目盛
100
AcDbLine
 10
321.8556798170463
 20
311.1364610930783
 30
0.0
 11
322.444679101342
 21
309.6488187156571
 31
0.0
  0
LINE
  5
1508
330
18
100
AcDbEntity
  8
目盛
100
AcDbLine
 10
309.616796486007
 20
301.9472475582554
 30
0.0
 11
310.8810445058081
 21
300.9665962724106
 31
0.0
  0
LINE
  5
1509
330
18
100
AcDbEntity
  8
目盛
100
AcDbLine
 10
309.0697990080286
 20
301.2187153188008
 30
0.0
 11
311.9013584883409
 21
299.1614669357771
 31
0.0
  0
LINE
  5
150A
330
18
100
AcDbEntity
  8
目盛
100
AcDbLine
 10
312.0251951904922
 20
304.6790396567289
 30
0.0
 11
314.0758048559332
 21
302.6284299912879
 31
0.0
  0
LINE
  5
150B
330
18
100
AcDbEntity
  8
目盛
100
AcDbLine
 10
313.3532477505162
 20
305.9261640216024
 30
0.0
 11
314.4113467350341
 21
304.7259863101936
 31
0.0
  0
LINE
  5
150C
330
18
100
AcDbEntity
  8
目盛
100
AcDbLine
 10
312.6794257729701
 20
305.31303319754
 30
0.0
 11
313.774701142456
 21
304.1466833936658
 31
0.0
  0
LINE
  5
150D
330
18
100
AcDbEntity
  8
目盛
100
AcDbLine
 10
311.3912016496812
 20
304.024809074251
 30
0.0
 11
312.5575514535555
 21
302.9295337047652
 31
0.0
  0
LINE
  5
150E
330
18
100
AcDbEntity
  8
目盛
100
AcDbLine
 10
310.7780708256188
 20
303.350987096705
 30
0.0
 11
311.9782485370275
 21
302.2928881121871
 31
0.0
  0
LINE
  5
150F
330
18
100
AcDbEntity
  8
目盛
100
AcDbLine
 10
310.1864078044042
 20
302.6582387050311
 30
0.0
 11
311.4192289928454
 21
301.6383603214332
 31
0.0
  0
LINE
  5
1510
330
18
100
AcDbEntity
  8
目盛
100
AcDbLine
 10
314.7569872889658
 20
307.0874383612141
 30
0.0
 11
315.7376385748106
 21
305.8231903414129
 31
0.0
  0
LINE
  5
1511
330
18
100
AcDbEntity
  8
目盛
100
AcDbLine
 10
314.0459961421901
 20
306.5178270428169
 30
0.0
 11
315.065874525788
 21
305.2850058543757
 31
0.0
  0
LINE
  5
1512
330
18
100
AcDbEntity
  8
目盛
100
AcDbLine
 10
305.2457495452296
 20
293.9963426894325
 30
0.0
 11
306.7511587755563
 21
293.45436201704
 31
0.0
  0
LINE
  5
1513
330
18
100
AcDbEntity
  8
目盛
100
AcDbLine
 10
304.9506528723426
 20
293.1344358391925
 30
0.0
 11
308.2793506793757
 21
292.0528763588802
 31
0.0
  0
LINE
  5
1514
330
18
100
AcDbEntity
  8
目盛
100
AcDbLine
 10
306.6921026434394
 20
297.338667494766
 30
0.0
 11
309.2760215635857
 21
296.0220950455213
 31
0.0
  0
LINE
  5
1515
330
18
100
AcDbEntity
  8
目盛
100
AcDbLine
 10
307.5697730617877
 20
298.9351440590798
 30
0.0
 11
308.946960304994
 21
298.1206777938793
 31
0.0
  0
LINE
  5
1516
330
18
100
AcDbEntity
  8
目盛
100
AcDbLine
 10
307.11839812363
 20
298.1437995512688
 30
0.0
 11
308.5204888117003
 21
297.3729936727061
 31
0.0
  0
LINE
  5
1517
330
18
100
AcDbEntity
  8
目盛
100
AcDbLine
 10
306.2913073233875
 20
296.5205424577062
 30
0.0
 11
307.7390306073332
 21
295.8392955912021
 31
0.0
  0
LINE
  5
1518
330
18
100
AcDbEntity
  8
目盛
100
AcDbLine
 10
305.9164077000667
 20
295.6902318307277
 30
0.0
 11
307.384815101161
 21
295.0547952057119
 31
0.0
  0
LINE
  5
1519
330
18
100
AcDbEntity
  8
目盛
100
AcDbLine
 10
305.5677737541429
 20
294.8485550301747
 30
0.0
 11
307.055416131564
 21
294.2595557458793
 31
0.0
  0
LINE
  5
151A
330
18
100
AcDbEntity
  8
目盛
100
AcDbLine
 10
308.5459551909398
 20
300.4733609600308
 30
0.0
 11
309.8692841097791
 21
299.5740275554674
 31
0.0
  0
LINE
  5
151B
330
18
100
AcDbEntity
  8
目盛
100
AcDbLine
 10
308.0457820053437
 20
299.71192005671
 30
0.0
 11
309.3967066861469
 21
298.8545971847436
 31
0.0
  0
LINE
  5
151C
330
18
100
AcDbEntity
  8
目盛
100
AcDbLine
 10
303.5456015942958
 20
285.0838550155848
 30
0.0
 11
305.144812090881
 21
285.0335978010597
 31
0.0
  0
LINE
  5
151D
330
18
100
AcDbEntity
  8
目盛
100
AcDbLine
 10
303.5312918449021
 20
284.1729430023191
 30
0.0
 11
307.0312918449021
 21
284.1729430023191
 31
0.0
  0
LINE
  5
151E
330
18
100
AcDbEntity
  8
目盛
100
AcDbLine
 10
303.8883299676431
 20
288.7095424884858
 30
0.0
 11
306.7526261553689
 21
288.2558825398691
 31
0.0
  0
LINE
  5
151F
330
18
100
AcDbEntity
  8
目盛
100
AcDbLine
 10
304.2297057486784
 20
290.4990970028188
 30
0.0
 11
305.7911725677804
 21
290.1500678165844
 31
0.0
  0
LINE
  5
1520
330
18
100
AcDbEntity
  8
目盛
100
AcDbLine
 10
304.0449615737701
 20
289.6070011253051
 30
0.0
 11
305.616621174936
 21
289.307191021968
 31
0.0
  0
LINE
  5
1521
330
18
100
AcDbEntity
  8
目盛
100
AcDbLine
 10
303.7599655067822
 20
287.8076067756839
 30
0.0
 11
305.3473490288854
 21
287.607073601981
 31
0.0
  0
LINE
  5
1522
330
18
100
AcDbEntity
  8
目盛
100
AcDbLine
 10
303.6599948714128
 20
286.902084088556
 30
0.0
 11
305.2528940147777
 21
286.7515107872463
 31
0.0
  0
LINE
  5
1523
330
18
100
AcDbEntity
  8
目盛
100
AcDbLine
 10
303.5885167204822
 20
285.9938680686692
 30
0.0
 11
305.1853594859674
 21
285.8934032374222
 31
0.0
  0
LINE
  5
1524
330
18
100
AcDbEntity
  8
目盛
100
AcDbLine
 10
304.6827749602707
 20
292.2636850774567
 30
0.0
 11
306.2192448573538
 21
291.8172993077939
 31
0.0
  0
LINE
  5
1525
330
18
100
AcDbEntity
  8
目盛
100
AcDbLine
 10
304.4423801721718
 20
291.3849497300999
 30
0.0
 11
305.9921132299776
 21
290.9870459106361
 31
0.0
  0
LINE
  5
1526
330
18
100
AcDbEntity
  8
目盛
100
AcDbLine
 10
304.6827749602706
 20
276.0822009271814
 30
0.0
 11
306.2192448573538
 21
276.5285866968441
 31
0.0
  0
LINE
  5
1527
330
18
100
AcDbEntity
  8
目盛
100
AcDbLine
 10
304.9506528723425
 20
275.2114501654456
 30
0.0
 11
308.2793506793756
 21
276.293009645758
 31
0.0
  0
LINE
  5
1528
330
18
100
AcDbEntity
  8
目盛
100
AcDbLine
 10
303.888329967643
 20
279.6363435161524
 30
0.0
 11
306.7526261553689
 21
280.090003464769
 31
0.0
  0
LINE
  5
1529
330
18
100
AcDbEntity
  8
目盛
100
AcDbLine
 10
303.6599948714127
 20
281.4438019160821
 30
0.0
 11
305.2528940147776
 21
281.5943752173918
 31
0.0
  0
LINE
  5
152A
330
18
100
AcDbEntity
  8
目盛
100
AcDbLine
 10
303.7599655067821
 20
280.5382792289543
 30
0.0
 11
305.3473490288853
 21
280.7388124026572
 31
0.0
  0
LINE
  5
152B
330
18
100
AcDbEntity
  8
目盛
100
AcDbLine
 10
304.0449615737701
 20
278.7388848793331
 30
0.0
 11
305.6166211749359
 21
279.0386949826702
 31
0.0
  0
LINE
  5
152C
330
18
100
AcDbEntity
  8
目盛
100
AcDbLine
 10
304.2297057486784
 20
277.8467890018194
 30
0.0
 11
305.7911725677803
 21
278.1958181880538
 31
0.0
  0
LINE
  5
152D
330
18
100
AcDbEntity
  8
目盛
100
AcDbLine
 10
304.4423801721718
 20
276.9609362745384
 30
0.0
 11
305.9921132299775
 21
277.358840094002
 31
0.0
  0
LINE
  5
152E
330
18
100
AcDbEntity
  8
目盛
100
AcDbLine
 10
303.5456015942957
 20
283.2620309890533
 30
0.0
 11
305.144812090881
 21
283.3122882035783
 31
0.0
  0
LINE
  5
152F
330
18
100
AcDbEntity
  8
目盛
100
AcDbLine
 10
303.5885167204821
 20
282.352017935969
 30
0.0
 11
305.1853594859673
 21
282.452482767216
 31
0.0
  0
LINE
  5
1530
330
18
100
AcDbEntity
  8
目盛
100
AcDbLine
 10
308.5459551909397
 20
267.8725250446072
 30
0.0
 11
309.8692841097791
 21
268.7718584491707
 31
0.0
  0
LINE
  5
1531
330
18
100
AcDbEntity
  8
目盛
100
AcDbLine
 10
309.0697990080286
 20
267.1271706858374
 30
0.0
 11
311.9013584883409
 21
269.184419068861
 31
0.0
  0
LINE
  5
1532
330
18
100
AcDbEntity
  8
目盛
100
AcDbLine
 10
306.6921026434394
 20
271.0072185098723
 30
0.0
 11
309.2760215635856
 21
272.3237909591169
 31
0.0
  0
LINE
  5
1533
330
18
100
AcDbEntity
  8
目盛
100
AcDbLine
 10
305.9164077000665
 20
272.6556541739105
 30
0.0
 11
307.3848151011609
 21
273.2910907989262
 31
0.0
  0
LINE
  5
1534
330
18
100
AcDbEntity
  8
目盛
100
AcDbLine
 10
306.2913073233874
 20
271.8253435469319
 30
0.0
 11
307.739030607333
 21
272.5065904134361
 31
0.0
  0
LINE
  5
1535
330
18
100
AcDbEntity
  8
目盛
100
AcDbLine
 10
307.11839812363
 20
270.2020864533694
 30
0.0
 11
308.5204888117001
 21
270.9728923319321
 31
0.0
  0
LINE
  5
1536
330
18
100
AcDbEntity
  8
目盛
100
AcDbLine
 10
307.5697730617876
 20
269.4107419455583
 30
0.0
 11
308.946960304994
 21
270.2252082107589
 31
0.0
  0
LINE
  5
1537
330
18
100
AcDbEntity
  8
目盛
100
AcDbLine
 10
308.0457820053435
 20
268.6339659479282
 30
0.0
 11
309.3967066861468
 21
269.4912888198946
 31
0.0
  0
LINE
  5
1538
330
18
100
AcDbEntity
  8
目盛
100
AcDbLine
 10
305.2457495452295
 20
274.3495433152056
 30
0.0
 11
306.7511587755563
 21
274.8915239875981
 31
0.0
  0
LINE
  5
1539
330
18
100
AcDbEntity
  8
目盛
100
AcDbLine
 10
305.5677737541428
 20
273.4973309744634
 30
0.0
 11
307.0554161315639
 21
274.086330258759
 31
0.0
  0
LINE
  5
153A
330
18
100
AcDbEntity
  8
目盛
100
AcDbLine
 10
314.7569872889657
 20
261.258447643424
 30
0.0
 11
315.7376385748105
 21
262.5226956632251
 31
0.0
  0
LINE
  5
153B
330
18
100
AcDbEntity
  8
目盛
100
AcDbLine
 10
315.4855195284203
 20
260.7114501654456
 30
0.0
 11
317.542767911444
 21
263.5430096457579
 31
0.0
  0
LINE
  5
153C
330
18
100
AcDbEntity
  8
目盛
100
AcDbLine
 10
312.0251951904921
 20
263.6668463479093
 30
0.0
 11
314.0758048559332
 21
265.7174560133502
 31
0.0
  0
LINE
  5
153D
330
18
100
AcDbEntity
  8
目盛
100
AcDbLine
 10
310.7780708256187
 20
264.9948989079331
 30
0.0
 11
311.9782485370274
 21
266.0529978924511
 31
0.0
  0
LINE
  5
153E
330
18
100
AcDbEntity
  8
目盛
100
AcDbLine
 10
311.3912016496811
 20
264.3210769303871
 30
0.0
 11
312.5575514535553
 21
265.416352299873
 31
0.0
  0
LINE
  5
153F
330
18
100
AcDbEntity
  8
目盛
100
AcDbLine
 10
312.6794257729701
 20
263.0328528070981
 30
0.0
 11
313.774701142456
 21
264.1992026109724
 31
0.0
  0
LINE
  5
1540
330
18
100
AcDbEntity
  8
目盛
100
AcDbLine
 10
313.3532477505161
 20
262.4197219830358
 30
0.0
 11
314.4113467350341
 21
263.6198996944444
 31
0.0
  0
LINE
  5
1541
330
18
100
AcDbEntity
  8
目盛
100
AcDbLine
 10
314.04599614219
 20
261.8280589618212
 30
0.0
 11
315.0658745257879
 21
263.0608801502624
 31
0.0
  0
LINE
  5
1542
330
18
100
AcDbEntity
  8
目盛
100
AcDbLine
 10
309.616796486007
 20
266.3986384463827
 30
0.0
 11
310.8810445058081
 21
267.3792897322275
 31
0.0
  0
LINE
  5
1543
330
18
100
AcDbEntity
  8
目盛
100
AcDbLine
 10
310.1864078044041
 20
265.687647299607
 30
0.0
 11
311.4192289928454
 21
266.707525683205
 31
0.0
  0
LINE
  5
1544
330
18
100
AcDbEntity
  8
目盛
100
AcDbLine
 10
322.7078921577886
 20
256.8874007026465
 30
0.0
 11
323.2498728301811
 21
258.3928099329733
 31
0.0
  0
LINE
  5
1545
330
18
100
AcDbEntity
  8
目盛
100
AcDbLine
 10
323.5697990080286
 20
256.5923040297596
 30
0.0
 11
324.6513584883409
 21
259.9210018367927
 31
0.0
  0
LINE
  5
1546
330
18
100
AcDbEntity
  8
目盛
100
AcDbLine
 10
319.3655673524552
 20
258.3337538008564
 30
0.0
 11
320.6821398016999
 21
260.9176727210027
 31
0.0
  0
LINE
  5
1547
330
18
100
AcDbEntity
  8
目盛
100
AcDbLine
 10
317.7690907881413
 20
259.2114242192047
 30
0.0
 11
318.5835570533419
 21
260.5886114624111
 31
0.0
  0
LINE
  5
1548
330
18
100
AcDbEntity
  8
目盛
100
AcDbLine
 10
318.5604352959523
 20
258.760049281047
 30
0.0
 11
319.331241174515
 21
260.1621399691172
 31
0.0
  0
LINE
  5
1549
330
18
100
AcDbEntity
  8
目盛
100
AcDbLine
 10
320.1836923895149
 20
257.9329584808045
 30
0.0
 11
320.864939256019
 21
259.3806817647502
 31
0.0
  0
LINE
  5
154A
330
18
100
AcDbEntity
  8
目盛
100
AcDbLine
 10
321.0140030164934
 20
257.5580588574837
 30
0.0
 11
321.6494396415091
 21
259.0264662585779
 31
0.0
  0
LINE
  5
154B
330
18
100
AcDbEntity
  8
目盛
100
AcDbLine
 10
321.8556798170464
 20
257.2094249115598
 30
0.0
 11
322.4446791013419
 21
258.697067288981
 31
0.0
  0
LINE
  5
154C
330
18
100
AcDbEntity
  8
目盛
100
AcDbLine
 10
316.2308738871902
 20
260.1876063483568
 30
0.0
 11
317.1302072917537
 21
261.5109352671961
 31
0.0
  0
LINE
  5
154D
330
18
100
AcDbEntity
  8
目盛
100
AcDbLine
 10
316.9923147905111
 20
259.6874331627606
 30
0.0
 11
317.8496376624776
 21
261.0383578435639
 31
0.0
  0
LINE
  5
154E
330
18
100
AcDbEntity
  8
目盛
100
AcDbLine
 10
331.6203798316363
 20
255.1872527517129
 30
0.0
 11
331.6706370461613
 21
256.7864632482981
 31
0.0
  0
LINE
  5
154F
330
18
100
AcDbEntity
  8
目盛
100
AcDbLine
 10
332.531291844902
 20
255.1729430023191
 30
0.0
 11
332.531291844902
 21
258.6729430023191
 31
0.0
  0
LINE
  5
1550
330
18
100
AcDbEntity
  8
目盛
100
AcDbLine
 10
327.9946923587353
 20
255.5299811250602
 30
0.0
 11
328.448352307352
 21
258.394277312786
 31
0.0
  0
LINE
  5
1551
330
18
100
AcDbEntity
  8
目盛
100
AcDbLine
 10
326.2051378444023
 20
255.8713569060955
 30
0.0
 11
326.5541670306367
 21
257.4328237251975
 31
0.0
  0
LINE
  5
1552
330
18
100
AcDbEntity
  8
目盛
100
AcDbLine
 10
327.097233721916
 20
255.6866127311872
 30
0.0
 11
327.3970438252531
 21
257.258272332353
 31
0.0
  0
LINE
  5
1553
330
18
100
AcDbEntity
  8
目盛
100
AcDbLine
 10
328.8966280715372
 20
255.4016166641993
 30
0.0
 11
329.0971612452401
 21
256.9890001863025
 31
0.0
  0
LINE
  5
1554
330
18
100
AcDbEntity
  8
目盛
100
AcDbLine
 10
329.802150758665
 20
255.3016460288298
 30
0.0
 11
329.9527240599748
 21
256.8945451721948
 31
0.0
  0
LINE
  5
1555
330
18
100
AcDbEntity
  8
目盛
100
AcDbLine
 10
330.7103667785519
 20
255.2301678778993
 30
0.0
 11
330.8108316097988
 21
256.8270106433845
 31
0.0
  0
LINE
  5
1556
330
18
100
AcDbEntity
  8
目盛
100
AcDbLine
 10
324.4405497697643
 20
256.3244261176878
 30
0.0
 11
324.8869355394272
 21
257.8608960147709
 31
0.0
  0
LINE
  5
1557
330
18
100
AcDbEntity
  8
目盛
100
AcDbLine
 10
325.3192851171212
 20
256.0840313295888
 30
0.0
 11
325.7171889365849
 21
257.6337643873947
 31
0.0
  0
LINE
  5
1558
330
18
100
AcDbEntity
  8
目盛
100
AcDbLine
 10
340.6220339200397
 20
256.3244261176877
 30
0.0
 11
340.175648150377
 21
257.8608960147708
 31
0.0
  0
LINE
  5
1559
330
18
100
AcDbEntity
  8
目盛
100
AcDbLine
 10
341.4927846817755
 20
256.5923040297595
 30
0.0
 11
340.4112252014632
 21
259.9210018367926
 31
0.0
  0
LINE
  5
155A
330
18
100
AcDbEntity
  8
目盛
100
AcDbLine
 10
337.0678913310687
 20
255.52998112506
 30
0.0
 11
336.6142313824521
 21
258.3942773127859
 31
0.0
  0
LINE
  5
155B
330
18
100
AcDbEntity
  8
目盛
100
AcDbLine
 10
335.260432931139
 20
255.3016460288297
 30
0.0
 11
335.1098596298293
 21
256.8945451721947
 31
0.0
  0
LINE
  5
155C
330
18
100
AcDbEntity
  8
目盛
100
AcDbLine
 10
336.1659556182669
 20
255.4016166641992
 30
0.0
 11
335.965422444564
 21
256.9890001863023
 31
0.0
  0
LINE
  5
155D
330
18
100
AcDbEntity
  8
目盛
100
AcDbLine
 10
337.965349967888
 20
255.6866127311871
 30
0.0
 11
337.6655398645509
 21
257.258272332353
 31
0.0
  0
LINE
  5
155E
330
18
100
AcDbEntity
  8
目盛
100
AcDbLine
 10
338.8574458454018
 20
255.8713569060954
 30
0.0
 11
338.5084166591673
 21
257.4328237251974
 31
0.0
  0
LINE
  5
155F
330
18
100
AcDbEntity
  8
目盛
100
AcDbLine
 10
339.7432985726827
 20
256.0840313295888
 30
0.0
 11
339.345394753219
 21
257.6337643873945
 31
0.0
  0
LINE
  5
1560
330
18
100
AcDbEntity
  8
目盛
100
AcDbLine
 10
333.4422038581678
 20
255.1872527517128
 30
0.0
 11
333.3919466436428
 21
256.786463248298
 31
0.0
  0
LINE
  5
1561
330
18
100
AcDbEntity
  8
目盛
100
AcDbLine
 10
334.3522169112522
 20
255.2301678778992
 30
0.0
 11
334.2517520800052
 21
256.8270106433844
 31
0.0
  0
LINE
  5
1562
330
18
100
AcDbEntity
  8
目盛
100
AcDbLine
 10
348.8317098026138
 20
260.1876063483568
 30
0.0
 11
347.9323763980505
 21
261.5109352671962
 31
0.0
  0
LINE
  5
1563
330
18
100
AcDbEntity
  8
目盛
100
AcDbLine
 10
349.5770641613838
 20
260.7114501654456
 30
0.0
 11
347.5198157783601
 21
263.5430096457579
 31
0.0
  0
LINE
  5
1564
330
18
100
AcDbEntity
  8
目盛
100
AcDbLine
 10
345.6970163373489
 20
258.3337538008564
 30
0.0
 11
344.3804438881042
 21
260.9176727210027
 31
0.0
  0
LINE
  5
1565
330
18
100
AcDbEntity
  8
目盛
100
AcDbLine
 10
344.0485806733107
 20
257.5580588574837
 30
0.0
 11
343.413144048295
 21
259.026466258578
 31
0.0
  0
LINE
  5
1566
330
18
100
AcDbEntity
  8
目盛
100
AcDbLine
 10
344.8788913002892
 20
257.9329584808045
 30
0.0
 11
344.197644433785
 21
259.3806817647501
 31
0.0
  0
LINE
  5
1567
330
18
100
AcDbEntity
  8
目盛
100
AcDbLine
 10
346.5021483938517
 20
258.7600492810471
 30
0.0
 11
345.731342515289
 21
260.1621399691173
 31
0.0
  0
LINE
  5
1568
330
18
100
AcDbEntity
  8
目盛
100
AcDbLine
 10
347.2934929016627
 20
259.2114242192047
 30
0.0
 11
346.4790266364622
 21
260.5886114624111
 31
0.0
  0
LINE
  5
1569
330
18
100
AcDbEntity
  8
目盛
100
AcDbLine
 10
348.0702688992929
 20
259.6874331627607
 30
0.0
 11
347.2129460273265
 21
261.0383578435639
 31
0.0
  0
LINE
  5
156A
330
18
100
AcDbEntity
  8
目盛
100
AcDbLine
 10
342.3546915320155
 20
256.8874007026466
 30
0.0
 11
341.8127108596231
 21
258.3928099329733
 31
0.0
  0
LINE
  5
156B
330
18
100
AcDbEntity
  8
目盛
100
AcDbLine
 10
343.2069038727577
 20
257.2094249115598
 30
0.0
 11
342.6179045884621
 21
258.697067288981
 31
0.0
  0
LINE
  5
156C
330
18
100
AcDbEntity
  8
目盛
100
AcDbLine
 10
355.4457872037971
 20
266.3986384463827
 30
0.0
 11
354.181539183996
 21
267.3792897322275
 31
0.0
  0
LINE
  5
156D
330
18
100
AcDbEntity
  8
目盛
100
AcDbLine
 10
355.9927846817755
 20
267.1271706858373
 30
0.0
 11
353.1612252014633
 21
269.184419068861
 31
0.0
  0
LINE
  5
156E
330
18
100
AcDbEntity
  8
目盛
100
AcDbLine
 10
353.0373884993119
 20
263.6668463479091
 30
0.0
 11
350.986778833871
 21
265.7174560133502
 31
0.0
  0
LINE
  5
156F
330
18
100
AcDbEntity
  8
目盛
100
AcDbLine
 10
351.709335939288
 20
262.4197219830357
 30
0.0
 11
350.6512369547701
 21
263.6198996944444
 31
0.0
  0
LINE
  5
1570
330
18
100
AcDbEntity
  8
目盛
100
AcDbLine
 10
352.3831579168341
 20
263.0328528070981
 30
0.0
 11
351.2878825473482
 21
264.1992026109723
 31
0.0
  0
LINE
  5
1571
330
18
100
AcDbEntity
  8
目盛
100
AcDbLine
 10
353.671382040123
 20
264.3210769303871
 30
0.0
 11
352.5050322362487
 21
265.416352299873
 31
0.0
  0
LINE
  5
1572
330
18
100
AcDbEntity
  8
目盛
100
AcDbLine
 10
354.2845128641853
 20
264.9948989079331
 30
0.0
 11
353.0843351527767
 21
266.0529978924511
 31
0.0
  0
LINE
  5
1573
330
18
100
AcDbEntity
  8
目盛
100
AcDbLine
 10
354.8761758853999
 20
265.687647299607
 30
0.0
 11
353.6433546969588
 21
266.7075256832049
 31
0.0
  0
LINE
  5
1574
330
18
100
AcDbEntity
  8
目盛
100
AcDbLine
 10
350.3055964008384
 20
261.258447643424
 30
0.0
 11
349.3249451149936
 21
262.5226956632251
 31
0.0
  0
LINE
  5
1575
330
18
100
AcDbEntity
  8
目盛
100
AcDbLine
 10
351.0165875476141
 20
261.8280589618211
 30
0.0
 11
349.9967091640161
 21
263.0608801502624
 31
0.0
  0
LINE
  5
1576
330
18
100
AcDbEntity
  8
目盛
100
AcDbLine
 10
359.8168341445746
 20
274.3495433152056
 30
0.0
 11
358.3114249142478
 21
274.8915239875981
 31
0.0
  0
LINE
  5
1577
330
18
100
AcDbEntity
  8
目盛
100
AcDbLine
 10
360.1119308174615
 20
275.2114501654456
 30
0.0
 11
356.7832330104284
 21
276.2930096457579
 31
0.0
  0
LINE
  5
1578
330
18
100
AcDbEntity
  8
目盛
100
AcDbLine
 10
358.3704810463647
 20
271.0072185098722
 30
0.0
 11
355.7865621262184
 21
272.3237909591168
 31
0.0
  0
LINE
  5
1579
330
18
100
AcDbEntity
  8
目盛
100
AcDbLine
 10
357.4928106280164
 20
269.4107419455583
 30
0.0
 11
356.1156233848101
 21
270.2252082107588
 31
0.0
  0
LINE
  5
157A
330
18
100
AcDbEntity
  8
目盛
100
AcDbLine
 10
357.9441855661741
 20
270.2020864533693
 30
0.0
 11
356.5420948781039
 21
270.972892331932
 31
0.0
  0
LINE
  5
157B
330
18
100
AcDbEntity
  8
目盛
100
AcDbLine
 10
358.7712763664166
 20
271.8253435469319
 30
0.0
 11
357.3235530824709
 21
272.5065904134361
 31
0.0
  0
LINE
  5
157C
330
18
100
AcDbEntity
  8
目盛
100
AcDbLine
 10
359.1461759897375
 20
272.6556541739104
 30
0.0
 11
357.6777685886431
 21
273.2910907989261
 31
0.0
  0
LINE
  5
157D
330
18
100
AcDbEntity
  8
目盛
100
AcDbLine
 10
359.4948099356613
 20
273.4973309744634
 30
0.0
 11
358.0071675582401
 21
274.0863302587588
 31
0.0
  0
LINE
  5
157E
330
18
100
AcDbEntity
  8
目盛
100
AcDbLine
 10
356.5166284988643
 20
267.8725250446072
 30
0.0
 11
355.1932995800251
 21
268.7718584491707
 31
0.0
  0
LINE
  5
157F
330
18
100
AcDbEntity
  8
目盛
100
AcDbLine
 10
357.0168016844605
 20
268.6339659479282
 30
0.0
 11
355.6658770036572
 21
269.4912888198945
 31
0.0
  0
LINE
  5
1580
330
18
100
AcDbEntity
  8
目盛
100
AcDbLine
 10
361.5169820955083
 20
283.2620309890534
 30
0.0
 11
359.9177715989231
 21
283.3122882035785
 31
0.0
  0
LINE
  5
1581
330
18
100
AcDbEntity
  8
目盛
100
AcDbLine
 10
361.5312918449021
 20
284.1729430023191
 30
0.0
 11
358.031291844902
 21
284.1729430023191
 31
0.0
  0
LINE
  5
1582
330
18
100
AcDbEntity
  8
目盛
100
AcDbLine
 10
361.174253722161
 20
279.6363435161524
 30
0.0
 11
358.3099575344352
 21
280.0900034647691
 31
0.0
  0
LINE
  5
1583
330
18
100
AcDbEntity
  8
目盛
100
AcDbLine
 10
360.8328779411257
 20
277.8467890018194
 30
0.0
 11
359.2714111220237
 21
278.1958181880538
 31
0.0
  0
LINE
  5
1584
330
18
100
AcDbEntity
  8
目盛
100
AcDbLine
 10
361.017622116034
 20
278.7388848793331
 30
0.0
 11
359.4459625148681
 21
279.0386949826702
 31
0.0
  0
LINE
  5
1585
330
18
100
AcDbEntity
  8
目盛
100
AcDbLine
 10
361.3026181830219
 20
280.5382792289543
 30
0.0
 11
359.7152346609187
 21
280.7388124026572
 31
0.0
  0
LINE
  5
1586
330
18
100
AcDbEntity
  8
目盛
100
AcDbLine
 10
361.4025888183913
 20
281.4438019160822
 30
0.0
 11
359.8096896750265
 21
281.5943752173918
 31
0.0
  0
LINE
  5
1587
330
18
100
AcDbEntity
  8
目盛
100
AcDbLine
 10
361.4740669693219
 20
282.352017935969
 30
0.0
 11
359.8772242038367
 21
282.452482767216
 31
0.0
  0
LINE
  5
1588
330
18
100
AcDbEntity
  8
目盛
100
AcDbLine
 10
360.3798087295334
 20
276.0822009271815
 30
0.0
 11
358.8433388324503
 21
276.5285866968443
 31
0.0
  0
LINE
  5
1589
330
18
100
AcDbEntity
  8
目盛
100
AcDbLine
 10
360.6202035176324
 20
276.9609362745384
 30
0.0
 11
359.0704704598266
 21
277.358840094002
 31
0.0
  0
LINE
  5
158A
330
18
100
AcDbEntity
  8
目盛
100
AcDbLine
 10
360.3798087295335
 20
292.2636850774567
 30
0.0
 11
358.8433388324503
 21
291.817299307794
 31
0.0
  0
LINE
  5
158B
330
18
100
AcDbEntity
  8
目盛
100
AcDbLine
 10
360.1119308174615
 20
293.1344358391925
 30
0.0
 11
356.7832330104285
 21
292.0528763588802
 31
0.0
  0
LINE
  5
158C
330
18
100
AcDbEntity
  8
目盛
100
AcDbLine
 10
361.1742537221611
 20
288.7095424884857
 30
0.0
 11
358.3099575344352
 21
288.2558825398691
 31
0.0
  0
LINE
  5
158D
330
18
100
AcDbEntity
  8
目盛
100
AcDbLine
 10
361.4025888183914
 20
286.902084088556
 30
0.0
 11
359.8096896750265
 21
286.7515107872463
 31
0.0
  0
LINE
  5
158E
330
18
100
AcDbEntity
  8
目盛
100
AcDbLine
 10
361.3026181830219
 20
287.8076067756839
 30
0.0
 11
359.7152346609188
 21
287.607073601981
 31
0.0
  0
LINE
  5
158F
330
18
100
AcDbEntity
  8
目盛
100
AcDbLine
 10
361.017622116034
 20
289.607001125305
 30
0.0
 11
359.4459625148681
 21
289.3071910219679
 31
0.0
  0
LINE
  5
1590
330
18
100
AcDbEntity
  8
目盛
100
AcDbLine
 10
360.8328779411257
 20
290.4990970028187
 30
0.0
 11
359.2714111220238
 21
290.1500678165843
 31
0.0
  0
LINE
  5
1591
330
18
100
AcDbEntity
  8
目盛
100
AcDbLine
 10
360.6202035176323
 20
291.3849497300997
 30
0.0
 11
359.0704704598266
 21
290.9870459106361
 31
0.0
  0
LINE
  5
1592
330
18
100
AcDbEntity
  8
目盛
100
AcDbLine
 10
361.5169820955083
 20
285.0838550155848
 30
0.0
 11
359.9177715989231
 21
285.0335978010598
 31
0.0
  0
LINE
  5
1593
330
18
100
AcDbEntity
  8
目盛
100
AcDbLine
 10
361.4740669693219
 20
285.9938680686692
 30
0.0
 11
359.8772242038368
 21
285.8934032374222
 31
0.0
  0
LINE
  5
1594
330
18
100
AcDbEntity
  8
目盛
100
AcDbLine
 10
356.5166284988643
 20
300.4733609600309
 30
0.0
 11
355.193299580025
 21
299.5740275554675
 31
0.0
  0
LINE
  5
1595
330
18
100
AcDbEntity
  8
目盛
100
AcDbLine
 10
355.9927846817755
 20
301.2187153188008
 30
0.0
 11
353.1612252014633
 21
299.1614669357771
 31
0.0
  0
LINE
  5
1596
330
18
100
AcDbEntity
  8
目盛
100
AcDbLine
 10
358.3704810463648
 20
297.338667494766
 30
0.0
 11
355.7865621262185
 21
296.0220950455212
 31
0.0
  0
LINE
  5
1597
330
18
100
AcDbEntity
  8
目盛
100
AcDbLine
 10
359.1461759897375
 20
295.6902318307277
 30
0.0
 11
357.6777685886431
 21
295.0547952057121
 31
0.0
  0
LINE
  5
1598
330
18
100
AcDbEntity
  8
目盛
100
AcDbLine
 10
358.7712763664167
 20
296.5205424577062
 30
0.0
 11
357.3235530824711
 21
295.8392955912021
 31
0.0
  0
LINE
  5
1599
330
18
100
AcDbEntity
  8
目盛
100
AcDbLine
 10
357.9441855661741
 20
298.1437995512688
 30
0.0
 11
356.5420948781039
 21
297.372993672706
 31
0.0
  0
LINE
  5
159A
330
18
100
AcDbEntity
  8
目盛
100
AcDbLine
 10
357.4928106280164
 20
298.9351440590798
 30
0.0
 11
356.1156233848101
 21
298.1206777938792
 31
0.0
  0
LINE
  5
159B
330
18
100
AcDbEntity
  8
目盛
100
AcDbLine
 10
357.0168016844605
 20
299.7119200567099
 30
0.0
 11
355.6658770036573
 21
298.8545971847436
 31
0.0
  0
LINE
  5
159C
330
18
100
AcDbEntity
  8
目盛
100
AcDbLine
 10
359.8168341445746
 20
293.9963426894325
 30
0.0
 11
358.3114249142478
 21
293.4543620170401
 31
0.0
  0
LINE
  5
159D
330
18
100
AcDbEntity
  8
目盛
100
AcDbLine
 10
359.4948099356614
 20
294.8485550301747
 30
0.0
 11
358.0071675582402
 21
294.2595557458792
 31
0.0
  0
LINE
  5
159E
330
18
100
AcDbEntity
  8
目盛
100
AcDbLine
 10
350.3055964008384
 20
307.0874383612141
 30
0.0
 11
349.3249451149936
 21
305.8231903414129
 31
0.0
  0
LINE
  5
159F
330
18
100
AcDbEntity
  8
目盛
100
AcDbLine
 10
349.5770641613838
 20
307.6344358391925
 30
0.0
 11
347.5198157783602
 21
304.8028763588802
 31
0.0
  0
LINE
  5
15A0
330
18
100
AcDbEntity
  8
目盛
100
AcDbLine
 10
353.037388499312
 20
304.6790396567289
 30
0.0
 11
350.986778833871
 21
302.6284299912879
 31
0.0
  0
LINE
  5
15A1
330
18
100
AcDbEntity
  8
目盛
100
AcDbLine
 10
354.2845128641854
 20
303.350987096705
 30
0.0
 11
353.0843351527767
 21
302.2928881121871
 31
0.0
  0
LINE
  5
15A2
330
18
100
AcDbEntity
  8
目盛
100
AcDbLine
 10
353.671382040123
 20
304.024809074251
 30
0.0
 11
352.5050322362488
 21
302.9295337047651
 31
0.0
  0
LINE
  5
15A3
330
18
100
AcDbEntity
  8
目盛
100
AcDbLine
 10
352.383157916834
 20
305.31303319754
 30
0.0
 11
351.2878825473482
 21
304.1466833936657
 31
0.0
  0
LINE
  5
15A4
330
18
100
AcDbEntity
  8
目盛
100
AcDbLine
 10
351.709335939288
 20
305.9261640216023
 30
0.0
 11
350.6512369547701
 21
304.7259863101937
 31
0.0
  0
LINE
  5
15A5
330
18
100
AcDbEntity
  8
目盛
100
AcDbLine
 10
351.0165875476141
 20
306.5178270428169
 30
0.0
 11
349.9967091640162
 21
305.2850058543757
 31
0.0
  0
LINE
  5
15A6
330
18
100
AcDbEntity
  8
目盛
100
AcDbLine
 10
355.4457872037971
 20
301.9472475582554
 30
0.0
 11
354.181539183996
 21
300.9665962724107
 31
0.0
  0
LINE
  5
15A7
330
18
100
AcDbEntity
  8
目盛
100
AcDbLine
 10
354.8761758853999
 20
302.6582387050311
 30
0.0
 11
353.6433546969588
 21
301.6383603214332
 31
0.0
  0
LINE
  5
15A8
330
18
100
AcDbEntity
  8
目盛
100
AcDbLine
 10
342.3546915320155
 20
311.4584853019916
 30
0.0
 11
341.8127108596231
 21
309.9530760716648
 31
0.0
  0
LINE
  5
15A9
330
18
100
AcDbEntity
  8
目盛
100
AcDbLine
 10
341.4927846817755
 20
311.7535819748785
 30
0.0
 11
340.4112252014633
 21
308.4248841678455
 31
0.0
  0
LINE
  5
15AA
330
18
100
AcDbEntity
  8
目盛
100
AcDbLine
 10
345.6970163373489
 20
310.0121322037817
 30
0.0
 11
344.3804438881043
 21
307.4282132836354
 31
0.0
  0
LINE
  5
15AB
330
18
100
AcDbEntity
  8
目盛
100
AcDbLine
 10
347.2934929016628
 20
309.1344617854334
 30
0.0
 11
346.4790266364623
 21
307.7572745422271
 31
0.0
  0
LINE
  5
15AC
330
18
100
AcDbEntity
  8
目盛
100
AcDbLine
 10
346.5021483938518
 20
309.5858367235911
 30
0.0
 11
345.7313425152892
 21
308.1837460355209
 31
0.0
  0
LINE
  5
15AD
330
18
100
AcDbEntity
  8
目盛
100
AcDbLine
 10
344.8788913002892
 20
310.4129275238336
 30
0.0
 11
344.1976444337851
 21
308.965204239888
 31
0.0
  0
LINE
  5
15AE
330
18
100
AcDbEntity
  8
目盛
100
AcDbLine
 10
344.0485806733108
 20
310.7878271471545
 30
0.0
 11
343.413144048295
 21
309.3194197460601
 31
0.0
  0
LINE
  5
15AF
330
18
100
AcDbEntity
  8
目盛
100
AcDbLine
 10
343.2069038727578
 20
311.1364610930782
 30
0.0
 11
342.6179045884623
 21
309.6488187156571
 31
0.0
  0
LINE
  5
15B0
330
18
100
AcDbEntity
  8
目盛
100
AcDbLine
 10
348.8317098026139
 20
308.1582796562813
 30
0.0
 11
347.9323763980505
 21
306.8349507374421
 31
0.0
  0
LINE
  5
15B1
330
18
100
AcDbEntity
  8
目盛
100
AcDbLine
 10
348.070268899293
 20
308.6584528418775
 30
0.0
 11
347.2129460273266
 21
307.3075281610742
 31
0.0
  0
TEXT
  5
15B5
330
18
100
AcDbEntity
  8
文字
100
AcDbText
 10
331.0588244374319
 20
305.1674251259302
 30
0.0
 40
3.0
  1
0
  7
STYLE3
100
AcDbText
  0
TEXT
  5
15B6
330
18
100
AcDbEntity
  8
文字
100
AcDbText
 10
336.6851504928138
 20
303.5801695119705
 30
0.0
 40
3.0
  1
10
  7
STYLE3
100
AcDbText
  0
TEXT
  5
15B7
330
18
100
AcDbEntity
  8
文字
100
AcDbText
 10
343.3030851951321
 20
299.744293627028
 30
0.0
 40
3.0
  1
20
  7
STYLE3
100
AcDbText
  0
TEXT
  5
15B8
330
18
100
AcDbEntity
  8
文字
100
AcDbText
 10
347.4051100281215
 20
295.0395435290148
 30
0.0
 40
3.0
  1
30
  7
STYLE3
100
AcDbText
  0
TEXT
  5
15B9
330
18
100
AcDbEntity
  8
文字
100
AcDbText
 10
350.3720443198786
 20
289.1554369447637
 30
0.0
 40
3.0
  1
40
  7
STYLE3
100
AcDbText
  0
TEXT
  5
15BA
330
18
100
AcDbEntity
  8
文字
100
AcDbText
 10
351.4421395590072
 20
282.7026360534456
 30
0.0
 40
3.0
  1
50
  7
STYLE3
100
AcDbText
  0
TEXT
  5
15BB
330
18
100
AcDbEntity
  8
文字
100
AcDbText
 10
322.9277047907467
 20
303.7678827817553
 30
0.0
 40
3.0
  1
10
  7
STYLE3
100
AcDbText
  0
TEXT
  5
15BC
330
18
100
AcDbEntity
  8
文字
100
AcDbText
 10
317.3394337423724
 20
300.4626750279171
 30
0.0
 40
3.0
  1
20
  7
STYLE3
100
AcDbText
  0
TEXT
  5
15BD
330
18
100
AcDbEntity
  8
文字
100
AcDbText
 10
312.2727413405999
 20
295.7777216711175
 30
0.0
 40
3.0
  1
30
  7
STYLE3
100
AcDbText
  0
TEXT
  5
15BE
330
18
100
AcDbEntity
  8
文字
100
AcDbText
 10
308.82466155354
 20
289.9585602631706
 30
0.0
 40
3.0
  1
40
  7
STYLE3
100
AcDbText
  0
TEXT
  5
15BF
330
18
100
AcDbEntity
  8
文字
100
AcDbText
 10
308.0153548546551
 20
282.5996642462275
 30
0.0
 40
3.0
  1
50
  7
STYLE3
100
AcDbText
  0
TEXT
  5
15C0
330
18
100
AcDbEntity
  8
文字
100
AcDbText
 10
350.1464581097721
 20
275.7221078347921
 30
0.0
 40
3.0
  1
60
  7
STYLE3
100
AcDbText
  0
TEXT
  5
15C1
330
18
100
AcDbEntity
  8
文字
100
AcDbText
 10
347.3071394101592
 20
269.8356273158154
 30
0.0
 40
3.0
  1
70
  7
STYLE3
100
AcDbText
  0
TEXT
  5
15C2
330
18
100
AcDbEntity
  8
文字
100
AcDbText
 10
342.9744471098002
 20
265.4334310585313
 30
0.0
 40
3.0
  1
80
  7
STYLE3
100
AcDbText
  0
TEXT
  5
15C3
330
18
100
AcDbEntity
  8
文字
100
AcDbText
 10
337.4686100442584
 20
262.2787161168745
 30
0.0
 40
3.0
  1
90
  7
STYLE3
100
AcDbText
  0
TEXT
  5
15C4
330
18
100
AcDbEntity
  8
文字
100
AcDbText
 10
328.0502197642209
 20
260.2257375481146
 30
0.0
 40
3.0
  1
100
  7
STYLE3
100
AcDbText
  0
TEXT
  5
15C5
330
18
100
AcDbEntity
  8
文字
100
AcDbText
 10
322.4238929257819
 20
262.0181301482491
 30
0.0
 40
3.0
  1
90
  7
STYLE3
100
AcDbText
  0
TEXT
  5
15C6
330
18
100
AcDbEntity
  8
文字
100
AcDbText
 10
316.8181855458497
 20
265.2932397036118
 30
0.0
 40
3.0
  1
80
  7
STYLE3
100
AcDbText
  0
TEXT
  5
15C7
330
18
100
AcDbEntity
  8
文字
100
AcDbText
 10
312.5504893306517
 20
269.5425687590379
 30
0.0
 40
3.0
  1
70
  7
STYLE3
100
AcDbText
  0
TEXT
  5
15C8
330
18
100
AcDbEntity
  8
文字
100
AcDbText
 10
309.2553961844838
 20
275.2215388120653
 30
0.0
 40
3.0
  1
60
  7
STYLE3
100
AcDbText
  0
TEXT
  5
1702
330
18
100
AcDbEntity
  8
文字
100
AcDbText
 10
342.4852587177706
 20
269.6537442651264
 30
0.0
 40
1.0
  1
F
 50
28.62979423885832
  7
STYLE3
100
AcDbText
  0
TEXT
  5
1703
330
18
100
AcDbEntity
  8
文字
100
AcDbText
 10
339.3932320286411
 20
267.9751389367199
 30
0.0
 40
1.0
  1
R
 50
20.24070213608718
  7
STYLE3
100
AcDbText
  0
TEXT
  5
1704
330
18
100
AcDbEntity
  8
文字
100
AcDbText
 10
338.386087779521
 20
267.5720232980606
 30
0.0
 40
1.0
  1
P
 50
18.4417774755011
  7
STYLE3
100
AcDbText
  0
TEXT
  5
1705
330
18
100
AcDbEntity
  8
文字
100
AcDbText
 10
341.382275279683
 20
269.0543343886807
 30
0.0
 40
1.0
  1
O
 50
20.90981646104409
  7
STYLE3
100
AcDbText
  0
TEXT
  5
1706
330
18
100
AcDbEntity
  8
文字
100
AcDbText
 10
340.4504969063483
 20
268.464211208119
 30
0.0
 40
1.0
  1
O
 50
24.073190155665
  7
STYLE3
100
AcDbText
  0
TEXT
  5
1707
330
18
100
AcDbEntity
  8
文字
100
AcDbText
 10
336.7986971838861
 20
267.0848093924056
 30
0.0
 40
1.0
  1
K
 50
16.11080334047189
  7
STYLE3
100
AcDbText
  0
TEXT
  5
1708
330
18
100
AcDbEntity
  8
文字
100
AcDbText
 10
335.6650125194418
 20
266.8768796233719
 30
0.0
 40
1.0
  1
C
 50
5.687207778684769
  7
STYLE3
100
AcDbText
  0
TEXT
  5
1709
330
18
100
AcDbEntity
  8
文字
100
AcDbText
 10
332.5517338292858
 20
266.5870105468627
 30
0.0
 40
1.0
  1
S
  7
STYLE3
100
AcDbText
  0
TEXT
  5
170A
330
18
100
AcDbEntity
  8
文字
100
AcDbText
 10
334.588107274087
 20
266.7267971134005
 30
0.0
 40
1.0
  1
O
 50
1.760930144340787
  7
STYLE3
100
AcDbText
  0
TEXT
  5
170B
330
18
100
AcDbEntity
  8
文字
100
AcDbText
 10
333.535584374482
 20
266.6009036550846
 30
0.0
 40
1.0
  1
H
 50
3.041391095489256
  7
STYLE3
100
AcDbText
  0
HATCH
  5
170D
330
18
100
AcDbEntity
  8
ROGO
 62
     4
100
AcDbHatch
 10
0.0
 20
0.0
 30
0.0
210
0.0
220
0.0
230
1.0
  2
SOLID
 70
     1
 71
     1
 91
        1
 92
        7
 72
     0
 73
     1
 93
       11
 10
337.5001563709842
 20
273.1016967608823
 10
338.2179998659733
 20
273.1016967608824
 10
338.4715426738559
 20
273.6101732663383
 10
338.7250854817388
 20
273.1016967608824
 10
339.4429132708893
 20
273.1016967608824
 10
338.9572201194535
 20
274.07574748797
 10
340.1372665978316
 20
275.0497982150575
 10
339.4194388086808
 20
275.0497982150575
 10
339.0833305516942
 20
274.8371051789459
 10
339.189386168845
 20
275.0497982150575
 10
338.471542673856
 20
275.0497982150575
 97
       11
330
1754
330
1757
330
1758
330
170F
330
1744
330
1717
330
1743
330
170E
330
1753
330
1756
330
1755
 75
     0
 76
     1
 47
0.0514683685270805
 98
        1
 10
338.4097625186748
 20
274.214024728796
450
        0
451
        0
460
0.0
461
0.0
452
        0
462
0.0
453
        0
470

  0
LINE
  5
170E
102
{ACAD_REACTORS
330
170D
102
}
330
18
100
AcDbEntity
  8
ROGO
 62
     4
100
AcDbLine
 10
338.471542673856
 20
273.6101732663383
 30
0.0
 11
338.7250854817388
 21
273.1016967608824
 31
0.0
  0
LINE
  5
170F
102
{ACAD_REACTORS
330
170D
102
}
330
18
100
AcDbEntity
  8
ROGO
 62
     4
100
AcDbLine
 10
338.471542673856
 20
275.0497982150575
 30
0.0
 11
339.189386168845
 21
275.0497982150575
 31
0.0
  0
TEXT
  5
1710
330
18
100
AcDbEntity
  8
文字
100
AcDbText
 10
326.2531353435181
 20
271.0080884672077
 30
0.0
 40
1.0
  1
MADE  IN  JAPAN
  7
STYLE3
100
AcDbText
  0
HATCH
  5
1711
330
18
100
AcDbEntity
  8
ROGO
 62
     4
100
AcDbHatch
 10
0.0
 20
0.0
 30
0.0
210
0.0
220
0.0
230
1.0
  2
SOLID
 70
     1
 71
     1
 91
        2
 92
        5
 93
        6
 72
     1
 10
325.031291844902
 20
273.1016967608824
 11
325.9368526621015
 21
273.1016967608824
 72
     1
 10
325.9368526621015
 20
273.1016967608824
 11
326.2541728464315
 21
273.8030678684211
 72
     1
 10
326.2541728464315
 20
273.8030678684211
 11
327.1006864789902
 21
273.8030678684211
 72
     4
 94
        3
 73
     0
 74
     0
 95
       18
 96
       14
 40
0.108740278791501
 40
0.108740278791501
 40
0.108740278791501
 40
0.108740278791501
 40
0.6623149649549278
 40
1.384304701649787
 40
2.097394834876493
 40
2.774073369849618
 40
3.428974823686337
 40
4.005208313035923
 40
4.455173659284313
 40
4.720999734343524
 40
5.086034088486724
 40
5.569973738255373
 40
6.060470601257719
 40
6.060470601257719
 40
6.060470601257719
 40
6.060470601257719
 10
327.1006864789902
 20
273.8030678684211
 10
327.1602627099309
 20
273.8035115145739
 10
327.2975401587294
 20
273.8045337781689
 10
327.4895902354109
 20
273.9071311491577
 10
327.6717085804473
 20
274.0378327246525
 10
327.8183925181173
 20
274.2011307071082
 10
327.9097810306881
 20
274.3878339732
 10
327.9239368224218
 20
274.5667719045616
 10
327.9152950593519
 20
274.7083095836933
 10
327.8535453216612
 20
274.8069648598595
 10
327.789348934097
 20
274.9070898763454
 10
327.671634467023
 20
274.9938218845206
 10
327.5751845059483
 20
275.0318233969147
 10
327.526137739087
 20
275.0497982150576
 72
     1
 10
327.5261377390873
 20
275.0497982150575
 11
325.9951943268887
 21
275.0497982150575
 72
     1
 10
325.9951943268887
 20
275.0497982150575
 11
325.031291844902
 21
273.1016967608824
 97
        6
330
1739
330
1718
330
171B
330
1717
330
1719
330
1716
 92
       20
 93
        4
 72
     1
 10
326.4501000963826
 20
274.2361248218744
 11
326.6001068799726
 21
274.5676840139471
 72
     1
 10
326.6001068799726
 20
274.5676840139471
 11
326.9855603819708
 21
274.5676840139471
 72
     4
 94
        3
 73
     0
 74
     0
 95
       15
 96
       11
 40
0.0
 40
0.0
 40
0.0
 40
0.0
 40
0.1461831775054869
 40
0.2128346657926855
 40
0.2884885421222081
 40
0.3400274801801145
 40
0.4215368452530754
 40
0.4703587283434508
 40
0.5541210812769089
 40
0.5820418834082098
 40
0.5820418834082098
 40
0.5820418834082098
 40
0.5820418834082098
 10
326.9855603819708
 20
274.5676840139471
 10
327.0404639486191
 20
274.567935501589
 10
327.1204005217447
 20
274.5683016537627
 10
327.1641126869493
 20
274.4694198816382
 10
327.1445188103014
 20
274.4057554457583
 10
327.1198877104284
 20
274.3403919128799
 10
327.0763589783769
 20
274.2959764064668
 10
327.0179370441829
 20
274.2531967863708
 10
326.9627255245068
 20
274.2480181218001
 10
326.9268166286597
 20
274.2385034827703
 10
326.9178394004007
 20
274.2361248218743
 72
     1
 10
326.9178394004007
 20
274.2361248218743
 11
326.4501000963826
 21
274.2361248218744
 97
        4
330
171A
330
1715
330
1738
330
1714
 75
     0
 76
     1
 47
0.0514683685270805
 98
        2
 10
326.003376981904
 20
274.443886962171
 10
326.003376981904
 20
274.443886962171
450
        0
451
        0
460
0.0
461
0.0
452
        0
462
0.0
453
        0
470

  0
HATCH
  5
1712
330
18
100
AcDbEntity
  8
ROGO
 62
     4
100
AcDbHatch
 10
0.0
 20
0.0
 30
0.0
210
0.0
220
0.0
230
1.0
  2
SOLID
 70
     1
 71
     0
 91
        1
 92
        7
 72
     0
 73
     1
 93
        4
 10
326.0251974799102
 20
273.2969648395349
 10
325.9368526621015
 20
273.1016967608824
 10
337.5001563709843
 20
273.1016967608824
 10
337.5975233415723
 20
273.2969648395349
 97
        0
 75
     0
 76
     1
 47
0.0514683685270805
 98
        1
 10
333.3321822851055
 20
273.2453195709163
450
        0
451
        0
460
0.0
461
0.0
452
        0
462
0.0
453
        0
470

  0
LINE
  5
1713
330
18
100
AcDbEntity
  8
ROGO
 62
     4
100
AcDbLine
 10
326.0116554315765
 20
273.2969648395349
 30
0.0
 11
337.5975233415724
 21
273.2969648395349
 31
0.0
  0
LINE
  5
1714
102
{ACAD_REACTORS
330
1711
102
}
330
18
100
AcDbEntity
  8
ROGO
 62
     4
100
AcDbLine
 10
326.9178394004008
 20
274.2361248218743
 30
0.0
 11
326.4501000963826
 21
274.2361248218743
 31
0.0
  0
LINE
  5
1715
102
{ACAD_REACTORS
330
1711
102
}
330
18
100
AcDbEntity
  8
ROGO
 62
     4
100
AcDbLine
 10
326.9855603819709
 20
274.5676840139471
 30
0.0
 11
326.6001068799726
 21
274.5676840139471
 31
0.0
  0
LINE
  5
1716
102
{ACAD_REACTORS
330
1711
102
}
330
18
100
AcDbEntity
  8
ROGO
 62
     4
100
AcDbLine
 10
327.1006864792836
 20
273.8030678684211
 30
0.0
 11
326.2541728464315
 21
273.8030678684211
 31
0.0
  0
LINE
  5
1717
102
{ACAD_REACTORS
330
1711
330
170D
102
}
330
18
100
AcDbEntity
  8
ROGO
 62
     4
100
AcDbLine
 10
325.031291844902
 20
273.1016967608824
 30
0.0
 11
338.2179998659733
 21
273.1016967608824
 31
0.0
  0
LINE
  5
1718
102
{ACAD_REACTORS
330
1711
102
}
330
18
100
AcDbEntity
  8
ROGO
 62
     4
100
AcDbLine
 10
325.9951943268887
 20
275.0497982150575
 30
0.0
 11
327.526137739087
 21
275.0497982150575
 31
0.0
  0
LINE
  5
1719
102
{ACAD_REACTORS
330
1711
102
}
330
18
100
AcDbEntity
  8
ROGO
 62
     4
100
AcDbLine
 10
326.2541728464315
 20
273.8030678684211
 30
0.0
 11
325.9368526621015
 21
273.1016967608824
 31
0.0
  0
LINE
  5
171A
102
{ACAD_REACTORS
330
1711
102
}
330
18
100
AcDbEntity
  8
ROGO
 62
     4
100
AcDbLine
 10
326.6001068799726
 20
274.5676840139471
 30
0.0
 11
326.4501000963826
 21
274.2361248218743
 31
0.0
  0
LINE
  5
171B
102
{ACAD_REACTORS
330
1711
102
}
330
18
100
AcDbEntity
  8
ROGO
 62
     4
100
AcDbLine
 10
325.9951943268887
 20
275.0497982150575
 30
0.0
 11
325.031291844902
 21
273.1016967608823
 31
0.0
  0
HATCH
  5
171C
330
18
100
AcDbEntity
  8
ROGO
 62
     4
100
AcDbHatch
 10
0.0
 20
0.0
 30
0.0
210
0.0
220
0.0
230
1.0
  2
SOLID
 70
     1
 71
     1
 91
        1
 92
        5
 93
        8
 72
     1
 10
333.9620516135866
 20
274.5859336940639
 11
334.1933494451835
 21
275.0497982150576
 72
     1
 10
334.1933494451835
 20
275.0497982150576
 11
332.9448233484205
 21
275.0497982150577
 72
     4
 94
        3
 73
     0
 74
     0
 95
       26
 96
       22
 40
0.0
 40
0.0
 40
0.0
 40
0.0
 40
0.2261711682465229
 40
0.3775752524709292
 40
0.4867499270747143
 40
0.568267124049349
 40
0.6739992068898783
 40
0.7511733198246171
 40
0.8905317800930589
 40
1.003967563249478
 40
1.081122071918962
 40
1.156776017963922
 40
1.292106219407743
 40
1.387800824155796
 40
1.439339762213627
 40
1.512549301287547
 40
1.565415552119591
 40
1.642001295672489
 40
1.685342202005951
 40
1.779656875742602
 40
1.822721775074863
 40
1.822721775074863
 40
1.822721775074863
 40
1.822721775074863
 10
332.94482334842
 20
275.0497982150575
 10
332.8680573593794
 20
275.0452182245115
 10
332.7399024848306
 20
275.0375722849335
 10
332.5991892121783
 20
274.9520904829457
 10
332.4960944308267
 20
274.9023951197591
 10
332.4225673577956
 20
274.8348385072731
 10
332.3686717152069
 20
274.7650574614922
 10
332.3007261398859
 20
274.6819138570922
 10
332.2453184647584
 20
274.5850964942655
 10
332.2171027042656
 20
274.4783868819547
 10
332.1921094514175
 20
274.3933387017941
 10
332.1735740366949
 20
274.2985636040191
 10
332.1782899709313
 20
274.1961731582861
 10
332.1850434045883
 20
274.1010781541352
 10
332.21519584365
 20
274.0331945588462
 10
332.2495341308236
 20
273.9848661168035
 10
332.2915808932076
 20
273.9316376958157
 10
332.3375892461275
 20
273.8963846849556
 10
332.3756419094553
 20
273.8325214868374
 10
332.4422518129286
 20
273.824372082173
 10
332.4845917175506
 20
273.8081523346192
 10
332.4978641691207
 20
273.8030678684211
 72
     1
 10
332.4978641691207
 20
273.803067868421
 11
333.5716894287086
 21
273.8030678684211
 72
     1
 10
333.5716894287086
 20
273.8030678684211
 11
333.8029848109246
 21
274.2669274772163
 72
     1
 10
333.8029848109246
 20
274.2669274772163
 11
333.0057721150103
 21
274.2669274772163
 72
     4
 94
        3
 73
     0
 74
     0
 95
       16
 96
       12
 40
0.0
 40
0.0
 40
0.0
 40
0.0
 40
0.0683030918787651
 40
0.1373106805328241
 40
0.1784706056911381
 40
0.2179345026857031
 40
0.2612752368189221
 40
0.2915411730568249
 40
0.3202609197926786
 40
0.3785004428982989
 40
0.4977391777073984
 40
0.4977391777073984
 40
0.4977391777073984
 40
0.4977391777073984
 10
333.0057721150104
 20
274.2669274772163
 10
332.9817253706801
 20
274.2740023819869
 10
332.93338385732
 20
274.2882251640312
 10
332.9293380630184
 20
274.3571719863536
 10
332.9348498724296
 20
274.4063022391576
 10
332.9579333425545
 20
274.4420719322209
 10
332.9859375955907
 20
274.4680990902771
 10
332.996364821019
 20
274.5019953941401
 10
333.0270147001465
 20
274.5275913443542
 10
333.0813651483067
 20
274.5706145611468
 10
333.1414673353516
 20
274.5797775450323
 10
333.18184697862
 20
274.5859336940639
 72
     1
 10
333.1818469786201
 20
274.5859336940639
 11
333.9620516135866
 21
274.5859336940639
 97
        8
330
174D
330
171D
330
171E
330
174E
330
1750
330
174F
330
1751
330
1752
 75
     0
 76
     1
 47
0.0514683685270805
 98
        1
 10
333.3814791503316
 20
274.7722614237104
450
        0
451
        0
460
0.0
461
0.0
452
        0
462
0.0
453
        0
470

  0
SPLINE
  5
171D
102
{ACAD_REACTORS
330
171C
102
}
330
18
100
AcDbEntity
  8
ROGO
 62
     4
100
AcDbSpline
210
0.0
220
0.0
230
1.0
 70
     8
 71
     3
 72
    26
 73
    22
 74
    20
 42
0.0000000001
 43
0.0000000001
 44
0.0000000001
 40
0.0
 40
0.0
 40
0.0
 40
0.0
 40
0.2261711682465229
 40
0.3775752524709292
 40
0.4867499270747143
 40
0.568267124049349
 40
0.6739992068898783
 40
0.7511733198246171
 40
0.8905317800930589
 40
1.003967563249478
 40
1.081122071918962
 40
1.156776017963922
 40
1.292106219407743
 40
1.387800824155796
 40
1.439339762213627
 40
1.512549301287547
 40
1.565415552119591
 40
1.642001295672489
 40
1.685342202005951
 40
1.779656875742602
 40
1.822721775074863
 40
1.822721775074863
 40
1.822721775074863
 40
1.822721775074863
 10
332.94482334842
 20
275.0497982150575
 30
0.0
 10
332.8680573593794
 20
275.0452182245115
 30
0.0
 10
332.7399024848306
 20
275.0375722849335
 30
0.0
 10
332.5991892121783
 20
274.9520904829457
 30
0.0
 10
332.4960944308267
 20
274.9023951197591
 30
0.0
 10
332.4225673577956
 20
274.8348385072731
 30
0.0
 10
332.3686717152069
 20
274.7650574614922
 30
0.0
 10
332.3007261398859
 20
274.6819138570922
 30
0.0
 10
332.2453184647584
 20
274.5850964942655
 30
0.0
 10
332.2171027042656
 20
274.4783868819547
 30
0.0
 10
332.1921094514175
 20
274.3933387017941
 30
0.0
 10
332.1735740366949
 20
274.2985636040191
 30
0.0
 10
332.1782899709313
 20
274.1961731582861
 30
0.0
 10
332.1850434045883
 20
274.1010781541352
 30
0.0
 10
332.21519584365
 20
274.0331945588462
 30
0.0
 10
332.2495341308236
 20
273.9848661168035
 30
0.0
 10
332.2915808932076
 20
273.9316376958157
 30
0.0
 10
332.3375892461275
 20
273.8963846849556
 30
0.0
 10
332.3756419094553
 20
273.8325214868374
 30
0.0
 10
332.4422518129286
 20
273.824372082173
 30
0.0
 10
332.4845917175506
 20
273.8081523346192
 30
0.0
 10
332.4978641691207
 20
273.8030678684211
 30
0.0
 11
332.94482334842
 21
275.0497982150575
 31
0.0
 11
332.7213437587703
 21
275.0150092749183
 31
0.0
 11
332.5859014062209
 21
274.9473441741964
 31
0.0
 11
332.4910919541409
 21
274.893212137738
 31
0.0
 11
332.4301431875505
 21
274.8390798806844
 31
0.0
 11
332.3624222059804
 21
274.7578817156991
 31
0.0
 11
332.3150174799404
 21
274.6969831471089
 31
0.0
 11
332.2472961089611
 21
274.5751857893335
 31
0.0
 11
332.2134358128806
 21
274.4669214958215
 31
0.0
 11
332.1931195573506
 21
274.3924898629678
 31
0.0
 11
332.179575127391
 21
274.3180582301143
 31
0.0
 11
332.179575127391
 21
274.1827280286705
 31
0.0
 11
332.1931195573506
 21
274.0879967994218
 31
0.0
 11
332.2134358128806
 21
274.0406310745
 31
0.0
 11
332.2540683239408
 21
273.9797325059097
 31
0.0
 11
332.2879290094305
 21
273.9391333131196
 31
0.0
 11
332.342105561041
 21
273.8850012766611
 31
0.0
 11
332.369194031551
 21
273.8511686160026
 31
0.0
 11
332.4572316580604
 21
273.8173361759391
 31
0.0
 11
332.4978641691207
 21
273.8030678684211
 31
0.0
  0
LINE
  5
171E
102
{ACAD_REACTORS
330
171C
102
}
330
18
100
AcDbEntity
  8
ROGO
 62
     4
100
AcDbLine
 10
332.4978641691206
 20
273.8030678684211
 30
0.0
 11
333.5716894287086
 21
273.8030678684211
 31
0.0
  0
HATCH
  5
171F
330
18
100
AcDbEntity
  8
ROGO
 62
     4
100
AcDbHatch
 10
0.0
 20
0.0
 30
0.0
210
0.0
220
0.0
230
1.0
  2
SOLID
 70
     1
 71
     1
 91
        2
 92
        7
 72
     0
 73
     1
 93
        8
 10
331.602586109589
 20
275.0497982150577
 10
330.6053086060101
 20
275.0497982150575
 10
329.7062671231288
 20
273.8030678684211
 10
330.3967325828758
 20
273.8030678684211
 10
330.5679045186689
 20
274.0404376126535
 10
331.3558090384339
 20
274.0404376126535
 10
331.4612580843922
 20
273.8030678684211
 10
332.1564331301742
 20
273.8030678684211
 97
        8
330
1726
330
172C
330
1727
330
1728
330
172A
330
1720
330
1725
330
1722
 92
       22
 72
     0
 73
     1
 93
        3
 10
331.244588749863
 20
274.290798639741
 10
330.7484447210116
 20
274.290798639741
 10
331.0554566234094
 20
274.7165421263167
 97
        3
330
1729
330
172B
330
1721
 75
     0
 76
     1
 47
0.0128389261915577
 98
        2
 10
331.5244914010406
 20
274.7506900899692
 10
331.5244914010406
 20
274.7506900899692
450
        0
451
        0
460
0.0
461
0.0
452
        0
462
0.0
453
        0
470

  0
LINE
  5
1720
102
{ACAD_REACTORS
330
171F
102
}
330
18
100
AcDbEntity
  8
ROGO
 62
     4
100
AcDbLine
 10
331.3558090384339
 20
274.0404376126535
 30
0.0
 11
331.4612580843923
 21
273.8030678684211
 31
0.0
  0
LINE
  5
1721
102
{ACAD_REACTORS
330
171F
102
}
330
18
100
AcDbEntity
  8
ROGO
 62
     4
100
AcDbLine
 10
331.0554566234094
 20
274.7165421263166
 30
0.0
 11
331.244588749863
 21
274.290798639741
 31
0.0
  0
LINE
  5
1722
102
{ACAD_REACTORS
330
171F
102
}
330
18
100
AcDbEntity
  8
ROGO
 62
     4
100
AcDbLine
 10
331.602586109589
 20
275.0497982150575
 30
0.0
 11
332.1564331301743
 21
273.8030678684211
 31
0.0
  0
HATCH
  5
1723
330
18
100
AcDbEntity
  8
ROGO
 62
     4
100
AcDbHatch
 10
0.0
 20
0.0
 30
0.0
210
0.0
220
0.0
230
1.0
  2
SOLID
 70
     1
 71
     1
 91
        1
 92
        1
 93
       12
 72
     1
 10
328.4305811204883
 20
275.0497982150575
 11
330.1168357812167
 21
275.0497982150576
 72
     1
 10
330.1168357812167
 20
275.0497982150575
 11
329.9755291332441
 21
274.7642094843044
 72
     1
 10
329.9755291332441
 20
274.7642094843044
 11
329.0892762942748
 21
274.7642094843044
 72
     1
 10
329.0892762942748
 20
274.7642094843044
 11
328.978792055132
 21
274.5409145857436
 72
     1
 10
328.978792055132
 20
274.5409145857436
 11
329.8650448941012
 21
274.5409145857436
 72
     1
 10
329.8650448941012
 20
274.5409145857436
 11
329.751753657024
 21
274.3119465855365
 72
     1
 10
329.751753657024
 20
274.3119465855365
 11
328.8655008180549
 21
274.3119465855365
 72
     1
 10
328.8655008180549
 20
274.3119465855365
 11
328.7550119015403
 21
274.0886422337432
 72
     1
 10
328.7550119015405
 20
274.0886422337432
 11
329.6412647405096
 21
274.0886422337432
 72
     1
 10
329.6412647405096
 20
274.0886422337432
 11
329.4999652004185
 21
273.8030678684211
 72
     1
 10
329.4999652004185
 20
273.8030678684211
 11
327.8137105396901
 21
273.8030678684211
 72
     1
 10
327.8137105396901
 20
273.8030678684211
 11
328.4305811204883
 21
275.0497982150575
 97
       12
330
1724
330
1736
330
1733
330
1734
330
1732
330
172F
330
1730
330
172D
330
1731
330
172E
330
1735
330
1737
 75
     0
 76
     1
 98
        1
 10
259.4548585044368
 20
188.8439734612495
450
        0
451
        0
460
0.0
461
0.0
452
        0
462
0.0
453
        0
470

  0
LINE
  5
1724
102
{ACAD_REACTORS
330
1723
102
}
330
18
100
AcDbEntity
  8
ROGO
 62
     4
100
AcDbLine
 10
328.4305811204883
 20
275.0497982150575
 30
0.0
 11
330.1168357812167
 21
275.0497982150576
 31
0.0
  0
LINE
  5
1725
102
{ACAD_REACTORS
330
171F
102
}
330
18
100
AcDbEntity
  8
ROGO
 62
     4
100
AcDbLine
 10
332.1564331301743
 20
273.8030678684211
 30
0.0
 11
331.4612580843923
 21
273.8030678684211
 31
0.0
  0
LINE
  5
1726
102
{ACAD_REACTORS
330
171F
102
}
330
18
100
AcDbEntity
  8
ROGO
 62
     4
100
AcDbLine
 10
330.6053086060101
 20
275.0497982150575
 30
0.0
 11
331.602586109589
 21
275.0497982150576
 31
0.0
  0
LINE
  5
1727
102
{ACAD_REACTORS
330
171F
102
}
330
18
100
AcDbEntity
  8
ROGO
 62
     4
100
AcDbLine
 10
329.7062671231288
 20
273.8030678684211
 30
0.0
 11
330.3967325828758
 21
273.8030678684211
 31
0.0
  0
LINE
  5
1728
102
{ACAD_REACTORS
330
171F
102
}
330
18
100
AcDbEntity
  8
ROGO
 62
     4
100
AcDbLine
 10
330.5679045186689
 20
274.0404376126535
 30
0.0
 11
330.3967325828759
 21
273.8030678684211
 31
0.0
  0
LINE
  5
1729
102
{ACAD_REACTORS
330
171F
102
}
330
18
100
AcDbEntity
  8
ROGO
 62
     4
100
AcDbLine
 10
330.7484447210115
 20
274.290798639741
 30
0.0
 11
331.244588749863
 21
274.290798639741
 31
0.0
  0
LINE
  5
172A
102
{ACAD_REACTORS
330
171F
102
}
330
18
100
AcDbEntity
  8
ROGO
 62
     4
100
AcDbLine
 10
330.5679045186689
 20
274.0404376126535
 30
0.0
 11
331.3558090384339
 21
274.0404376126535
 31
0.0
  0
LINE
  5
172B
102
{ACAD_REACTORS
330
171F
102
}
330
18
100
AcDbEntity
  8
ROGO
 62
     4
100
AcDbLine
 10
331.0554566234093
 20
274.7165421263166
 30
0.0
 11
330.7484447210115
 21
274.290798639741
 31
0.0
  0
LINE
  5
172C
102
{ACAD_REACTORS
330
171F
102
}
330
18
100
AcDbEntity
  8
ROGO
 62
     4
100
AcDbLine
 10
330.6053086060101
 20
275.0497982150575
 30
0.0
 11
329.7062671231288
 21
273.8030678684211
 31
0.0
  0
LINE
  5
172D
102
{ACAD_REACTORS
330
1723
102
}
330
18
100
AcDbEntity
  8
ROGO
 62
     4
100
AcDbLine
 10
328.8655008180549
 20
274.3119465855365
 30
0.0
 11
328.7550119015403
 21
274.0886422337432
 31
0.0
  0
LINE
  5
172E
102
{ACAD_REACTORS
330
1723
102
}
330
18
100
AcDbEntity
  8
ROGO
 62
     4
100
AcDbLine
 10
329.6412647405096
 20
274.0886422337432
 30
0.0
 11
329.4999652004185
 21
273.8030678684211
 31
0.0
  0
LINE
  5
172F
102
{ACAD_REACTORS
330
1723
102
}
330
18
100
AcDbEntity
  8
ROGO
 62
     4
100
AcDbLine
 10
329.8650448941012
 20
274.5409145857436
 30
0.0
 11
329.751753657024
 21
274.3119465855365
 31
0.0
  0
LINE
  5
1730
102
{ACAD_REACTORS
330
1723
102
}
330
18
100
AcDbEntity
  8
ROGO
 62
     4
100
AcDbLine
 10
328.8655008180549
 20
274.3119465855365
 30
0.0
 11
329.751753657024
 21
274.3119465855365
 31
0.0
  0
LINE
  5
1731
102
{ACAD_REACTORS
330
1723
102
}
330
18
100
AcDbEntity
  8
ROGO
 62
     4
100
AcDbLine
 10
328.7550119015405
 20
274.0886422337432
 30
0.0
 11
329.6412647405096
 21
274.0886422337432
 31
0.0
  0
LINE
  5
1732
102
{ACAD_REACTORS
330
1723
102
}
330
18
100
AcDbEntity
  8
ROGO
 62
     4
100
AcDbLine
 10
328.978792055132
 20
274.5409145857436
 30
0.0
 11
329.8650448941012
 21
274.5409145857436
 31
0.0
  0
LINE
  5
1733
102
{ACAD_REACTORS
330
1723
102
}
330
18
100
AcDbEntity
  8
ROGO
 62
     4
100
AcDbLine
 10
329.0892762942748
 20
274.7642094843044
 30
0.0
 11
329.9755291332441
 21
274.7642094843044
 31
0.0
  0
LINE
  5
1734
102
{ACAD_REACTORS
330
1723
102
}
330
18
100
AcDbEntity
  8
ROGO
 62
     4
100
AcDbLine
 10
329.0892762942748
 20
274.7642094843044
 30
0.0
 11
328.978792055132
 21
274.5409145857436
 31
0.0
  0
LINE
  5
1735
102
{ACAD_REACTORS
330
1723
102
}
330
18
100
AcDbEntity
  8
ROGO
 62
     4
100
AcDbLine
 10
327.8137105396901
 20
273.8030678684211
 30
0.0
 11
329.4999652004185
 21
273.8030678684211
 31
0.0
  0
LINE
  5
1736
102
{ACAD_REACTORS
330
1723
102
}
330
18
100
AcDbEntity
  8
ROGO
 62
     4
100
AcDbLine
 10
330.1168357812167
 20
275.0497982150575
 30
0.0
 11
329.9755291332441
 21
274.7642094843044
 31
0.0
  0
LINE
  5
1737
102
{ACAD_REACTORS
330
1723
102
}
330
18
100
AcDbEntity
  8
ROGO
 62
     4
100
AcDbLine
 10
328.4305811204883
 20
275.0497982150575
 30
0.0
 11
327.8137105396901
 21
273.8030678684211
 31
0.0
  0
SPLINE
  5
1738
102
{ACAD_REACTORS
330
1711
102
}
330
18
100
AcDbEntity
  8
ROGO
 62
     4
100
AcDbSpline
210
0.0
220
0.0
230
1.0
 70
     8
 71
     3
 72
    15
 73
    11
 74
     9
 42
0.0000000001
 43
0.0000000001
 44
0.0000000001
 40
0.0
 40
0.0
 40
0.0
 40
0.0
 40
0.1461831775054869
 40
0.2128346657926855
 40
0.2884885421222081
 40
0.3400274801801145
 40
0.4215368452530754
 40
0.4703587283434508
 40
0.5541210812769089
 40
0.5820418834082098
 40
0.5820418834082098
 40
0.5820418834082098
 40
0.5820418834082098
 10
326.9855603819708
 20
274.5676840139471
 30
0.0
 10
327.0404639486191
 20
274.567935501589
 30
0.0
 10
327.1204005217447
 20
274.5683016537627
 30
0.0
 10
327.1641126869493
 20
274.4694198816382
 30
0.0
 10
327.1445188103014
 20
274.4057554457583
 30
0.0
 10
327.1198877104284
 20
274.3403919128799
 30
0.0
 10
327.0763589783769
 20
274.2959764064668
 30
0.0
 10
327.0179370441829
 20
274.2531967863708
 30
0.0
 10
326.9627255245068
 20
274.2480181218001
 30
0.0
 10
326.9268166286597
 20
274.2385034827703
 30
0.0
 10
326.9178394004007
 20
274.2361248218743
 30
0.0
 11
326.9855603819708
 21
274.5676840139471
 31
0.0
 11
327.1277745600909
 21
274.5338513532886
 31
0.0
 11
327.1548630306008
 21
274.4729527846984
 31
0.0
 11
327.1413189900504
 21
274.3985211518448
 31
0.0
 11
327.1210027345203
 21
274.3511554269229
 31
0.0
 11
327.0668257935005
 21
274.2902568583328
 31
0.0
 11
327.0261932824402
 21
274.263190729806
 31
0.0
 11
326.9449278709106
 21
274.2428913540059
 31
0.0
 11
326.9178394004007
 21
274.2361248218743
 31
0.0
  0
SPLINE
  5
1739
102
{ACAD_REACTORS
330
1711
102
}
330
18
100
AcDbEntity
  8
ROGO
 62
     4
100
AcDbSpline
210
0.0
220
0.0
230
1.0
 70
     8
 71
     3
 72
    18
 73
    14
 74
     0
 42
0.0000000001
 43
0.0000000001
 40
0.1087402787915014
 40
0.1087402787915014
 40
0.1087402787915014
 40
0.1087402787915014
 40
0.5992371417938475
 40
1.083176791562496
 40
1.448211145705696
 40
1.714037220764907
 40
2.164002567013297
 40
2.740236056362883
 40
3.395137510199602
 40
4.071816045172726
 40
4.784906178399433
 40
5.506895915094292
 40
6.060470601257719
 40
6.060470601257719
 40
6.060470601257719
 40
6.060470601257719
 10
327.526137739087
 20
275.0497982150576
 30
0.0
 10
327.5751845059483
 20
275.0318233969147
 30
0.0
 10
327.671634467023
 20
274.9938218845206
 30
0.0
 10
327.789348934097
 20
274.9070898763454
 30
0.0
 10
327.8535453216612
 20
274.8069648598595
 30
0.0
 10
327.9152950593519
 20
274.7083095836933
 30
0.0
 10
327.9239368224218
 20
274.5667719045616
 30
0.0
 10
327.9097810306881
 20
274.3878339732
 30
0.0
 10
327.8183925181173
 20
274.2011307071082
 30
0.0
 10
327.6717085804473
 20
274.0378327246525
 30
0.0
 10
327.4895902354109
 20
273.9071311491577
 30
0.0
 10
327.2975401587294
 20
273.8045337781689
 30
0.0
 10
327.1602627099309
 20
273.8035115145739
 30
0.0
 10
327.1006864789902
 20
273.8030678684211
 30
0.0
  0
HATCH
  5
173A
330
18
100
AcDbEntity
  8
ROGO
 62
     4
100
AcDbHatch
 10
0.0
 20
0.0
 30
0.0
210
0.0
220
0.0
230
1.0
  2
SOLID
 70
     1
 71
     1
 91
        2
 92
        5
 93
        6
 72
     4
 94
        3
 73
     0
 74
     0
 95
       38
 96
       34
 40
0.0
 40
0.0
 40
0.0
 40
0.0
 40
0.1716253587406623
 40
0.2255253290976248
 40
0.2947831262912113
 40
0.352498070257192
 40
0.401194707389018
 40
0.4658749546664991
 40
0.4989240118098149
 40
0.5361459251283493
 40
0.5910040209698863
 40
0.6531463397142244
 40
0.6934574532944029
 40
0.7372488460652118
 40
0.7859279681112547
 40
0.8598010024797554
 40
0.9299880888722469
 40
0.962617715058074
 40
0.99982743872465
 40
1.043908673224191
 40
1.075288847593852
 40
1.101594470956001
 40
1.139152958423429
 40
1.180423302418936
 40
1.221693416627877
 40
1.257804824007385
 40
1.340506365805091
 40
1.373135991990864
 40
1.438395283121515
 40
1.496081593396144
 40
1.606517709645446
 40
1.74278444224538
 40
1.93957343352095
 40
1.93957343352095
 40
1.93957343352095
 40
1.93957343352095
 10
334.8856929290418
 20
275.0549984143641
 10
334.8284850527285
 20
275.0509570811619
 10
334.7533107007145
 20
275.0456465430973
 10
334.657856851117
 20
275.0194950341686
 10
334.6058239422494
 20
274.9883401659843
 10
334.5516733002853
 20
274.9654398445219
 10
334.5055048346629
 20
274.9315290096721
 10
334.4588064063757
 20
274.9140550831797
 10
334.4261067373722
 20
274.8825464704119
 10
334.3882595377628
 20
274.863299649797
 10
334.3581211407555
 20
274.8202196697992
 10
334.3244349610185
 20
274.7799414495851
 10
334.2853547546495
 20
274.7505401451695
 10
334.2532811047906
 20
274.7196601734675
 10
334.2238579908437
 20
274.6720030987551
 10
334.2064440751386
 20
274.6086809583987
 10
334.1573571697252
 20
274.5687016426174
 10
334.1499662186649
 20
274.5206345760905
 10
334.1228147543766
 20
274.4922758156895
 10
334.1110083480995
 20
274.4556687301022
 10
334.106511900289
 20
274.4221301735408
 10
334.1011150907383
 20
274.3908074834294
 10
334.0869980590335
 20
274.3578573970503
 10
334.0916059068888
 20
274.3171553568771
 10
334.0902932693721
 20
274.2777422204107
 10
334.0910657580915
 20
274.2245332588848
 10
334.0882777393196
 20
274.1727277915014
 10
334.1105110964591
 20
274.1163511556283
 10
334.123668059368
 20
274.0660991842002
 10
334.1597005425634
 20
273.9965192360173
 10
334.221855820966
 20
273.916239020422
 10
334.3400492820176
 20
273.8187940491048
 10
334.453695750495
 20
273.80890871036
 10
334.5208447958063
 20
273.8030678684211
 72
     1
 10
334.5208447958062
 20
273.8030678684211
 11
335.2333431144183
 21
273.8030678684211
 72
     4
 94
        3
 73
     0
 74
     0
 95
       11
 96
        7
 40
0.1647869275458135
 40
0.1647869275458135
 40
0.1647869275458135
 40
0.1647869275458135
 40
0.2545010798212315
 40
0.5111620267764023
 40
0.7602998271033902
 40
0.8850764140209603
 40
0.8850764140209603
 40
0.8850764140209603
 40
0.8850764140209603
 10
335.233343114417
 20
273.8030678684211
 10
335.2432853802036
 20
273.8028762599545
 10
335.2816712224708
 20
273.8021364836768
 10
335.3472730870286
 20
273.8115609627488
 10
335.4162949878447
 20
273.8205922512673
 10
335.4574439524041
 20
273.8271694661746
 10
335.470715506142
 20
273.8308636082159
 72
     4
 94
        3
 73
     0
 74
     0
 95
        9
 96
        5
 40
0.0
 40
0.0
 40
0.0
 40
0.0
 40
0.1078348623950619
 40
0.2528255661270943
 40
0.2528255661270943
 40
0.2528255661270943
 40
0.2528255661270943
 10
335.470715506142
 20
273.8308636082159
 10
335.5053551838651
 20
273.8414613932345
 10
335.5865700705563
 20
273.8663085617432
 10
335.6536721711658
 20
273.9188233630477
 10
335.6921539629336
 20
273.9489396132122
 72
     4
 94
        3
 73
     0
 74
     0
 95
       25
 96
       21
 40
0.0
 40
0.0
 40
0.0
 40
0.0
 40
0.165525918914855
 40
0.3412380755365305
 40
0.5940540902285263
 40
0.7697671103696209
 40
0.9377330196075423
 40
1.11479469302833
 40
1.274661249598185
 40
1.574522170874768
 40
1.815540668866877
 40
2.15849091873445
 40
2.536227739636605
 40
2.738070817316548
 40
2.925680654369045
 40
3.162706124480894
 40
3.395643218188267
 40
3.648478129958861
 40
3.928509979727306
 40
4.337226830236035
 40
4.337226830236035
 40
4.337226830236035
 40
4.337226830236035
 10
335.6921539629336
 20
273.9489396132122
 10
335.7062933983323
 20
273.9606239222236
 10
335.7331120414487
 20
273.988413658163
 10
335.780679321091
 20
274.0334546285482
 10
335.8225965099397
 20
274.0859309332833
 10
335.8743043802172
 20
274.1284611391628
 10
335.9012233358212
 20
274.180457468562
 10
335.9400248854151
 20
274.2213514741102
 10
335.9725730317267
 20
274.2845082318693
 10
336.0001885252156
 20
274.357055339373
 10
336.0265160850288
 20
274.451619115288
 10
336.0366050775507
 20
274.5583011107581
 10
336.0216721139469
 20
274.6615158878369
 10
335.9855978487877
 20
274.7386655433552
 10
335.9590765066812
 20
274.8029618299392
 10
335.9188270473616
 20
274.8638617342462
 10
335.8729078542646
 20
274.9300971149948
 10
335.808215842279
 20
274.9848844981129
 10
335.7236700246947
 20
275.0509669106727
 10
335.6449219086028
 20
275.0534970064243
 10
335.5981912476525
 20
275.0549984143641
 72
     1
 10
335.5981912476524
 20
275.0549984143641
 11
334.8856929290418
 21
275.0549984143641
 97
        6
330
1740
330
173F
330
1741
330
173E
330
173D
330
173C
 92
       20
 93
        1
 72
     3
 10
335.0494289410499
 20
274.411578073142
 11
0.1692676504802256
 21
0.148849717495386
 40
0.6788083417438791
 50
0.0
 51
360.0
 73
     1
 97
        1
330
173B
 75
     0
 76
     1
 47
0.088756267210375
 98
        2
 10
335.0992084140484
 20
274.7092101806896
 10
335.0992084140484
 20
274.7092101806896
450
        0
451
        0
460
0.0
461
0.0
452
        0
462
0.0
453
        0
470

  0
ELLIPSE
  5
173B
102
{ACAD_REACTORS
330
173A
102
}
330
18
100
AcDbEntity
  8
ROGO
 62
     4
100
AcDbEllipse
 10
335.0494289410499
 20
274.411578073142
 30
0.0
 11
0.1692676504802256
 21
0.148849717495386
 31
0.0
210
0.0
220
0.0
230
1.0
 40
0.6788083417438791
 41
0.0
 42
6.283185307179586
  0
SPLINE
  5
173C
102
{ACAD_REACTORS
330
173A
102
}
330
18
100
AcDbEntity
  8
ROGO
 62
     4
100
AcDbSpline
210
0.0
220
0.0
230
1.0
 70
     8
 71
     3
 72
     9
 73
     5
 74
     3
 42
0.0000000001
 43
0.0000000001
 44
0.0000000001
 40
0.0
 40
0.0
 40
0.0
 40
0.0
 40
0.1078348623950619
 40
0.2528255661270943
 40
0.2528255661270943
 40
0.2528255661270943
 40
0.2528255661270943
 10
335.470715506142
 20
273.8308636082159
 30
0.0
 10
335.5053551838651
 20
273.8414613932345
 30
0.0
 10
335.5865700705563
 20
273.8663085617432
 30
0.0
 10
335.6536721711658
 20
273.9188233630477
 30
0.0
 10
335.6921539629336
 20
273.9489396132122
 30
0.0
 11
335.470715506142
 21
273.8308636082159
 31
0.0
 11
335.5720671651924
 21
273.8676902121254
 31
0.0
 11
335.6921539629336
 21
273.9489396132122
 31
0.0
  0
SPLINE
  5
173D
102
{ACAD_REACTORS
330
173A
102
}
330
18
100
AcDbEntity
  8
ROGO
 62
     4
100
AcDbSpline
210
0.0
220
0.0
230
1.0
 70
     8
 71
     3
 72
    11
 73
     7
 74
     0
 42
0.0000000001
 43
0.0000000001
 40
0.1647869275458134
 40
0.1647869275458134
 40
0.1647869275458134
 40
0.1647869275458134
 40
0.2895635144633836
 40
0.5387013147903714
 40
0.7953622617455423
 40
0.8850764140209602
 40
0.8850764140209602
 40
0.8850764140209602
 40
0.8850764140209602
 10
335.470715506142
 20
273.8308636082159
 30
0.0
 10
335.4574439524041
 20
273.8271694661746
 30
0.0
 10
335.4162949878447
 20
273.8205922512673
 30
0.0
 10
335.3472730870286
 20
273.8115609627488
 30
0.0
 10
335.2816712224708
 20
273.8021364836768
 30
0.0
 10
335.2432853802036
 20
273.8028762599545
 30
0.0
 10
335.233343114417
 20
273.8030678684211
 30
0.0
  0
LINE
  5
173E
102
{ACAD_REACTORS
330
173A
102
}
330
18
100
AcDbEntity
  8
ROGO
 62
     4
100
AcDbLine
 10
334.5208447958063
 20
273.8030678684211
 30
0.0
 11
335.233343114417
 21
273.8030678684211
 31
0.0
  0
LINE
  5
173F
102
{ACAD_REACTORS
330
173A
102
}
330
18
100
AcDbEntity
  8
ROGO
 62
     4
100
AcDbLine
 10
334.8856929290418
 20
275.0549984143641
 30
0.0
 11
335.5981912476525
 21
275.0549984143641
 31
0.0
  0
SPLINE
  5
1740
102
{ACAD_REACTORS
330
173A
102
}
330
18
100
AcDbEntity
  8
ROGO
 62
     4
100
AcDbSpline
210
0.0
220
0.0
230
1.0
 70
     8
 71
     3
 72
    25
 73
    21
 74
     0
 42
0.0000000001
 43
0.0000000001
 40
0.0
 40
0.0
 40
0.0
 40
0.0
 40
0.4087168505087288
 40
0.6887487002771746
 40
0.9415836120477687
 40
1.17452070575514
 40
1.41154617586699
 40
1.599156012919487
 40
1.80099909059943
 40
2.178735911501585
 40
2.521686161369157
 40
2.762704659361267
 40
3.06256558063785
 40
3.222432137207705
 40
3.399493810628493
 40
3.567459719866414
 40
3.743172740007509
 40
3.995988754699505
 40
4.17170091132118
 40
4.337226830236035
 40
4.337226830236035
 40
4.337226830236035
 40
4.337226830236035
 10
335.5981912476525
 20
275.0549984143641
 30
0.0
 10
335.6449219086028
 20
275.0534970064243
 30
0.0
 10
335.7236700246947
 20
275.0509669106727
 30
0.0
 10
335.808215842279
 20
274.9848844981129
 30
0.0
 10
335.8729078542646
 20
274.9300971149948
 30
0.0
 10
335.9188270473616
 20
274.8638617342462
 30
0.0
 10
335.9590765066812
 20
274.8029618299392
 30
0.0
 10
335.9855978487877
 20
274.7386655433552
 30
0.0
 10
336.0216721139469
 20
274.6615158878369
 30
0.0
 10
336.0366050775507
 20
274.5583011107581
 30
0.0
 10
336.0265160850288
 20
274.451619115288
 30
0.0
 10
336.0001885252156
 20
274.357055339373
 30
0.0
 10
335.9725730317267
 20
274.2845082318693
 30
0.0
 10
335.9400248854151
 20
274.2213514741102
 30
0.0
 10
335.9012233358212
 20
274.180457468562
 30
0.0
 10
335.8743043802172
 20
274.1284611391628
 30
0.0
 10
335.8225965099397
 20
274.0859309332833
 30
0.0
 10
335.780679321091
 20
274.0334546285482
 30
0.0
 10
335.7331120414487
 20
273.988413658163
 30
0.0
 10
335.7062933983323
 20
273.9606239222236
 30
0.0
 10
335.6921539629336
 20
273.9489396132122
 30
0.0
  0
SPLINE
  5
1741
102
{ACAD_REACTORS
330
173A
102
}
330
18
100
AcDbEntity
  8
ROGO
 62
     4
100
AcDbSpline
210
0.0
220
0.0
230
1.0
 70
     8
 71
     3
 72
    38
 73
    34
 74
    32
 42
0.0000000001
 43
0.0000000001
 44
0.0000000001
 40
0.0
 40
0.0
 40
0.0
 40
0.0
 40
0.1716253587406623
 40
0.2255253290976248
 40
0.2947831262912113
 40
0.352498070257192
 40
0.401194707389018
 40
0.4658749546664991
 40
0.4989240118098149
 40
0.5361459251283493
 40
0.5910040209698863
 40
0.6531463397142244
 40
0.6934574532944029
 40
0.7372488460652118
 40
0.7859279681112547
 40
0.8598010024797554
 40
0.9299880888722469
 40
0.962617715058074
 40
0.99982743872465
 40
1.043908673224191
 40
1.075288847593852
 40
1.101594470956001
 40
1.139152958423429
 40
1.180423302418936
 40
1.221693416627877
 40
1.257804824007385
 40
1.340506365805091
 40
1.373135991990864
 40
1.438395283121515
 40
1.496081593396144
 40
1.606517709645446
 40
1.74278444224538
 40
1.93957343352095
 40
1.93957343352095
 40
1.93957343352095
 40
1.93957343352095
 10
334.8856929290418
 20
275.0549984143641
 30
0.0
 10
334.8284850527285
 20
275.0509570811619
 30
0.0
 10
334.7533107007145
 20
275.0456465430973
 30
0.0
 10
334.657856851117
 20
275.0194950341686
 30
0.0
 10
334.6058239422494
 20
274.9883401659843
 30
0.0
 10
334.5516733002853
 20
274.9654398445219
 30
0.0
 10
334.5055048346629
 20
274.9315290096721
 30
0.0
 10
334.4588064063757
 20
274.9140550831797
 30
0.0
 10
334.4261067373722
 20
274.8825464704119
 30
0.0
 10
334.3882595377628
 20
274.863299649797
 30
0.0
 10
334.3581211407555
 20
274.8202196697992
 30
0.0
 10
334.3244349610185
 20
274.7799414495851
 30
0.0
 10
334.2853547546495
 20
274.7505401451695
 30
0.0
 10
334.2532811047906
 20
274.7196601734675
 30
0.0
 10
334.2238579908437
 20
274.6720030987551
 30
0.0
 10
334.2064440751386
 20
274.6086809583987
 30
0.0
 10
334.1573571697252
 20
274.5687016426174
 30
0.0
 10
334.1499662186649
 20
274.5206345760905
 30
0.0
 10
334.1228147543766
 20
274.4922758156895
 30
0.0
 10
334.1110083480995
 20
274.4556687301022
 30
0.0
 10
334.106511900289
 20
274.4221301735408
 30
0.0
 10
334.1011150907383
 20
274.3908074834294
 30
0.0
 10
334.0869980590335
 20
274.3578573970503
 30
0.0
 10
334.0916059068888
 20
274.3171553568771
 30
0.0
 10
334.0902932693721
 20
274.2777422204107
 30
0.0
 10
334.0910657580915
 20
274.2245332588848
 30
0.0
 10
334.0882777393196
 20
274.1727277915014
 30
0.0
 10
334.1105110964591
 20
274.1163511556283
 30
0.0
 10
334.123668059368
 20
274.0660991842002
 30
0.0
 10
334.1597005425634
 20
273.9965192360173
 30
0.0
 10
334.221855820966
 20
273.916239020422
 30
0.0
 10
334.3400492820176
 20
273.8187940491048
 30
0.0
 10
334.453695750495
 20
273.80890871036
 30
0.0
 10
334.5208447958063
 20
273.8030678684211
 30
0.0
 11
334.8856929290418
 21
275.0549984143641
 31
0.0
 11
334.715312622968
 21
275.0343631274731
 31
0.0
 11
334.6636822394801
 21
275.0188870069846
 31
0.0
 11
334.6017260226752
 21
274.9879343064346
 31
0.0
 11
334.5500956391873
 21
274.9621405425007
 31
0.0
 11
334.5087914946507
 21
274.9363465487801
 31
0.0
 11
334.4519981945044
 21
274.9053940780167
 31
0.0
 11
334.426182799943
 21
274.8847590209122
 31
0.0
 11
334.3952044887235
 21
274.8641237340211
 31
0.0
 11
334.3590632608453
 21
274.8228536198122
 31
0.0
 11
334.3177591163088
 21
274.7764247987737
 31
0.0
 11
334.2867808050891
 21
274.7506308050533
 31
0.0
 11
334.2558028995039
 21
274.7196783342898
 31
0.0
 11
334.2299875049426
 21
274.6784082200808
 31
0.0
 11
334.1990095993576
 21
274.6113441121514
 31
0.0
 11
334.1577050491864
 21
274.5545976476674
 31
0.0
 11
334.1473792158696
 21
274.5236449471174
 31
0.0
 11
334.1267271436013
 21
274.4926924763539
 31
0.0
 11
334.1112379879915
 21
274.4514221323584
 31
0.0
 11
334.1060746656986
 21
274.4204696615949
 31
0.0
 11
334.1009117490401
 21
274.3946756678745
 31
0.0
 11
334.0905859157232
 21
274.3585644902815
 31
0.0
 11
334.0905859157232
 21
274.317294146286
 31
0.0
 11
334.0905859157232
 21
274.276024032077
 31
0.0
 11
334.0905859157232
 21
274.2399126246975
 31
0.0
 11
334.0957488323817
 21
274.1573723962795
 31
0.0
 11
334.1060746656986
 21
274.1264196957295
 31
0.0
 11
334.1267271436013
 21
274.0645145244161
 31
0.0
 11
334.1525421325281
 21
274.0129267667616
 31
0.0
 11
334.2196616716258
 21
273.9252278315142
 31
0.0
 11
334.3280853552602
 21
273.8426873733097
 31
0.0
 11
334.5208447958063
 21
273.8030678684211
 31
0.0
  0
HATCH
  5
1742
330
18
100
AcDbEntity
  8
ROGO
 62
     4
100
AcDbHatch
 10
0.0
 20
0.0
 30
0.0
210
0.0
220
0.0
230
1.0
  2
SOLID
 70
     1
 71
     1
 91
        1
 92
        5
 93
        8
 72
     4
 94
        3
 73
     0
 74
     0
 95
       26
 96
       22
 40
0.0
 40
0.0
 40
0.0
 40
0.0
 40
0.2261711682465229
 40
0.3775752524709292
 40
0.4867499270747143
 40
0.568267124049349
 40
0.6739992068899219
 40
0.7511733198246508
 40
0.8905317800930927
 40
1.003967563249621
 40
1.081122071918995
 40
1.156776017963945
 40
1.292106219407766
 40
1.38780082415581
 40
1.439339762213746
 40
1.512549301287572
 40
1.565415552119695
 40
1.642001295672594
 40
1.68534220200602
 40
1.779656875742671
 40
1.822721775074878
 40
1.822721775074878
 40
1.822721775074878
 40
1.822721775074878
 10
336.9618994223552
 20
275.0497982150575
 10
336.8851334333146
 20
275.0452182245115
 10
336.7569785587658
 20
275.0375722849335
 10
336.6162652861135
 20
274.9520904829457
 10
336.5131705047621
 20
274.9023951197591
 10
336.4396434317308
 20
274.8348385072732
 10
336.3857477891423
 20
274.7650574614922
 10
336.3178022138211
 20
274.6819138570922
 10
336.2623945386937
 20
274.5850964942655
 10
336.2341787782007
 20
274.4783868819546
 10
336.2091855253526
 20
274.3933387017941
 10
336.1906501106302
 20
274.298563604019
 10
336.1953660448664
 20
274.1961731582861
 10
336.2021194785238
 20
274.1010781541354
 10
336.232271917585
 20
274.0331945588461
 10
336.2666102047589
 20
273.9848661168035
 10
336.308656967143
 20
273.9316376958157
 10
336.3546653200629
 20
273.8963846849556
 10
336.3927179833904
 20
273.8325214868374
 10
336.4593278868639
 20
273.8243720821732
 10
336.5016677914858
 20
273.8081523346193
 10
336.5149402430559
 20
273.8030678684211
 72
     1
 10
336.5149402430558
 20
273.8030678684211
 11
337.5887655026439
 21
273.803067868421
 72
     1
 10
337.5887655026439
 20
273.803067868421
 11
337.8200608848599
 21
274.2669274772163
 72
     1
 10
337.8200608848599
 20
274.2669274772163
 11
337.0228481889455
 21
274.2669274772163
 72
     4
 94
        3
 73
     0
 74
     0
 95
       16
 96
       12
 40
0.0
 40
0.0
 40
0.0
 40
0.0
 40
0.0683030918787657
 40
0.1373106805328135
 40
0.1784706056910715
 40
0.2179345026856072
 40
0.261275236818835
 40
0.2915411730567379
 40
0.3202609197925513
 40
0.3785004428982377
 40
0.4977391777072823
 40
0.4977391777072823
 40
0.4977391777072823
 40
0.4977391777072823
 10
337.0228481889455
 20
274.2669274772161
 10
336.9988014446153
 20
274.2740023819867
 10
336.9504599312552
 20
274.2882251640312
 10
336.9464141369537
 20
274.3571719863536
 10
336.9519259463649
 20
274.4063022391575
 10
336.9750094164898
 20
274.4420719322209
 10
337.0030136695258
 20
274.4680990902771
 10
337.0134408949541
 20
274.5019953941401
 10
337.0440907740819
 20
274.5275913443541
 10
337.0984412222418
 20
274.5706145611468
 10
337.1585434092867
 20
274.5797775450323
 10
337.1989230525552
 20
274.5859336940639
 72
     1
 10
337.1989230525552
 20
274.5859336940639
 11
337.9791276875219
 21
274.5859336940638
 72
     1
 10
337.9791276875219
 20
274.5859336940638
 11
338.2104255191186
 21
275.0497982150574
 72
     1
 10
338.2104255191186
 20
275.0497982150574
 11
336.9618994223553
 21
275.0497982150575
 97
        8
330
174B
330
1749
330
174C
330
1748
330
1747
330
174A
330
1746
330
1745
 75
     0
 76
     1
 47
0.0514683685270805
 98
        1
 10
337.1773401092021
 20
274.8215176480901
450
        0
451
        0
460
0.0
461
0.0
452
        0
462
0.0
453
        0
470

  0
LINE
  5
1743
102
{ACAD_REACTORS
330
170D
102
}
330
18
100
AcDbEntity
  8
ROGO
 62
     4
100
AcDbLine
 10
338.471542673856
 20
273.6101732663383
 30
0.0
 11
338.2179998659733
 21
273.1016967608824
 31
0.0
  0
LINE
  5
1744
102
{ACAD_REACTORS
330
170D
102
}
330
18
100
AcDbEntity
  8
ROGO
 62
     4
100
AcDbLine
 10
338.471542673856
 20
275.0497982150575
 30
0.0
 11
337.5001563709843
 21
273.1016967608824
 31
0.0
  0
LINE
  5
1745
102
{ACAD_REACTORS
330
1742
102
}
330
18
100
AcDbEntity
  8
ROGO
 62
     4
100
AcDbLine
 10
338.2104255191186
 20
275.0497982150575
 30
0.0
 11
337.9791276875219
 21
274.5859336940639
 31
0.0
  0
LINE
  5
1746
102
{ACAD_REACTORS
330
1742
102
}
330
18
100
AcDbEntity
  8
ROGO
 62
     4
100
AcDbLine
 10
337.1989230525552
 20
274.5859336940639
 30
0.0
 11
337.9791276875219
 21
274.5859336940639
 31
0.0
  0
LINE
  5
1747
102
{ACAD_REACTORS
330
1742
102
}
330
18
100
AcDbEntity
  8
ROGO
 62
     4
100
AcDbLine
 10
337.0228481889456
 20
274.2669274772163
 30
0.0
 11
337.8200608848599
 21
274.2669274772163
 31
0.0
  0
LINE
  5
1748
102
{ACAD_REACTORS
330
1742
102
}
330
18
100
AcDbEntity
  8
ROGO
 62
     4
100
AcDbLine
 10
337.8200608848599
 20
274.2669274772163
 30
0.0
 11
337.5887655026439
 21
273.8030678684211
 31
0.0
  0
SPLINE
  5
1749
102
{ACAD_REACTORS
330
1742
102
}
330
18
100
AcDbEntity
  8
ROGO
 62
     4
100
AcDbSpline
210
0.0
220
0.0
230
1.0
 70
     8
 71
     3
 72
    26
 73
    22
 74
    20
 42
0.0000000001
 43
0.0000000001
 44
0.0000000001
 40
0.0
 40
0.0
 40
0.0
 40
0.0
 40
0.2261711682465229
 40
0.3775752524709292
 40
0.4867499270747143
 40
0.568267124049349
 40
0.6739992068899219
 40
0.7511733198246508
 40
0.8905317800930927
 40
1.003967563249621
 40
1.081122071918995
 40
1.156776017963945
 40
1.292106219407766
 40
1.38780082415581
 40
1.439339762213746
 40
1.512549301287572
 40
1.565415552119695
 40
1.642001295672594
 40
1.68534220200602
 40
1.779656875742671
 40
1.822721775074878
 40
1.822721775074878
 40
1.822721775074878
 40
1.822721775074878
 10
336.9618994223552
 20
275.0497982150575
 30
0.0
 10
336.8851334333146
 20
275.0452182245115
 30
0.0
 10
336.7569785587658
 20
275.0375722849335
 30
0.0
 10
336.6162652861135
 20
274.9520904829457
 30
0.0
 10
336.5131705047621
 20
274.9023951197591
 30
0.0
 10
336.4396434317308
 20
274.8348385072732
 30
0.0
 10
336.3857477891423
 20
274.7650574614922
 30
0.0
 10
336.3178022138211
 20
274.6819138570922
 30
0.0
 10
336.2623945386937
 20
274.5850964942655
 30
0.0
 10
336.2341787782007
 20
274.4783868819546
 30
0.0
 10
336.2091855253526
 20
274.3933387017941
 30
0.0
 10
336.1906501106302
 20
274.298563604019
 30
0.0
 10
336.1953660448664
 20
274.1961731582861
 30
0.0
 10
336.2021194785238
 20
274.1010781541354
 30
0.0
 10
336.232271917585
 20
274.0331945588461
 30
0.0
 10
336.2666102047589
 20
273.9848661168035
 30
0.0
 10
336.308656967143
 20
273.9316376958157
 30
0.0
 10
336.3546653200629
 20
273.8963846849556
 30
0.0
 10
336.3927179833904
 20
273.8325214868374
 30
0.0
 10
336.4593278868639
 20
273.8243720821732
 30
0.0
 10
336.5016677914858
 20
273.8081523346193
 30
0.0
 10
336.5149402430559
 20
273.8030678684211
 30
0.0
 11
336.9618994223552
 21
275.0497982150575
 31
0.0
 11
336.7384198327055
 21
275.0150092749183
 31
0.0
 11
336.6029774801561
 21
274.9473441741964
 31
0.0
 11
336.5081680280761
 21
274.893212137738
 31
0.0
 11
336.4472192614857
 21
274.8390798806844
 31
0.0
 11
336.3794982799157
 21
274.7578817156991
 31
0.0
 11
336.3320935538756
 21
274.6969831471089
 31
0.0
 11
336.2643721828963
 21
274.5751857893335
 31
0.0
 11
336.2305118868158
 21
274.4669214958214
 31
0.0
 11
336.2101956312857
 21
274.3924898629678
 31
0.0
 11
336.1966512013262
 21
274.3180582301143
 31
0.0
 11
336.1966512013262
 21
274.1827280286705
 31
0.0
 11
336.2101956312857
 21
274.0879967994218
 31
0.0
 11
336.2305118868158
 21
274.0406310744999
 31
0.0
 11
336.271144397876
 21
273.9797325059097
 31
0.0
 11
336.3050050833658
 21
273.9391333131195
 31
0.0
 11
336.3591816349763
 21
273.8850012766611
 31
0.0
 11
336.3862701054862
 21
273.8511686160026
 31
0.0
 11
336.4743077319956
 21
273.8173361759391
 31
0.0
 11
336.5149402430559
 21
273.8030678684211
 31
0.0
  0
SPLINE
  5
174A
102
{ACAD_REACTORS
330
1742
102
}
330
18
100
AcDbEntity
  8
ROGO
 62
     4
100
AcDbSpline
210
0.0
220
0.0
230
1.0
 70
     8
 71
     3
 72
    16
 73
    12
 74
    10
 42
0.0000000001
 43
0.0000000001
 44
0.0000000001
 40
0.0
 40
0.0
 40
0.0
 40
0.0
 40
0.1192387348090446
 40
0.177478257914731
 40
0.2061980046505444
 40
0.2364639408884473
 40
0.2798046750216751
 40
0.3192685720162108
 40
0.3604284971744688
 40
0.4294360858285167
 40
0.4977391777072823
 40
0.4977391777072823
 40
0.4977391777072823
 40
0.4977391777072823
 10
337.1989230525552
 20
274.5859336940639
 30
0.0
 10
337.1585434092867
 20
274.5797775450323
 30
0.0
 10
337.0984412222418
 20
274.5706145611468
 30
0.0
 10
337.0440907740819
 20
274.5275913443541
 30
0.0
 10
337.0134408949541
 20
274.5019953941401
 30
0.0
 10
337.0030136695258
 20
274.4680990902771
 30
0.0
 10
336.9750094164898
 20
274.4420719322209
 30
0.0
 10
336.9519259463649
 20
274.4063022391575
 30
0.0
 10
336.9464141369537
 20
274.3571719863536
 30
0.0
 10
336.9504599312552
 20
274.2882251640312
 30
0.0
 10
336.9988014446153
 20
274.2740023819867
 30
0.0
 10
337.0228481889455
 20
274.2669274772161
 30
0.0
 11
337.1989230525552
 21
274.5859336940639
 31
0.0
 11
337.0837973449451
 21
274.5548861929385
 31
0.0
 11
337.0363926189051
 21
274.5210537528749
 31
0.0
 11
337.016076363375
 21
274.5007541564798
 31
0.0
 11
337.0025319334154
 21
274.4736880279531
 31
0.0
 11
336.9754434629056
 21
274.4398555878897
 31
0.0
 11
336.9551272073754
 21
274.4060229272312
 31
0.0
 11
336.9483549923957
 21
274.3654239550361
 31
0.0
 11
336.9618994223552
 21
274.2977586337192
 31
0.0
 11
337.0228481889455
 21
274.2669274772161
 31
0.0
  0
LINE
  5
174B
102
{ACAD_REACTORS
330
1742
102
}
330
18
100
AcDbEntity
  8
ROGO
 62
     4
100
AcDbLine
 10
336.9618994223555
 20
275.0497982150575
 30
0.0
 11
338.2104255191186
 21
275.0497982150575
 31
0.0
  0
LINE
  5
174C
102
{ACAD_REACTORS
330
1742
102
}
330
18
100
AcDbEntity
  8
ROGO
 62
     4
100
AcDbLine
 10
336.5149402430558
 20
273.8030678684211
 30
0.0
 11
337.5887655026439
 21
273.8030678684211
 31
0.0
  0
LINE
  5
174D
102
{ACAD_REACTORS
330
171C
102
}
330
18
100
AcDbEntity
  8
ROGO
 62
     4
100
AcDbLine
 10
332.9448233484204
 20
275.0497982150576
 30
0.0
 11
334.1933494451835
 21
275.0497982150576
 31
0.0
  0
LINE
  5
174E
102
{ACAD_REACTORS
330
171C
102
}
330
18
100
AcDbEntity
  8
ROGO
 62
     4
100
AcDbLine
 10
333.8029848109247
 20
274.2669274772163
 30
0.0
 11
333.5716894287086
 21
273.8030678684211
 31
0.0
  0
SPLINE
  5
174F
102
{ACAD_REACTORS
330
171C
102
}
330
18
100
AcDbEntity
  8
ROGO
 62
     4
100
AcDbSpline
210
0.0
220
0.0
230
1.0
 70
     8
 71
     3
 72
    16
 73
    12
 74
    10
 42
0.0000000001
 43
0.0000000001
 44
0.0000000001
 40
0.0
 40
0.0
 40
0.0
 40
0.0
 40
0.1192387348090995
 40
0.1774782579147198
 40
0.2061980046505734
 40
0.2364639408884763
 40
0.2798046750216953
 40
0.3192685720162602
 40
0.3604284971745742
 40
0.4294360858286333
 40
0.4977391777073984
 40
0.4977391777073984
 40
0.4977391777073984
 40
0.4977391777073984
 10
333.18184697862
 20
274.5859336940639
 30
0.0
 10
333.1414673353516
 20
274.5797775450323
 30
0.0
 10
333.0813651483067
 20
274.5706145611468
 30
0.0
 10
333.0270147001465
 20
274.5275913443542
 30
0.0
 10
332.996364821019
 20
274.5019953941401
 30
0.0
 10
332.9859375955907
 20
274.4680990902771
 30
0.0
 10
332.9579333425545
 20
274.4420719322209
 30
0.0
 10
332.9348498724296
 20
274.4063022391576
 30
0.0
 10
332.9293380630184
 20
274.3571719863536
 30
0.0
 10
332.93338385732
 20
274.2882251640312
 30
0.0
 10
332.9817253706801
 20
274.2740023819869
 30
0.0
 10
333.0057721150104
 20
274.2669274772163
 30
0.0
 11
333.18184697862
 21
274.5859336940639
 31
0.0
 11
333.0667212710098
 21
274.5548861929385
 31
0.0
 11
333.0193165449699
 21
274.521053752875
 31
0.0
 11
332.9990002894398
 21
274.5007541564798
 31
0.0
 11
332.9854558594802
 21
274.4736880279531
 31
0.0
 11
332.9583673889703
 21
274.4398555878897
 31
0.0
 11
332.9380511334401
 21
274.4060229272313
 31
0.0
 11
332.9312789184604
 21
274.3654239550361
 31
0.0
 11
332.94482334842
 21
274.2977586337192
 31
0.0
 11
333.0057721150104
 21
274.2669274772163
 31
0.0
  0
LINE
  5
1750
102
{ACAD_REACTORS
330
171C
102
}
330
18
100
AcDbEntity
  8
ROGO
 62
     4
100
AcDbLine
 10
333.0057721150104
 20
274.2669274772163
 30
0.0
 11
333.8029848109247
 21
274.2669274772163
 31
0.0
  0
LINE
  5
1751
102
{ACAD_REACTORS
330
171C
102
}
330
18
100
AcDbEntity
  8
ROGO
 62
     4
100
AcDbLine
 10
333.1818469786199
 20
274.5859336940639
 30
0.0
 11
333.9620516135866
 21
274.5859336940639
 31
0.0
  0
LINE
  5
1752
102
{ACAD_REACTORS
330
171C
102
}
330
18
100
AcDbEntity
  8
ROGO
 62
     4
100
AcDbLine
 10
334.1933494451835
 20
275.0497982150575
 30
0.0
 11
333.9620516135866
 21
274.5859336940639
 31
0.0
  0
LINE
  5
1753
102
{ACAD_REACTORS
330
170D
102
}
330
18
100
AcDbEntity
  8
ROGO
 62
     4
100
AcDbLine
 10
338.7250854817388
 20
273.1016967608824
 30
0.0
 11
339.4429132708893
 21
273.1016967608824
 31
0.0
  0
LINE
  5
1754
102
{ACAD_REACTORS
330
170D
102
}
330
18
100
AcDbEntity
  8
ROGO
 62
     4
100
AcDbLine
 10
339.4194388086809
 20
275.0497982150575
 30
0.0
 11
340.1372665978315
 21
275.0497982150575
 31
0.0
  0
LINE
  5
1755
102
{ACAD_REACTORS
330
170D
102
}
330
18
100
AcDbEntity
  8
ROGO
 62
     4
100
AcDbLine
 10
338.9572201194535
 20
274.07574748797
 30
0.0
 11
340.1372665978315
 21
275.0497982150575
 31
0.0
  0
LINE
  5
1756
102
{ACAD_REACTORS
330
170D
102
}
330
18
100
AcDbEntity
  8
ROGO
 62
     4
100
AcDbLine
 10
338.9572201194535
 20
274.07574748797
 30
0.0
 11
339.4429132708893
 21
273.1016967608824
 31
0.0
  0
LINE
  5
1757
102
{ACAD_REACTORS
330
170D
102
}
330
18
100
AcDbEntity
  8
ROGO
 62
     4
100
AcDbLine
 10
339.0833305516941
 20
274.8371051789459
 30
0.0
 11
339.4194388086809
 21
275.0497982150575
 31
0.0
  0
LINE
  5
1758
102
{ACAD_REACTORS
330
170D
102
}
330
18
100
AcDbEntity
  8
ROGO
 62
     4
100
AcDbLine
 10
339.189386168845
 20
275.0497982150575
 30
0.0
 11
339.0833305516941
 21
274.8371051789459
 31
0.0
  0
TEXT
  5
1759
330
18
100
AcDbEntity
  8
文字
100
AcDbText
 10
337.9503825095522
 20
283.1366527679065
 30
0.0
 40
1.0
  1
0.001mm
  7
STYLE3
100
AcDbText
  0
POINT
  5
175A
330
18
100
AcDbEntity
  8
DEFPOINTS
  6
ByBlock
 62
     0
100
AcDbPoint
 10
332.5312918449021
 20
284.1729430023191
 30
0.0
  0
POINT
  5
175B
330
18
100
AcDbEntity
  8
DEFPOINTS
  6
ByBlock
 62
     0
100
AcDbPoint
 10
332.5312918449021
 20
284.1729430023191
 30
0.0
  0
POINT
  5
175C
330
18
100
AcDbEntity
  8
DEFPOINTS
  6
ByBlock
 62
     0
100
AcDbPoint
 10
332.5312918449021
 20
284.1729430023191
 30
0.0
  0
POINT
  5
175E
330
18
100
AcDbEntity
  8
DEFPOINTS
  6
ByBlock
 62
     0
100
AcDbPoint
 10
332.5312918449021
 20
284.1729430023191
 30
0.0
  0
POINT
  5
175F
330
18
100
AcDbEntity
  8
DEFPOINTS
  6
ByBlock
 62
     0
100
AcDbPoint
 10
332.5312918449021
 20
284.1729430023191
 30
0.0
  0
POINT
  5
1760
330
18
100
AcDbEntity
  8
DEFPOINTS
  6
ByBlock
 62
     0
100
AcDbPoint
 10
332.5312918449021
 20
284.1729430023191
 30
0.0
  0
HATCH
  5
1761
330
18
100
AcDbEntity
  8
外形線
100
AcDbHatch
 10
0.0
 20
0.0
 30
0.0
210
0.0
220
0.0
230
1.0
  2
SOLID
 70
     1
 71
     1
 91
        2
 92
        1
 93
        7
 72
     1
 10
341.0367474490364
 20
285.6229430023191
 11
339.8700807823697
 21
285.1983110623418
 72
     1
 10
339.8700807823697
 20
285.1983110623418
 11
339.8700807823697
 21
285.5333596689857
 72
     1
 10
339.8700807823697
 20
285.5333596689857
 11
338.8700807823696
 21
285.5333596689857
 72
     1
 10
338.8700807823696
 20
285.5333596689857
 11
338.8700807823696
 21
285.7125263356524
 72
     1
 10
338.8700807823696
 20
285.7125263356524
 11
339.8700807823697
 21
285.7125263356524
 72
     1
 10
339.8700807823697
 20
285.7125263356524
 11
339.8700807823697
 21
286.0475749422963
 72
     1
 10
339.8700807823697
 20
286.0475749422963
 11
341.0367474490364
 21
285.6229430023191
 97
        7
330
1766
330
1769
330
176A
330
1765
330
1773
330
1772
330
1764
 92
        1
 93
        4
 72
     1
 10
341.0367474490364
 20
286.372943002319
 11
341.0367474490364
 21
284.872943002319
 72
     1
 10
341.0367474490364
 20
284.872943002319
 11
341.203414115703
 21
284.872943002319
 72
     1
 10
341.203414115703
 20
284.872943002319
 11
341.203414115703
 21
286.372943002319
 72
     1
 10
341.203414115703
 20
286.372943002319
 11
341.0367474490364
 21
286.372943002319
 97
        4
330
1763
330
176B
330
1762
330
1774
 75
     0
 76
     1
 98
        1
 10
433.3663041555166
 20
216.960792195138
450
        0
451
        0
460
0.0
461
0.0
452
        0
462
0.0
453
        0
470

  0
LINE
  5
1762
102
{ACAD_REACTORS
330
1761
102
}
330
18
100
AcDbEntity
  8
外形線
100
AcDbLine
 10
341.203414115703
 20
286.372943002319
 30
0.0
 11
341.203414115703
 21
284.872943002319
 31
0.0
  0
LINE
  5
1763
102
{ACAD_REACTORS
330
1761
102
}
330
18
100
AcDbEntity
  8
外形線
100
AcDbLine
 10
341.0367474490364
 20
286.372943002319
 30
0.0
 11
341.0367474490364
 21
284.872943002319
 31
0.0
  0
LINE
  5
1764
102
{ACAD_REACTORS
330
1761
102
}
330
18
100
AcDbEntity
  8
外形線
100
AcDbLine
 10
341.0367474490364
 20
285.6229430023191
 30
0.0
 11
339.8700807823697
 21
286.0475749422963
 31
0.0
  0
LINE
  5
1765
102
{ACAD_REACTORS
330
1761
102
}
330
18
100
AcDbEntity
  8
外形線
100
AcDbLine
 10
338.8700807823696
 20
285.7125263356524
 30
0.0
 11
338.8700807823696
 21
285.5333596689857
 31
0.0
  0
LINE
  5
1766
102
{ACAD_REACTORS
330
1761
102
}
330
18
100
AcDbEntity
  8
外形線
100
AcDbLine
 10
341.0367474490364
 20
285.6229430023191
 30
0.0
 11
339.8700807823697
 21
285.1983110623418
 31
0.0
  0
POINT
  5
1767
330
18
100
AcDbEntity
  8
DEFPOINTS
  6
ByBlock
 62
     0
100
AcDbPoint
 10
339.8700807823697
 20
285.1983110623418
 30
0.0
  0
POINT
  5
1768
330
18
100
AcDbEntity
  8
DEFPOINTS
  6
ByBlock
 62
     0
100
AcDbPoint
 10
339.8700807823697
 20
285.1983110623418
 30
0.0
  0
LINE
  5
1769
102
{ACAD_REACTORS
330
1761
102
}
330
18
100
AcDbEntity
  8
外形線
100
AcDbLine
 10
339.8700807823697
 20
285.5333596689857
 30
0.0
 11
339.8700807823697
 21
285.1983110623418
 31
0.0
  0
LINE
  5
176A
102
{ACAD_REACTORS
330
1761
102
}
330
18
100
AcDbEntity
  8
外形線
100
AcDbLine
 10
338.8700807823696
 20
285.5333596689857
 30
0.0
 11
339.8700807823697
 21
285.5333596689857
 31
0.0
  0
LINE
  5
176B
102
{ACAD_REACTORS
330
1761
102
}
330
18
100
AcDbEntity
  8
外形線
100
AcDbLine
 10
341.203414115703
 20
284.872943002319
 30
0.0
 11
341.0367474490364
 21
284.872943002319
 31
0.0
  0
POINT
  5
176C
330
18
100
AcDbEntity
  8
DEFPOINTS
  6
ByBlock
 62
     0
100
AcDbPoint
 10
341.0367474490364
 20
284.872943002319
 30
0.0
  0
POINT
  5
176D
330
18
100
AcDbEntity
  8
DEFPOINTS
  6
ByBlock
 62
     0
100
AcDbPoint
 10
341.203414115703
 20
284.872943002319
 30
0.0
  0
POINT
  5
176E
330
18
100
AcDbEntity
  8
DEFPOINTS
  6
ByBlock
 62
     0
100
AcDbPoint
 10
341.0367474490364
 20
284.872943002319
 30
0.0
  0
POINT
  5
176F
330
18
100
AcDbEntity
  8
DEFPOINTS
  6
ByBlock
 62
     0
100
AcDbPoint
 10
341.203414115703
 20
284.872943002319
 30
0.0
  0
POINT
  5
1770
330
18
100
AcDbEntity
  8
DEFPOINTS
  6
ByBlock
 62
     0
100
AcDbPoint
 10
339.8700807823697
 20
286.0475749422963
 30
0.0
  0
POINT
  5
1771
330
18
100
AcDbEntity
  8
DEFPOINTS
  6
ByBlock
 62
     0
100
AcDbPoint
 10
339.8700807823697
 20
286.0475749422963
 30
0.0
  0
LINE
  5
1772
102
{ACAD_REACTORS
330
1761
102
}
330
18
100
AcDbEntity
  8
外形線
100
AcDbLine
 10
339.8700807823697
 20
286.0475749422963
 30
0.0
 11
339.8700807823697
 21
285.7125263356524
 31
0.0
  0
LINE
  5
1773
102
{ACAD_REACTORS
330
1761
102
}
330
18
100
AcDbEntity
  8
外形線
100
AcDbLine
 10
338.8700807823696
 20
285.7125263356524
 30
0.0
 11
339.8700807823697
 21
285.7125263356524
 31
0.0
  0
LINE
  5
1774
102
{ACAD_REACTORS
330
1761
102
}
330
18
100
AcDbEntity
  8
外形線
100
AcDbLine
 10
341.203414115703
 20
286.372943002319
 30
0.0
 11
341.0367474490364
 21
286.372943002319
 31
0.0
  0
HATCH
  5
1775
330
18
100
AcDbEntity
  8
外形線
100
AcDbHatch
 10
0.0
 20
0.0
 30
0.0
210
0.0
220
0.0
230
1.0
  2
SOLID
 70
     1
 71
     1
 91
        2
 92
        1
 93
        7
 72
     1
 10
342.203414115703
 20
285.6229430023191
 11
343.3700807823697
 21
285.1983110623418
 72
     1
 10
343.3700807823697
 20
285.1983110623418
 11
343.3700807823697
 21
285.5333596689857
 72
     1
 10
343.3700807823697
 20
285.5333596689857
 11
344.3700807823697
 21
285.5333596689857
 72
     1
 10
344.3700807823697
 20
285.5333596689857
 11
344.3700807823697
 21
285.7125263356524
 72
     1
 10
344.3700807823697
 20
285.7125263356524
 11
343.3700807823697
 21
285.7125263356524
 72
     1
 10
343.3700807823697
 20
285.7125263356524
 11
343.3700807823697
 21
286.0475749422963
 72
     1
 10
343.3700807823697
 20
286.0475749422963
 11
342.203414115703
 21
285.6229430023191
 97
        7
330
1782
330
177B
330
177A
330
1776
330
1784
330
1785
330
1777
 92
        1
 93
        4
 72
     1
 10
342.203414115703
 20
286.372943002319
 11
342.203414115703
 21
284.872943002319
 72
     1
 10
342.203414115703
 20
284.872943002319
 11
342.0367474490363
 21
284.872943002319
 72
     1
 10
342.0367474490363
 20
284.872943002319
 11
342.0367474490363
 21
286.372943002319
 72
     1
 10
342.0367474490363
 20
286.372943002319
 11
342.203414115703
 21
286.372943002319
 97
        4
330
1778
330
1783
330
1779
330
1788
 75
     0
 76
     1
 98
        1
 10
249.8738574092226
 20
216.960792195138
450
        0
451
        0
460
0.0
461
0.0
452
        0
462
0.0
453
        0
470

  0
LINE
  5
1776
102
{ACAD_REACTORS
330
1775
102
}
330
18
100
AcDbEntity
  8
外形線
100
AcDbLine
 10
344.3700807823697
 20
285.7125263356524
 30
0.0
 11
344.3700807823697
 21
285.5333596689857
 31
0.0
  0
LINE
  5
1777
102
{ACAD_REACTORS
330
1775
102
}
330
18
100
AcDbEntity
  8
外形線
100
AcDbLine
 10
342.203414115703
 20
285.6229430023191
 30
0.0
 11
343.3700807823697
 21
286.0475749422963
 31
0.0
  0
LINE
  5
1778
102
{ACAD_REACTORS
330
1775
102
}
330
18
100
AcDbEntity
  8
外形線
100
AcDbLine
 10
342.203414115703
 20
286.372943002319
 30
0.0
 11
342.203414115703
 21
284.872943002319
 31
0.0
  0
LINE
  5
1779
102
{ACAD_REACTORS
330
1775
102
}
330
18
100
AcDbEntity
  8
外形線
100
AcDbLine
 10
342.0367474490363
 20
286.372943002319
 30
0.0
 11
342.0367474490363
 21
284.872943002319
 31
0.0
  0
LINE
  5
177A
102
{ACAD_REACTORS
330
1775
102
}
330
18
100
AcDbEntity
  8
外形線
100
AcDbLine
 10
344.3700807823697
 20
285.5333596689857
 30
0.0
 11
343.3700807823697
 21
285.5333596689857
 31
0.0
  0
LINE
  5
177B
102
{ACAD_REACTORS
330
1775
102
}
330
18
100
AcDbEntity
  8
外形線
100
AcDbLine
 10
343.3700807823697
 20
285.5333596689857
 30
0.0
 11
343.3700807823697
 21
285.1983110623418
 31
0.0
  0
POINT
  5
177C
330
18
100
AcDbEntity
  8
DEFPOINTS
  6
ByBlock
 62
     0
100
AcDbPoint
 10
342.0367474490363
 20
284.872943002319
 30
0.0
  0
POINT
  5
177D
330
18
100
AcDbEntity
  8
DEFPOINTS
  6
ByBlock
 62
     0
100
AcDbPoint
 10
342.203414115703
 20
284.872943002319
 30
0.0
  0
POINT
  5
177E
330
18
100
AcDbEntity
  8
DEFPOINTS
  6
ByBlock
 62
     0
100
AcDbPoint
 10
342.0367474490363
 20
284.872943002319
 30
0.0
  0
POINT
  5
177F
330
18
100
AcDbEntity
  8
DEFPOINTS
  6
ByBlock
 62
     0
100
AcDbPoint
 10
343.3700807823697
 20
285.1983110623418
 30
0.0
  0
POINT
  5
1780
330
18
100
AcDbEntity
  8
DEFPOINTS
  6
ByBlock
 62
     0
100
AcDbPoint
 10
342.203414115703
 20
284.872943002319
 30
0.0
  0
POINT
  5
1781
330
18
100
AcDbEntity
  8
DEFPOINTS
  6
ByBlock
 62
     0
100
AcDbPoint
 10
343.3700807823697
 20
285.1983110623418
 30
0.0
  0
LINE
  5
1782
102
{ACAD_REACTORS
330
1775
102
}
330
18
100
AcDbEntity
  8
外形線
100
AcDbLine
 10
342.203414115703
 20
285.6229430023191
 30
0.0
 11
343.3700807823697
 21
285.1983110623418
 31
0.0
  0
LINE
  5
1783
102
{ACAD_REACTORS
330
1775
102
}
330
18
100
AcDbEntity
  8
外形線
100
AcDbLine
 10
342.0367474490363
 20
284.872943002319
 30
0.0
 11
342.203414115703
 21
284.872943002319
 31
0.0
  0
LINE
  5
1784
102
{ACAD_REACTORS
330
1775
102
}
330
18
100
AcDbEntity
  8
外形線
100
AcDbLine
 10
344.3700807823697
 20
285.7125263356524
 30
0.0
 11
343.3700807823697
 21
285.7125263356524
 31
0.0
  0
LINE
  5
1785
102
{ACAD_REACTORS
330
1775
102
}
330
18
100
AcDbEntity
  8
外形線
100
AcDbLine
 10
343.3700807823697
 20
286.0475749422963
 30
0.0
 11
343.3700807823697
 21
285.7125263356524
 31
0.0
  0
POINT
  5
1786
330
18
100
AcDbEntity
  8
DEFPOINTS
  6
ByBlock
 62
     0
100
AcDbPoint
 10
343.3700807823697
 20
286.0475749422963
 30
0.0
  0
POINT
  5
1787
330
18
100
AcDbEntity
  8
DEFPOINTS
  6
ByBlock
 62
     0
100
AcDbPoint
 10
343.3700807823697
 20
286.0475749422963
 30
0.0
  0
LINE
  5
1788
102
{ACAD_REACTORS
330
1775
102
}
330
18
100
AcDbEntity
  8
外形線
100
AcDbLine
 10
342.0367474490363
 20
286.372943002319
 30
0.0
 11
342.203414115703
 21
286.372943002319
 31
0.0
  0
LINE
  5
1789
330
18
100
AcDbEntity
  8
中心線
 48
0.5
100
AcDbLine
 10
321.7116466382686
 20
293.1729430023191
 30
0.0
 11
334.9825444245933
 21
293.1729430023191
 31
0.0
  0
LINE
  5
178A
330
18
100
AcDbEntity
  8
中心線
 48
0.5
100
AcDbLine
 10
328.331291844902
 20
299.4912692104347
 30
0.0
 11
328.331291844902
 21
286.7194464747472
 31
0.0
  0
CIRCLE
  5
178B
330
18
100
AcDbEntity
  8
外形線
100
AcDbCircle
 10
328.331291844902
 20
293.1729430023191
 30
0.0
 40
5.5
  0
LINE
  5
178D
330
18
100
AcDbEntity
  8
外形線
100
AcDbLine
 10
328.331291844902
 20
298.6729430023191
 30
0.0
 11
328.331291844902
 21
297.4229430023191
 31
0.0
  0
LINE
  5
178E
330
18
100
AcDbEntity
  8
外形線
100
AcDbLine
 10
323.1004810052787
 20
294.8725364713812
 30
0.0
 11
324.2893016506475
 21
294.4862652284126
 31
0.0
  0
LINE
  5
178F
330
18
100
AcDbEntity
  8
外形線
100
AcDbLine
 10
325.0984729572934
 20
288.7233495332568
 30
0.0
 11
325.833204522659
 21
289.7346207762256
 31
0.0
  0
LINE
  5
1790
330
18
100
AcDbEntity
  8
外形線
100
AcDbLine
 10
331.5641107325106
 20
288.7233495332568
 30
0.0
 11
330.8293791671451
 21
289.7346207762256
 31
0.0
  0
LINE
  5
1791
330
18
100
AcDbEntity
  8
外形線
100
AcDbLine
 10
333.5621026845254
 20
294.8725364713813
 30
0.0
 11
332.3732820391564
 21
294.4862652284126
 31
0.0
  0
LINE
  5
1792
330
18
100
AcDbEntity
  8
外形線
100
AcDbLine
 10
329.6990862243087
 20
298.5001503885266
 30
0.0
 11
329.4876998202186
 21
297.6768547015672
 31
0.0
  0
LINE
  5
1793
330
18
100
AcDbEntity
  8
外形線
100
AcDbLine
 10
330.9809370524614
 20
297.9926297425603
 30
0.0
 11
330.5714464294749
 21
297.2477690645231
 31
0.0
  0
LINE
  5
1794
330
18
100
AcDbEntity
  8
外形線
100
AcDbLine
 10
332.0963009275097
 20
297.1822704531368
 30
0.0
 11
331.5144358874704
 21
296.5626471198287
 31
0.0
  0
LINE
  5
1795
330
18
100
AcDbEntity
  8
外形線
100
AcDbLine
 10
332.9750954351631
 20
296.1199903747036
 30
0.0
 11
332.2574166984864
 21
295.6645375989714
 31
0.0
  0
LINE
  5
1796
330
18
100
AcDbEntity
  8
外形線
100
AcDbLine
 10
325.6816466373425
 20
297.9926297425603
 30
0.0
 11
326.0911372603289
 21
297.247769064523
 31
0.0
  0
LINE
  5
1797
330
18
100
AcDbEntity
  8
外形線
100
AcDbLine
 10
324.5662827622942
 20
297.1822704531368
 30
0.0
 11
325.1481478023336
 21
296.5626471198286
 31
0.0
  0
LINE
  5
1798
330
18
100
AcDbEntity
  8
外形線
100
AcDbLine
 10
323.6874882546409
 20
296.1199903747035
 30
0.0
 11
324.4051669913176
 21
295.6645375989714
 31
0.0
  0
LINE
  5
1799
330
18
100
AcDbEntity
  8
外形線
100
AcDbLine
 10
326.9634974654953
 20
298.5001503885265
 30
0.0
 11
327.1748838695854
 21
297.6768547015672
 31
0.0
  0
LINE
  5
179A
330
18
100
AcDbEntity
  8
外形線
100
AcDbLine
 10
322.9287119658943
 20
292.1423457720976
 30
0.0
 11
323.7636561290136
 21
292.3016198894954
 31
0.0
  0
LINE
  5
179B
330
18
100
AcDbEntity
  8
外形線
100
AcDbLine
 10
323.354743056339
 20
290.8311568987112
 30
0.0
 11
324.1238460509351
 21
291.1930692965415
 31
0.0
  0
LINE
  5
179C
330
18
100
AcDbEntity
  8
外形線
100
AcDbLine
 10
324.0934690096352
 20
289.6671110587013
 30
0.0
 11
324.7484052659946
 21
290.2089214499877
 31
0.0
  0
LINE
  5
179D
330
18
100
AcDbEntity
  8
外形線
100
AcDbLine
 10
322.8421448385465
 20
293.5182908597303
 30
0.0
 11
323.6904675577106
 21
293.4649189181304
 31
0.0
  0
LINE
  5
179E
330
18
100
AcDbEntity
  8
外形線
100
AcDbLine
 10
327.6419590602984
 20
287.7163121450895
 30
0.0
 11
327.7484923088281
 21
288.5596096412067
 31
0.0
  0
LINE
  5
179F
330
18
100
AcDbEntity
  8
外形線
100
AcDbLine
 10
329.0206246295057
 20
287.7163121450895
 30
0.0
 11
328.914091380976
 21
288.5596096412068
 31
0.0
  0
LINE
  5
17A0
330
18
100
AcDbEntity
  8
外形線
100
AcDbLine
 10
330.3559768846678
 20
288.0591723299337
 30
0.0
 11
330.0430710148857
 21
288.8494823429387
 31
0.0
  0
LINE
  5
17A1
330
18
100
AcDbEntity
  8
外形線
100
AcDbLine
 10
326.3066068051363
 20
288.0591723299337
 30
0.0
 11
326.6195126749183
 21
288.8494823429387
 31
0.0
  0
LINE
  5
17A2
330
18
100
AcDbEntity
  8
外形線
100
AcDbLine
 10
333.307840633465
 20
290.8311568987112
 30
0.0
 11
332.538737638869
 21
291.1930692965415
 31
0.0
  0
LINE
  5
17A3
330
18
100
AcDbEntity
  8
外形線
100
AcDbLine
 10
333.7338717239098
 20
292.1423457720976
 30
0.0
 11
332.8989275607904
 21
292.3016198894955
 31
0.0
  0
LINE
  5
17A4
330
18
100
AcDbEntity
  8
外形線
100
AcDbLine
 10
333.8204388512575
 20
293.5182908597303
 30
0.0
 11
332.9721161320934
 21
293.4649189181304
 31
0.0
  0
LINE
  5
17A5
330
18
100
AcDbEntity
  8
外形線
100
AcDbLine
 10
332.5691146801688
 20
289.6671110587013
 30
0.0
 11
331.9141784238094
 21
290.2089214499876
 31
0.0
  0
TEXT
  5
17A6
330
18
100
AcDbEntity
  8
文字
100
AcDbText
 10
327.983266185184
 20
296.1785395229463
 30
0.0
 40
1.0
  1
0
  7
STYLE3
100
AcDbText
  0
TEXT
  5
17A7
330
18
100
AcDbEntity
  8
文字
100
AcDbText
 10
331.0719065852331
 20
293.7876312550005
 30
0.0
 40
1.0
  1
1
  7
STYLE3
100
AcDbText
  0
TEXT
  5
17A8
330
18
100
AcDbEntity
  8
文字
100
AcDbText
 10
329.7919294379942
 20
290.1178650604224
 30
0.0
 40
1.0
  1
2
  7
STYLE3
100
AcDbText
  0
TEXT
  5
17A9
330
18
100
AcDbEntity
  8
文字
100
AcDbText
 10
325.9519988198194
 20
290.1734673613863
 30
0.0
 40
1.0
  1
3
  7
STYLE3
100
AcDbText
  0
TEXT
  5
17AA
330
18
100
AcDbEntity
  8
文字
100
AcDbText
 10
324.9502774309296
 20
293.9822399908009
 30
0.0
 40
1.0
  1
4
  7
STYLE3
100
AcDbText
  0
POINT
  5
17AB
330
18
100
AcDbEntity
  8
DEFPOINTS
  6
ByBlock
 62
     0
100
AcDbPoint
 10
332.5312918449021
 20
284.1729430023191
 30
0.0
  0
POINT
  5
17AC
330
18
100
AcDbEntity
  8
DEFPOINTS
  6
ByBlock
 62
     0
100
AcDbPoint
 10
332.5312918449021
 20
284.1729430023191
 30
0.0
  0
POINT
  5
17AD
330
18
100
AcDbEntity
  8
DEFPOINTS
  6
ByBlock
 62
     0
100
AcDbPoint
 10
328.331291844902
 20
297.4229430023191
 30
0.0
  0
POINT
  5
17AE
330
18
100
AcDbEntity
  8
DEFPOINTS
  6
ByBlock
 62
     0
100
AcDbPoint
 10
328.331291844902
 20
289.2278208859403
 30
0.0
  0
POINT
  5
17AF
330
18
100
AcDbEntity
  8
DEFPOINTS
  6
ByBlock
 62
     0
100
AcDbPoint
 10
330.571446429475
 20
297.2477690645231
 30
0.0
  0
TEXT
  5
17B0
330
18
100
AcDbEntity
  8
文字
100
AcDbText
 10
329.4202580667406
 20
276.8624870785283
 30
0.0
 40
1.3
  1
No.55
  7
STYLE3
100
AcDbText
  0
TEXT
  5
1844
330
18
100
AcDbEntity
  8
文字
100
AcDbText
 10
347.1960712601529
 20
242.7465255075205
 30
0.0
 40
1.0
  1
0
  7
STYLE3
100
AcDbText
  0
TEXT
  5
1845
330
18
100
AcDbEntity
  8
文字
100
AcDbText
 10
346.0055290565356
 20
241.3347473057093
 30
0.0
 40
1.0
  1
-0.03
  7
STYLE3
100
AcDbText
  0
LINE
  5
184E
330
18
100
AcDbEntity
  8
0
  6
ByBlock
 62
     2
100
AcDbLine
 10
410.843548059472
 20
245.6874535085717
 30
0.0
 11
410.843548059472
 21
247.1306154260239
 31
0.0
  0
LINE
  5
184F
330
18
100
AcDbEntity
  8
0
  6
ByBlock
 62
     2
100
AcDbLine
 10
430.8435480594719
 20
273.6436442374623
 30
0.0
 11
430.8435480594719
 21
244.6306154260239
 31
0.0
  0
LINE
  5
1850
330
18
100
AcDbEntity
  8
0
  6
ByBlock
 62
     2
100
AcDbLine
 10
413.3435480594719
 20
245.8806154260239
 30
0.0
 11
428.3435480594719
 21
245.8806154260239
 31
0.0
  0
INSERT
  5
1851
330
18
100
AcDbEntity
  8
0
  6
ByBlock
 62
     2
100
AcDbBlockReference
  2
_OPEN
 10
410.843548059472
 20
245.8806154260239
 30
0.0
 41
2.5
 42
2.5
 43
2.5
 50
180.0
  0
INSERT
  5
1852
330
18
100
AcDbEntity
  8
0
  6
ByBlock
 62
     2
100
AcDbBlockReference
  2
_OPEN
 10
430.8435480594719
 20
245.8806154260239
 30
0.0
 41
2.5
 42
2.5
 43
2.5
  0
MTEXT
  5
1853
330
18
100
AcDbEntity
  8
0
  6
ByBlock
 62
     6
100
AcDbMText
 10
420.843548059472
 20
247.7556154260239
 30
0.0
 40
2.5
 41
0.0
 71
     5
 72
     1
  1
\A1;20
  7
STYLE3
 73
     1
 44
1.0
  0
POINT
  5
1854
330
18
100
AcDbEntity
  8
DEFPOINTS
  6
ByBlock
 62
     0
100
AcDbPoint
 10
410.843548059472
 20
245.6874535085717
 30
0.0
  0
POINT
  5
1855
330
18
100
AcDbEntity
  8
DEFPOINTS
  6
ByBlock
 62
     0
100
AcDbPoint
 10
430.8435480594719
 20
273.6436442374623
 30
0.0
  0
POINT
  5
1856
330
18
100
AcDbEntity
  8
DEFPOINTS
  6
ByBlock
 62
     0
100
AcDbPoint
 10
430.8435480594719
 20
245.8806154260239
 30
0.0
  0
LINE
  5
1857
330
18
100
AcDbEntity
  8
0
  6
ByBlock
 62
     2
100
AcDbLine
 10
417.8435480594719
 20
315.4229430023191
 30
0.0
 11
417.8435480594719
 21
339.8193422581323
 31
0.0
  0
LINE
  5
1858
330
18
100
AcDbEntity
  8
0
  6
ByBlock
 62
     2
100
AcDbLine
 10
413.3435480594719
 20
338.5693422581323
 30
0.0
 11
415.3435480594719
 21
338.5693422581323
 31
0.0
  0
INSERT
  5
1859
330
18
100
AcDbEntity
  8
0
  6
ByBlock
 62
     2
100
AcDbBlockReference
  2
_OPEN
 10
410.843548059472
 20
338.5693422581323
 30
0.0
 41
2.5
 42
2.5
 43
2.5
 50
180.0
  0
INSERT
  5
185A
330
18
100
AcDbEntity
  8
0
  6
ByBlock
 62
     2
100
AcDbBlockReference
  2
_OPEN
 10
417.8435480594719
 20
338.5693422581323
 30
0.0
 41
2.5
 42
2.5
 43
2.5
  0
MTEXT
  5
185B
330
18
100
AcDbEntity
  8
0
  6
ByBlock
 62
     6
100
AcDbMText
 10
414.343548059472
 20
340.4443422581323
 30
0.0
 40
2.5
 41
0.0
 71
     5
 72
     1
  1
\A1;7
  7
STYLE3
 73
     1
 44
1.0
  0
POINT
  5
185C
330
18
100
AcDbEntity
  8
DEFPOINTS
  6
ByBlock
 62
     0
100
AcDbPoint
 10
410.843548059472
 20
325.1729430023191
 30
0.0
  0
POINT
  5
185D
330
18
100
AcDbEntity
  8
DEFPOINTS
  6
ByBlock
 62
     0
100
AcDbPoint
 10
417.8435480594719
 20
315.4229430023191
 30
0.0
  0
POINT
  5
185E
330
18
100
AcDbEntity
  8
DEFPOINTS
  6
ByBlock
 62
     0
100
AcDbPoint
 10
417.8435480594719
 20
338.5693422581323
 30
0.0
  0
HATCH
  5
185F
330
18
100
AcDbEntity
  8
針
100
AcDbHatch
 10
0.0
 20
0.0
 30
0.0
210
0.0
220
0.0
230
1.0
  2
SOLID
 70
     1
 71
     0
 91
        2
 92
        7
 72
     1
 73
     1
 93
        7
 10
316.1420712252346
 20
306.8753805912626
 42
0.0
 10
316.0733047807128
 20
306.8254188448176
 42
0.0
 10
316.0045383361909
 20
306.7754570983728
 42
0.0
 10
330.41696337482
 20
286.0622855124549
 42
-0.1501587168195632
 10
330.7978966330701
 20
284.950979659295
 42
-0.2663318517056026
 10
332.3269835907931
 20
286.0619263630988
 42
-0.1501587168188815
 10
331.3877837680733
 20
286.7676278152015
 42
0.0
 97
        0
 92
        7
 72
     1
 73
     1
 93
        8
 10
334.6795207144061
 20
282.4921358378277
 42
-0.1359726509891617
 10
334.3052486247106
 20
283.4924451379791
 42
-0.2963365191307953
 10
332.6303009808601
 20
282.2755244425393
 42
-0.1359726509901446
 10
333.4659952228482
 20
281.6104579593827
 42
0.0
 10
337.9800307117665
 20
275.8034585675139
 42
-0.2922142767077588
 10
338.029592336363
 20
275.2672936772287
 42
4.213373832193925
 10
339.3019993753272
 20
276.1917515039696
 42
-0.292214276707778
 10
338.8073916468819
 20
276.4045714728855
 42
0.0
 97
        0
 75
     0
 76
     1
 47
0.1210799346169177
 98
        2
 10
329.4814392739852
 20
288.3938675442895
 10
336.1783364209796
 20
279.1763793879113
450
        0
451
        0
460
0.0
461
0.0
452
        0
462
0.0
453
        0
470

  0
ARC
  5
1860
330
18
100
AcDbEntity
  8
針
100
AcDbCircle
 10
339.2212235190173
 20
276.6851836280123
 30
0.0
 40
0.5
100
AcDbArc
 50
214.1405093068054
 51
279.2969746506714
  0
LINE
  5
1861
330
18
100
AcDbEntity
  8
針
100
AcDbLine
 10
337.9800307117665
 20
275.8034585675139
 30
0.0
 11
333.4659952228465
 21
281.6104579593849
 31
0.0
  0
LINE
  5
1862
330
18
100
AcDbEntity
  8
針
100
AcDbLine
 10
338.8073916468819
 20
276.4045714728855
 30
0.0
 11
334.6795207144089
 21
282.4921358378236
 31
0.0
  0
ARC
  5
1863
330
18
100
AcDbEntity
  8
針
100
AcDbCircle
 10
339.5847148724117
 20
274.4647390698197
 30
0.0
 40
1.75
100
AcDbArc
 50
152.7030253493323
 51
99.29697465066764
  0
ARC
  5
1864
330
18
100
AcDbEntity
  8
針
100
AcDbCircle
 10
337.5852716117777
 20
275.4965949936313
 30
0.0
 40
0.5
100
AcDbArc
 50
332.7030253493286
 51
37.85949069319459
  0
ARC
  5
1865
330
18
100
AcDbEntity
  8
針
100
AcDbCircle
 10
336.2975547031589
 20
283.6677063424086
 30
0.0
 40
2.0
100
AcDbArc
 50
185.027311941886
 51
216.0
  0
CIRCLE
  5
1866
330
18
100
AcDbEntity
  8
針
100
AcDbCircle
 10
332.5312918449021
 20
284.1729430023191
 30
0.0
 40
1.9
  0
CIRCLE
  5
1867
330
18
100
AcDbEntity
  8
針
100
AcDbCircle
 10
332.5312918449021
 20
284.1729430023191
 30
0.0
 40
0.3
  0
ARC
  5
1868
330
18
100
AcDbEntity
  8
針
100
AcDbCircle
 10
331.8479612340967
 20
280.4348874547999
 30
0.0
 40
2.0
100
AcDbArc
 50
36.0
 51
66.97268805811404
  0
ARC
  5
1869
330
18
100
AcDbEntity
  8
針
100
AcDbCircle
 10
328.7989293860706
 20
284.8867150078694
 30
0.0
 40
2.0
100
AcDbArc
 50
1.84136360582328
 51
36.00000000000001
  0
ARC
  5
186A
330
18
100
AcDbEntity
  8
針
100
AcDbCircle
 10
333.0058177568203
 20
287.9431983197904
 30
0.0
 40
2.0
100
AcDbArc
 50
216.0
 51
250.1586363941767
  0
CIRCLE
  5
186B
330
18
100
AcDbEntity
  8
針
100
AcDbCircle
 10
332.5312918449021
 20
284.1729430023191
 30
0.0
 40
1.7
  0
LINE
  5
186C
330
18
100
AcDbEntity
  8
針
100
AcDbLine
 10
330.4169633748204
 20
286.0622855124544
 30
0.0
 11
316.0045383361909
 21
306.7754570983727
 31
0.0
  0
LINE
  5
186D
330
18
100
AcDbEntity
  8
針
100
AcDbLine
 10
331.3877837680703
 20
286.7676278152054
 30
0.0
 11
316.1420712252346
 21
306.8753805912625
 31
0.0
  0
LINE
  5
186E
330
18
100
AcDbEntity
  8
針
100
AcDbLine
 10
316.0733047807128
 20
306.8254188448176
 30
0.0
 11
316.0045383361908
 21
306.7754570983727
 31
0.0
  0
LINE
  5
186F
330
18
100
AcDbEntity
  8
針
100
AcDbLine
 10
316.0733047807128
 20
306.8254188448176
 30
0.0
 11
316.1420712252346
 21
306.8753805912625
 31
0.0
  0
LINE
  5
1870
330
18
100
AcDbEntity
  8
0
  6
ByBlock
 62
     2
100
AcDbLine
 10
393.843548059472
 20
284.1729430023191
 30
0.0
 11
393.843548059472
 21
339.8193422581323
 31
0.0
  0
LINE
  5
1871
330
18
100
AcDbEntity
  8
0
  6
ByBlock
 62
     2
100
AcDbLine
 10
410.843548059472
 20
335.3433896682732
 30
0.0
 11
410.843548059472
 21
339.8193422581323
 31
0.0
  0
LINE
  5
1872
330
18
100
AcDbEntity
  8
0
  6
ByBlock
 62
     2
100
AcDbLine
 10
396.343548059472
 20
338.5693422581323
 30
0.0
 11
408.343548059472
 21
338.5693422581323
 31
0.0
  0
INSERT
  5
1873
330
18
100
AcDbEntity
  8
0
  6
ByBlock
 62
     2
100
AcDbBlockReference
  2
_OPEN
 10
393.843548059472
 20
338.5693422581323
 30
0.0
 41
2.5
 42
2.5
 43
2.5
 50
180.0
  0
INSERT
  5
1874
330
18
100
AcDbEntity
  8
0
  6
ByBlock
 62
     2
100
AcDbBlockReference
  2
_OPEN
 10
410.843548059472
 20
338.5693422581323
 30
0.0
 41
2.5
 42
2.5
 43
2.5
  0
MTEXT
  5
1875
330
18
100
AcDbEntity
  8
0
  6
ByBlock
 62
     6
100
AcDbMText
 10
402.343548059472
 20
340.4443422581323
 30
0.0
 40
2.5
 41
0.0
 71
     5
 72
     1
  1
\A1;17
  7
STYLE3
 73
     1
 44
1.0
  0
POINT
  5
1876
330
18
100
AcDbEntity
  8
DEFPOINTS
  6
ByBlock
 62
     0
100
AcDbPoint
 10
393.843548059472
 20
284.1729430023191
 30
0.0
  0
POINT
  5
1877
330
18
100
AcDbEntity
  8
DEFPOINTS
  6
ByBlock
 62
     0
100
AcDbPoint
 10
410.843548059472
 20
335.3433896682732
 30
0.0
  0
POINT
  5
1878
330
18
100
AcDbEntity
  8
DEFPOINTS
  6
ByBlock
 62
     0
100
AcDbPoint
 10
410.843548059472
 20
338.5693422581323
 30
0.0
  0
LINE
  5
1879
330
18
100
AcDbEntity
  8
0
  6
ByBlock
 62
     2
100
AcDbLine
 10
398.9435480594721
 20
317.072943002319
 30
0.0
 11
383.5726976549635
 21
317.072943002319
 31
0.0
  0
LINE
  5
187A
330
18
100
AcDbEntity
  8
0
  6
ByBlock
 62
     2
100
AcDbLine
 10
398.9435480594721
 20
251.2729430023191
 30
0.0
 11
383.5726976549635
 21
251.2729430023191
 31
0.0
  0
LINE
  5
187B
330
18
100
AcDbEntity
  8
0
  6
ByBlock
 62
     2
100
AcDbLine
 10
384.8226976549635
 20
314.5729430023191
 30
0.0
 11
384.8226976549635
 21
253.7729430023191
 31
0.0
  0
INSERT
  5
187C
330
18
100
AcDbEntity
  8
0
  6
ByBlock
 62
     2
100
AcDbBlockReference
  2
_OPEN
 10
384.8226976549635
 20
317.072943002319
 30
0.0
 41
2.5
 42
2.5
 43
2.5
 50
90.0
  0
INSERT
  5
187D
330
18
100
AcDbEntity
  8
0
  6
ByBlock
 62
     2
100
AcDbBlockReference
  2
_OPEN
 10
384.8226976549635
 20
251.2729430023191
 30
0.0
 41
2.5
 42
2.5
 43
2.5
 50
270.0
  0
MTEXT
  5
187E
330
18
100
AcDbEntity
  8
0
  6
ByBlock
 62
     6
100
AcDbMText
 10
382.9476976549635
 20
284.1729430023191
 30
0.0
 40
2.5
 41
0.0
 71
     5
 72
     1
  1
\A1;φ66
  7
STYLE3
 11
0.0000000000000001
 21
1.0
 31
0.0
 73
     1
 44
1.0
  0
POINT
  5
187F
330
18
100
AcDbEntity
  8
DEFPOINTS
  6
ByBlock
 62
     0
100
AcDbPoint
 10
398.9435480594721
 20
317.072943002319
 30
0.0
  0
POINT
  5
1880
330
18
100
AcDbEntity
  8
DEFPOINTS
  6
ByBlock
 62
     0
100
AcDbPoint
 10
398.9435480594721
 20
251.2729430023191
 30
0.0
  0
POINT
  5
1881
330
18
100
AcDbEntity
  8
DEFPOINTS
  6
ByBlock
 62
     0
100
AcDbPoint
 10
384.8226976549635
 20
251.2729430023191
 30
0.0
  0
LINE
  5
1882
330
18
100
AcDbEntity
  8
0
  6
ByBlock
 62
     2
100
AcDbLine
 10
286.7276786903394
 20
333.6729430023191
 30
0.0
 11
277.5321841162537
 21
333.6729430023191
 31
0.0
  0
LINE
  5
1883
330
18
100
AcDbEntity
  8
0
  6
ByBlock
 62
     2
100
AcDbLine
 10
286.7276786903394
 20
211.1729430023191
 30
0.0
 11
277.5321841162537
 21
211.1729430023191
 31
0.0
  0
LINE
  5
1884
330
18
100
AcDbEntity
  8
0
  6
ByBlock
 62
     2
100
AcDbLine
 10
278.7821841162537
 20
331.1729430023191
 30
0.0
 11
278.7821841162537
 21
213.6729430023191
 31
0.0
  0
INSERT
  5
1885
330
18
100
AcDbEntity
  8
0
  6
ByBlock
 62
     2
100
AcDbBlockReference
  2
_OPEN
 10
278.7821841162537
 20
333.6729430023191
 30
0.0
 41
2.5
 42
2.5
 43
2.5
 50
90.0
  0
INSERT
  5
1886
330
18
100
AcDbEntity
  8
0
  6
ByBlock
 62
     2
100
AcDbBlockReference
  2
_OPEN
 10
278.7821841162537
 20
211.1729430023191
 30
0.0
 41
2.5
 42
2.5
 43
2.5
 50
270.0
  0
MTEXT
  5
1887
330
18
100
AcDbEntity
  8
0
  6
ByBlock
 62
     6
100
AcDbMText
 10
276.9071841162538
 20
272.4229430023191
 30
0.0
 40
2.5
 41
0.0
 71
     5
 72
     1
  1
\A1;122.5
  7
STYLE3
 11
0.0000000000000001
 21
1.0
 31
0.0
 73
     1
 44
1.0
  0
POINT
  5
1888
330
18
100
AcDbEntity
  8
DEFPOINTS
  6
ByBlock
 62
     0
100
AcDbPoint
 10
286.7276786903394
 20
333.6729430023191
 30
0.0
  0
POINT
  5
1889
330
18
100
AcDbEntity
  8
DEFPOINTS
  6
ByBlock
 62
     0
100
AcDbPoint
 10
286.7276786903394
 20
211.1729430023191
 30
0.0
  0
POINT
  5
188A
330
18
100
AcDbEntity
  8
DEFPOINTS
  6
ByBlock
 62
     0
100
AcDbPoint
 10
278.7821841162537
 20
211.1729430023191
 30
0.0
  0
LINE
  5
188B
330
18
100
AcDbEntity
  8
0
  6
ByBlock
 62
     2
100
AcDbLine
 10
329.5312918449019
 20
333.6729430023191
 30
0.0
 11
286.7276786903394
 21
333.6729430023191
 31
0.0
  0
LINE
  5
188C
330
18
100
AcDbEntity
  8
0
  6
ByBlock
 62
     2
100
AcDbLine
 10
299.5312918449021
 20
284.1729430023191
 30
0.0
 11
286.7276786903394
 21
284.1729430023191
 31
0.0
  0
LINE
  5
188D
330
18
100
AcDbEntity
  8
0
  6
ByBlock
 62
     2
100
AcDbLine
 10
287.9776786903394
 20
331.1729430023191
 30
0.0
 11
287.9776786903394
 21
286.6729430023191
 31
0.0
  0
INSERT
  5
188E
330
18
100
AcDbEntity
  8
0
  6
ByBlock
 62
     2
100
AcDbBlockReference
  2
_OPEN
 10
287.9776786903394
 20
333.6729430023191
 30
0.0
 41
2.5
 42
2.5
 43
2.5
 50
90.0
  0
INSERT
  5
188F
330
18
100
AcDbEntity
  8
0
  6
ByBlock
 62
     2
100
AcDbBlockReference
  2
_OPEN
 10
287.9776786903394
 20
284.1729430023191
 30
0.0
 41
2.5
 42
2.5
 43
2.5
 50
270.0
  0
MTEXT
  5
1890
330
18
100
AcDbEntity
  8
0
  6
ByBlock
 62
     6
100
AcDbMText
 10
286.1026786903394
 20
308.9229430023191
 30
0.0
 40
2.5
 41
0.0
 71
     5
 72
     1
  1
\A1;49.5
  7
STYLE3
 11
0.0000000000000001
 21
1.0
 31
0.0
 73
     1
 44
1.0
  0
POINT
  5
1891
330
18
100
AcDbEntity
  8
DEFPOINTS
  6
ByBlock
 62
     0
100
AcDbPoint
 10
329.5312918449019
 20
333.6729430023191
 30
0.0
  0
POINT
  5
1892
330
18
100
AcDbEntity
  8
DEFPOINTS
  6
ByBlock
 62
     0
100
AcDbPoint
 10
299.5312918449021
 20
284.1729430023191
 30
0.0
  0
POINT
  5
1893
330
18
100
AcDbEntity
  8
DEFPOINTS
  6
ByBlock
 62
     0
100
AcDbPoint
 10
287.9776786903394
 20
284.1729430023191
 30
0.0
  0
LINE
  5
1894
330
18
100
AcDbEntity
  8
0
  6
ByBlock
 62
     2
100
AcDbLine
 10
303.5312918449021
 20
284.1729430023191
 30
0.0
 11
303.5312918449021
 21
339.8193422581323
 31
0.0
  0
LINE
  5
1895
330
18
100
AcDbEntity
  8
0
  6
ByBlock
 62
     2
100
AcDbLine
 10
361.5312918449021
 20
284.1729430023191
 30
0.0
 11
361.5312918449021
 21
339.8193422581323
 31
0.0
  0
LINE
  5
1896
330
18
100
AcDbEntity
  8
0
  6
ByBlock
 62
     2
100
AcDbLine
 10
306.031291844902
 20
338.5693422581323
 30
0.0
 11
359.0312918449021
 21
338.5693422581323
 31
0.0
  0
INSERT
  5
1897
330
18
100
AcDbEntity
  8
0
  6
ByBlock
 62
     2
100
AcDbBlockReference
  2
_OPEN
 10
303.5312918449021
 20
338.5693422581323
 30
0.0
 41
2.5
 42
2.5
 43
2.5
 50
180.0
  0
INSERT
  5
1898
330
18
100
AcDbEntity
  8
0
  6
ByBlock
 62
     2
100
AcDbBlockReference
  2
_OPEN
 10
361.5312918449021
 20
338.5693422581323
 30
0.0
 41
2.5
 42
2.5
 43
2.5
  0
MTEXT
  5
1899
330
18
100
AcDbEntity
  8
0
  6
ByBlock
 62
     6
100
AcDbMText
 10
332.5312918449021
 20
340.4443422581323
 30
0.0
 40
2.5
 41
0.0
 71
     5
 72
     1
  1
\A1;φ58
  7
STYLE3
 73
     1
 44
1.0
  0
POINT
  5
189A
330
18
100
AcDbEntity
  8
DEFPOINTS
  6
ByBlock
 62
     0
100
AcDbPoint
 10
303.5312918449021
 20
284.1729430023191
 30
0.0
  0
POINT
  5
189B
330
18
100
AcDbEntity
  8
DEFPOINTS
  6
ByBlock
 62
     0
100
AcDbPoint
 10
361.5312918449021
 20
284.1729430023191
 30
0.0
  0
POINT
  5
189C
330
18
100
AcDbEntity
  8
DEFPOINTS
  6
ByBlock
 62
     0
100
AcDbPoint
 10
361.5312918449021
 20
338.5693422581323
 30
0.0
  0
LINE
  5
189D
330
18
100
AcDbEntity
  8
0
  6
ByBlock
 62
     2
100
AcDbLine
 10
332.5312918449021
 20
211.1729430023191
 30
0.0
 11
286.7276786903394
 21
211.1729430023191
 31
0.0
  0
LINE
  5
189E
330
18
100
AcDbEntity
  8
0
  6
ByBlock
 62
     2
100
AcDbLine
 10
287.9776786903394
 20
281.6729430023191
 30
0.0
 11
287.9776786903394
 21
213.6729430023191
 31
0.0
  0
INSERT
  5
189F
330
18
100
AcDbEntity
  8
0
  6
ByBlock
 62
     2
100
AcDbBlockReference
  2
_OPEN
 10
287.9776786903394
 20
284.1729430023191
 30
0.0
 41
2.5
 42
2.5
 43
2.5
 50
90.0
  0
INSERT
  5
18A0
330
18
100
AcDbEntity
  8
0
  6
ByBlock
 62
     2
100
AcDbBlockReference
  2
_OPEN
 10
287.9776786903394
 20
211.1729430023191
 30
0.0
 41
2.5
 42
2.5
 43
2.5
 50
270.0
  0
MTEXT
  5
18A1
330
18
100
AcDbEntity
  8
0
  6
ByBlock
 62
     6
100
AcDbMText
 10
286.1026786903394
 20
247.6729430023191
 30
0.0
 40
2.5
 41
0.0
 71
     5
 72
     1
  1
\A1;73
  7
STYLE3
 11
0.0000000000000001
 21
1.0
 31
0.0
 73
     1
 44
1.0
  0
POINT
  5
18A2
330
18
100
AcDbEntity
  8
DEFPOINTS
  6
ByBlock
 62
     0
100
AcDbPoint
 10
299.281291844902
 20
284.1729430023191
 30
0.0
  0
POINT
  5
18A3
330
18
100
AcDbEntity
  8
DEFPOINTS
  6
ByBlock
 62
     0
100
AcDbPoint
 10
332.5312918449021
 20
211.1729430023191
 30
0.0
  0
POINT
  5
18A4
330
18
100
AcDbEntity
  8
DEFPOINTS
  6
ByBlock
 62
     0
100
AcDbPoint
 10
287.9776786903394
 20
211.1729430023191
 30
0.0
  0
LINE
  5
18A5
330
18
100
AcDbEntity
  8
ﾊｯﾁﾝｸ
100
AcDbLine
 10
330.031291844902
 20
219.5658141068394
 30
0.0
 11
330.4384207403817
 21
219.9729430023191
 31
0.0
  0
LINE
  5
18A6
330
18
100
AcDbEntity
  8
ﾊｯﾁﾝｸ
100
AcDbLine
 10
330.0312918449021
 20
218.218775688679
 30
0.0
 11
331.7854591585422
 21
219.9729430023191
 31
0.0
  0
LINE
  5
18A7
330
18
100
AcDbEntity
  8
ﾊｯﾁﾝｸ
100
AcDbLine
 10
330.0324975767025
 20
216.8729430023191
 30
0.0
 11
332.5312918449022
 21
219.3717372705187
 31
0.0
  0
LINE
  5
18A8
330
18
100
AcDbEntity
  8
ﾊｯﾁﾝｸ
100
AcDbLine
 10
331.3795359948628
 20
216.8729430023191
 30
0.0
 11
332.5312918449021
 21
218.0246988523583
 31
0.0
  0
LINE
  5
18A9
330
18
100
AcDbEntity
  8
ﾊｯﾁﾝｸ
100
AcDbLine
 10
330.1253397690875
 20
216.8729430023191
 30
0.0
 11
330.0312918449021
 21
216.9669909265046
 31
0.0
  0
LINE
  5
18AA
330
18
100
AcDbEntity
  8
ﾊｯﾁﾝｸ
100
AcDbLine
 10
331.4723781872479
 20
216.872943002319
 30
0.0
 11
330.0312918449021
 21
218.3140293446649
 31
0.0
  0
LINE
  5
18AB
330
18
100
AcDbEntity
  8
ﾊｯﾁﾝｸ
100
AcDbLine
 10
332.5312918449021
 20
217.1610677628253
 30
0.0
 11
330.031291844902
 21
219.6610677628253
 31
0.0
  0
LINE
  5
18AC
330
18
100
AcDbEntity
  8
ﾊｯﾁﾝｸ
100
AcDbLine
 10
332.5312918449021
 20
218.5081061809857
 30
0.0
 11
331.0664550235687
 21
219.972943002319
 31
0.0
  0
LINE
  5
18AD
330
18
100
AcDbEntity
  8
ﾊｯﾁﾝｸ
100
AcDbLine
 10
332.5312918449021
 20
219.855144599146
 30
0.0
 11
332.4134934417291
 21
219.972943002319
 31
0.0
  0
LINE
  5
18AE
330
18
100
AcDbEntity
  8
0
  6
ByBlock
 62
     2
100
AcDbLine
 10
407.243548059472
 20
226.1729430023191
 30
0.0
 11
383.5726976549635
 21
226.1729430023191
 31
0.0
  0
LINE
  5
18AF
330
18
100
AcDbEntity
  8
0
  6
ByBlock
 62
     2
100
AcDbLine
 10
384.8226976549635
 20
248.7729430023191
 30
0.0
 11
384.8226976549635
 21
228.6729430023191
 31
0.0
  0
INSERT
  5
18B0
330
18
100
AcDbEntity
  8
0
  6
ByBlock
 62
     2
100
AcDbBlockReference
  2
_OPEN
 10
384.8226976549635
 20
251.2729430023191
 30
0.0
 41
2.5
 42
2.5
 43
2.5
 50
90.0
  0
INSERT
  5
18B1
330
18
100
AcDbEntity
  8
0
  6
ByBlock
 62
     2
100
AcDbBlockReference
  2
_OPEN
 10
384.8226976549635
 20
226.1729430023191
 30
0.0
 41
2.5
 42
2.5
 43
2.5
 50
270.0
  0
MTEXT
  5
18B2
330
18
100
AcDbEntity
  8
0
  6
ByBlock
 62
     6
100
AcDbMText
 10
382.9476976549635
 20
238.722943002319
 30
0.0
 40
2.5
 41
0.0
 71
     5
 72
     1
  1
\A1;25
  7
STYLE3
 11
0.0000000000000001
 21
1.0
 31
0.0
 73
     1
 44
1.0
  0
POINT
  5
18B3
330
18
100
AcDbEntity
  8
DEFPOINTS
  6
ByBlock
 62
     0
100
AcDbPoint
 10
398.9435480594721
 20
251.2729430023191
 30
0.0
  0
POINT
  5
18B4
330
18
100
AcDbEntity
  8
DEFPOINTS
  6
ByBlock
 62
     0
100
AcDbPoint
 10
407.243548059472
 20
226.1729430023191
 30
0.0
  0
POINT
  5
18B5
330
18
100
AcDbEntity
  8
DEFPOINTS
  6
ByBlock
 62
     0
100
AcDbPoint
 10
384.8226976549635
 20
226.1729430023191
 30
0.0
  0
LINE
  5
18B6
330
18
100
AcDbEntity
  8
0
  6
ByBlock
 62
     2
100
AcDbLine
 10
407.243548059472
 20
226.1729430023191
 30
0.0
 11
391.9310730664055
 21
226.1729430023191
 31
0.0
  0
LINE
  5
18B7
330
18
100
AcDbEntity
  8
0
  6
ByBlock
 62
     2
100
AcDbLine
 10
393.1810730664055
 20
233.672943002319
 30
0.0
 11
393.1810730664055
 21
236.172943002319
 31
0.0
  0
LINE
  5
18B8
330
18
100
AcDbEntity
  8
0
  6
ByBlock
 62
     2
100
AcDbLine
 10
393.1810730664055
 20
223.6729430023191
 30
0.0
 11
393.1810730664055
 21
221.1729430023191
 31
0.0
  0
LINE
  5
18B9
330
18
100
AcDbEntity
  8
0
  6
ByBlock
 62
     2
100
AcDbLine
 10
393.1810730664055
 20
231.172943002319
 30
0.0
 11
393.1810730664055
 21
226.1729430023191
 31
0.0
  0
INSERT
  5
18BA
330
18
100
AcDbEntity
  8
0
  6
ByBlock
 62
     2
100
AcDbBlockReference
  2
_OPEN
 10
393.1810730664055
 20
231.172943002319
 30
0.0
 41
2.5
 42
2.5
 43
2.5
 50
270.0
  0
INSERT
  5
18BB
330
18
100
AcDbEntity
  8
0
  6
ByBlock
 62
     2
100
AcDbBlockReference
  2
_OPEN
 10
393.1810730664055
 20
226.1729430023191
 30
0.0
 41
2.5
 42
2.5
 43
2.5
 50
90.0
  0
MTEXT
  5
18BC
330
18
100
AcDbEntity
  8
0
  6
ByBlock
 62
     6
100
AcDbMText
 10
391.3060730664055
 20
228.6729430023191
 30
0.0
 40
2.5
 41
0.0
 71
     5
 72
     1
  1
\A1;5
  7
STYLE3
 11
0.0000000000000001
 21
1.0
 31
0.0
 73
     1
 44
1.0
  0
POINT
  5
18BD
330
18
100
AcDbEntity
  8
DEFPOINTS
  6
ByBlock
 62
     0
100
AcDbPoint
 10
406.943548059472
 20
231.172943002319
 30
0.0
  0
POINT
  5
18BE
330
18
100
AcDbEntity
  8
DEFPOINTS
  6
ByBlock
 62
     0
100
AcDbPoint
 10
407.243548059472
 20
226.1729430023191
 30
0.0
  0
POINT
  5
18BF
330
18
100
AcDbEntity
  8
DEFPOINTS
  6
ByBlock
 62
     0
100
AcDbPoint
 10
393.1810730664055
 20
226.1729430023191
 30
0.0
  0
LINE
  5
18C0
330
18
100
AcDbEntity
  8
0
  6
ByBlock
 62
     2
100
AcDbLine
 10
410.843548059472
 20
211.1729430023191
 30
0.0
 11
383.5726976549635
 21
211.1729430023191
 31
0.0
  0
LINE
  5
18C1
330
18
100
AcDbEntity
  8
0
  6
ByBlock
 62
     2
100
AcDbLine
 10
408.593548059472
 20
220.1729430023191
 30
0.0
 11
383.5726976549635
 21
220.1729430023191
 31
0.0
  0
LINE
  5
18C2
330
18
100
AcDbEntity
  8
0
  6
ByBlock
 62
     2
100
AcDbLine
 10
384.8226976549635
 20
213.6729430023191
 30
0.0
 11
384.8226976549635
 21
217.6729430023191
 31
0.0
  0
INSERT
  5
18C3
330
18
100
AcDbEntity
  8
0
  6
ByBlock
 62
     2
100
AcDbBlockReference
  2
_OPEN
 10
384.8226976549635
 20
211.1729430023191
 30
0.0
 41
2.5
 42
2.5
 43
2.5
 50
270.0
  0
INSERT
  5
18C4
330
18
100
AcDbEntity
  8
0
  6
ByBlock
 62
     2
100
AcDbBlockReference
  2
_OPEN
 10
384.8226976549635
 20
220.1729430023191
 30
0.0
 41
2.5
 42
2.5
 43
2.5
 50
90.0
  0
MTEXT
  5
18C5
330
18
100
AcDbEntity
  8
0
  6
ByBlock
 62
     6
100
AcDbMText
 10
382.9476976549635
 20
215.6729430023191
 30
0.0
 40
2.5
 41
0.0
 71
     5
 72
     1
  1
\A1;9
  7
STYLE3
 11
0.0000000000000001
 21
1.0
 31
0.0
 73
     1
 44
1.0
  0
POINT
  5
18C6
330
18
100
AcDbEntity
  8
DEFPOINTS
  6
ByBlock
 62
     0
100
AcDbPoint
 10
410.843548059472
 20
211.1729430023191
 30
0.0
  0
POINT
  5
18C7
330
18
100
AcDbEntity
  8
DEFPOINTS
  6
ByBlock
 62
     0
100
AcDbPoint
 10
408.593548059472
 20
220.1729430023191
 30
0.0
  0
POINT
  5
18C8
330
18
100
AcDbEntity
  8
DEFPOINTS
  6
ByBlock
 62
     0
100
AcDbPoint
 10
384.8226976549635
 20
220.1729430023191
 30
0.0
  0
LINE
  5
18C9
330
18
100
AcDbEntity
  8
ﾊｯﾁﾝｸ
100
AcDbLine
 10
408.343548059472
 20
219.5658141068394
 30
0.0
 11
408.7506769549516
 21
219.9729430023191
 31
0.0
  0
LINE
  5
18CA
330
18
100
AcDbEntity
  8
ﾊｯﾁﾝｸ
100
AcDbLine
 10
408.343548059472
 20
218.218775688679
 30
0.0
 11
410.0977153731121
 21
219.9729430023191
 31
0.0
  0
LINE
  5
18CB
330
18
100
AcDbEntity
  8
ﾊｯﾁﾝｸ
100
AcDbLine
 10
408.3447537912724
 20
216.8729430023191
 30
0.0
 11
410.8435480594721
 21
219.3717372705187
 31
0.0
  0
LINE
  5
18CC
330
18
100
AcDbEntity
  8
ﾊｯﾁﾝｸ
100
AcDbLine
 10
409.6917922094328
 20
216.8729430023191
 30
0.0
 11
410.843548059472
 21
218.0246988523583
 31
0.0
  0
LINE
  5
18CD
330
18
100
AcDbEntity
  8
ﾊｯﾁﾝｸ
100
AcDbLine
 10
408.4375959836575
 20
216.8729430023191
 30
0.0
 11
408.343548059472
 21
216.9669909265046
 31
0.0
  0
LINE
  5
18CE
330
18
100
AcDbEntity
  8
ﾊｯﾁﾝｸ
100
AcDbLine
 10
409.7846344018178
 20
216.872943002319
 30
0.0
 11
408.343548059472
 21
218.3140293446649
 31
0.0
  0
LINE
  5
18CF
330
18
100
AcDbEntity
  8
ﾊｯﾁﾝｸ
100
AcDbLine
 10
410.843548059472
 20
217.1610677628253
 30
0.0
 11
408.343548059472
 21
219.6610677628253
 31
0.0
  0
LINE
  5
18D0
330
18
100
AcDbEntity
  8
ﾊｯﾁﾝｸ
100
AcDbLine
 10
410.843548059472
 20
218.5081061809857
 30
0.0
 11
409.3787112381386
 21
219.972943002319
 31
0.0
  0
LINE
  5
18D1
330
18
100
AcDbEntity
  8
ﾊｯﾁﾝｸ
100
AcDbLine
 10
410.8435480594721
 20
219.8551445991459
 30
0.0
 11
410.725749656299
 21
219.972943002319
 31
0.0
  0
LINE
  5
18D2
330
18
100
AcDbEntity
  8
0
  6
ByBlock
 62
     2
100
AcDbLine
 10
394.1632897269628
 20
251.2729430023191
 30
0.0
 11
391.9310730664055
 21
251.2729430023191
 31
0.0
  0
LINE
  5
18D3
330
18
100
AcDbEntity
  8
0
  6
ByBlock
 62
     2
100
AcDbLine
 10
406.943548059472
 20
231.172943002319
 30
0.0
 11
391.9310730664055
 21
231.172943002319
 31
0.0
  0
LINE
  5
18D4
330
18
100
AcDbEntity
  8
0
  6
ByBlock
 62
     2
100
AcDbLine
 10
393.1810730664055
 20
248.7729430023191
 30
0.0
 11
393.1810730664055
 21
233.672943002319
 31
0.0
  0
INSERT
  5
18D5
330
18
100
AcDbEntity
  8
0
  6
ByBlock
 62
     2
100
AcDbBlockReference
  2
_OPEN
 10
393.1810730664055
 20
251.2729430023191
 30
0.0
 41
2.5
 42
2.5
 43
2.5
 50
90.0
  0
INSERT
  5
18D6
330
18
100
AcDbEntity
  8
0
  6
ByBlock
 62
     2
100
AcDbBlockReference
  2
_OPEN
 10
393.1810730664055
 20
231.172943002319
 30
0.0
 41
2.5
 42
2.5
 43
2.5
 50
270.0
  0
MTEXT
  5
18D7
330
18
100
AcDbEntity
  8
0
  6
ByBlock
 62
     6
100
AcDbMText
 10
391.3060730664055
 20
241.2229430023191
 30
0.0
 40
2.5
 41
0.0
 71
     5
 72
     1
  1
\A1;20
  7
STYLE3
 11
0.0000000000000001
 21
1.0
 31
0.0
 73
     1
 44
1.0
  0
POINT
  5
18D8
330
18
100
AcDbEntity
  8
DEFPOINTS
  6
ByBlock
 62
     0
100
AcDbPoint
 10
394.1632897269628
 20
251.2729430023191
 30
0.0
  0
POINT
  5
18D9
330
18
100
AcDbEntity
  8
DEFPOINTS
  6
ByBlock
 62
     0
100
AcDbPoint
 10
406.943548059472
 20
231.172943002319
 30
0.0
  0
POINT
  5
18DA
330
18
100
AcDbEntity
  8
DEFPOINTS
  6
ByBlock
 62
     0
100
AcDbPoint
 10
393.1810730664055
 20
231.172943002319
 30
0.0
  0
HATCH
  5
18DB
330
18
100
AcDbEntity
  8
針
100
AcDbHatch
 10
0.0
 20
0.0
 30
0.0
210
0.0
220
0.0
230
1.0
  2
SOLID
 70
     1
 71
     0
 91
        2
 92
        7
 72
     1
 73
     1
 93
        5
 10
328.7142960737443
 20
291.9582087808396
 42
0.31735696877887
 10
329.6041439353217
 20
293.1269101438557
 42
0.0
 10
329.1923202390321
 20
293.4444242121786
 42
0.0
 10
329.1595197231834
 20
293.4340822492568
 42
-0.4142135623731173
 10
328.5924310918399
 20
292.3447151240376
 42
0.0
 97
        0
 92
        7
 72
     1
 73
     1
 93
        4
 10
328.7142960737443
 20
291.9582087808396
 42
0.0
 10
328.5924310918399
 20
292.3447151240376
 42
-0.4142135623730728
 10
327.5030639666207
 20
292.911803755381
 42
0.0
 10
327.1165576234227
 20
292.7899387734766
 42
0.4142135623730844
 97
        0
 75
     0
 76
     1
 47
0.0161501285364394
 98
        2
 10
329.0802402678373
 20
292.3508012874013
 10
328.2892813860164
 20
292.1210202265303
450
        0
451
        0
460
0.0
461
0.0
452
        0
462
0.0
453
        0
470

  0
HATCH
  5
18DC
330
18
100
AcDbEntity
  8
針
100
AcDbHatch
 10
0.0
 20
0.0
 30
0.0
210
0.0
220
0.0
230
1.0
  2
SOLID
 70
     1
 71
     0
 91
        4
 92
        7
 72
     1
 73
     1
 93
        4
 10
327.0758169000624
 20
293.3875452647123
 42
0.0
 10
327.4752862006932
 20
293.3192627266781
 42
-0.4142135623730951
 10
328.477611569261
 20
294.0289486465277
 42
0.0
 10
328.5458941072952
 20
294.4284179471585
 42
0.4142135623730996
 97
        0
 92
        7
 72
     1
 73
     1
 93
        5
 10
327.4752862006932
 20
293.3192627266781
 42
0.0
 10
327.0758169000624
 20
293.3875452647123
 42
0.3173569687788799
 10
327.7085314148922
 20
292.0618890365018
 42
0.0
 10
328.1791773838965
 20
292.2830367524487
 42
0.0
 10
328.1849721205428
 20
292.3169373581102
 42
-0.4142135623730839
 97
        0
 92
        7
 72
     1
 73
     1
 93
        4
 10
328.5458941072952
 20
294.4284179471585
 42
0.0
 10
328.477611569261
 20
294.0289486465277
 42
-0.4142135623730951
 10
329.1872974891107
 20
293.0266232779599
 42
0.0
 10
329.5867667897415
 20
292.9583407399257
 42
0.4142135623730996
 97
        0
 92
        7
 72
     1
 73
     1
 93
        4
 10
329.1872974891107
 20
293.0266232779599
 42
-0.1036385141593389
 10
329.0565606744056
 20
292.695302709207
 42
0.0
 10
329.5840798168442
 20
292.9431740629453
 42
0.003023315109616
 10
329.5867667897415
 20
292.9583407399257
 42
0.0
 97
        0
 75
     0
 76
     1
 47
0.0223982890607777
 98
        4
 10
327.7684309476779
 20
294.1711924535081
 10
327.3620787071436
 20
292.8714141043911
 10
328.8471701118624
 20
294.1711203111517
 10
329.2682899057615
 20
292.9405512738136
450
        0
451
        0
460
0.0
461
0.0
452
        0
462
0.0
453
        0
470

  0
CIRCLE
  5
18DD
330
18
100
AcDbEntity
  8
針
100
AcDbCircle
 10
328.331291844902
 20
293.1729430023191
 30
0.0
 40
1.273684210526315
  0
CIRCLE
  5
18DE
330
18
100
AcDbEntity
  8
針
100
AcDbCircle
 10
328.331291844902
 20
293.1729430023191
 30
0.0
 40
0.8684210526315789
  0
HATCH
  5
18DF
330
18
100
AcDbEntity
  8
針
100
AcDbHatch
 10
0.0
 20
0.0
 30
0.0
210
0.0
220
0.0
230
1.0
  2
SOLID
 70
     1
 71
     0
 91
        1
 92
        7
 72
     1
 73
     1
 93
        7
 10
328.5610267775118
 20
298.6114298100852
 42
0.0
 10
328.4452626983724
 20
298.6138547218611
 42
0.0
 10
328.3294986192332
 20
298.616279633637
 42
0.0
 10
328.1988799399605
 20
294.8635671044253
 42
-0.2935495917910092
 10
327.8424732281489
 20
294.3490925795662
 42
-0.2104432563350663
 10
328.8689329376128
 20
294.3275916603846
 42
-0.2935491884945053
 10
328.534383591592
 20
294.8565393047679
 42
0.0
 97
        0
 75
     0
 76
     1
 47
0.0140573597042523
 98
        1
 10
328.4693221090714
 20
296.5223827439821
450
        0
451
        0
460
0.0
461
0.0
452
        0
462
0.0
453
        0
470

  0
LINE
  5
18E0
330
18
100
AcDbEntity
  8
針
100
AcDbLine
 10
328.5343835915921
 20
294.856539304768
 30
0.0
 11
328.5610267775116
 21
298.6114298100851
 31
0.0
  0
LINE
  5
18E1
330
18
100
AcDbEntity
  8
針
100
AcDbLine
 10
328.1988799399605
 20
294.8635671044256
 30
0.0
 11
328.3294986192331
 21
298.6162796336371
 31
0.0
  0
CIRCLE
  5
18E2
330
18
100
AcDbEntity
  8
針
 62
     4
100
AcDbCircle
 10
328.331291844902
 20
293.1729430023191
 30
0.0
 40
0.4631578947368422
  0
ARC
  5
18E3
330
18
100
AcDbEntity
  8
針
100
AcDbCircle
 10
329.1133163862921
 20
294.8524314315656
 30
0.0
 40
0.5789473684210527
100
AcDbArc
 50
179.5934591207347
 51
245.0317787024804
  0
ARC
  5
18E4
330
18
100
AcDbEntity
  8
針
100
AcDbCircle
 10
327.6202829478068
 20
294.8837060237693
 30
0.0
 40
0.5789473684210527
100
AcDbArc
 50
292.5682212975196
 51
358.0065408792653
  0
LINE
  5
18E5
330
18
100
AcDbEntity
  8
文字
100
AcDbLine
 10
328.5610267775116
 20
298.6114298100851
 30
0.0
 11
328.3294986192331
 21
298.6162796336371
 31
0.0
  0
LINE
  5
18E6
330
18
100
AcDbEntity
  8
0
  6
ByBlock
 62
     2
100
AcDbLine
 10
418.343548059472
 20
315.4229430023191
 30
0.0
 11
452.7981241922904
 21
315.4229430023191
 31
0.0
  0
LINE
  5
18E7
330
18
100
AcDbEntity
  8
0
  6
ByBlock
 62
     2
100
AcDbLine
 10
418.343548059472
 20
252.9229430023191
 30
0.0
 11
452.7981241922904
 21
252.9229430023191
 31
0.0
  0
LINE
  5
18E8
330
18
100
AcDbEntity
  8
0
  6
ByBlock
 62
     2
100
AcDbLine
 10
451.5481241922904
 20
312.9229430023191
 30
0.0
 11
451.5481241922904
 21
255.4229430023191
 31
0.0
  0
INSERT
  5
18E9
330
18
100
AcDbEntity
  8
0
  6
ByBlock
 62
     2
100
AcDbBlockReference
  2
_OPEN
 10
451.5481241922904
 20
315.4229430023191
 30
0.0
 41
2.5
 42
2.5
 43
2.5
 50
90.0
  0
INSERT
  5
18EA
330
18
100
AcDbEntity
  8
0
  6
ByBlock
 62
     2
100
AcDbBlockReference
  2
_OPEN
 10
451.5481241922904
 20
252.9229430023191
 30
0.0
 41
2.5
 42
2.5
 43
2.5
 50
270.0
  0
MTEXT
  5
18EB
330
18
100
AcDbEntity
  8
0
  6
ByBlock
 62
     6
100
AcDbMText
 10
449.6731241922904
 20
284.1729430023191
 30
0.0
 40
2.5
 41
0.0
 71
     5
 72
     1
  1
\A1;φ62.5
  7
STYLE3
 11
0.0000000000000001
 21
1.0
 31
0.0
 73
     1
 44
1.0
  0
POINT
  5
18EC
330
18
100
AcDbEntity
  8
DEFPOINTS
  6
ByBlock
 62
     0
100
AcDbPoint
 10
418.343548059472
 20
315.4229430023191
 30
0.0
  0
POINT
  5
18ED
330
18
100
AcDbEntity
  8
DEFPOINTS
  6
ByBlock
 62
     0
100
AcDbPoint
 10
418.343548059472
 20
252.9229430023191
 30
0.0
  0
POINT
  5
18EE
330
18
100
AcDbEntity
  8
DEFPOINTS
  6
ByBlock
 62
     0
100
AcDbPoint
 10
451.5481241922904
 20
252.9229430023191
 30
0.0
  0
ARC
  5
191D
330
18
100
AcDbEntity
  8
外形線
100
AcDbCircle
 10
332.5312918449021
 20
212.3729430023191
 30
0.0
 40
1.199999999999999
100
AcDbArc
 50
189.59406822686
 51
350.4059317731399
  0
ARC
  5
191E
330
18
100
AcDbEntity
  8
外形線
100
AcDbCircle
 10
410.843548059472
 20
212.3729430023191
 30
0.0
 40
1.199999999999999
100
AcDbArc
 50
189.59406822686
 51
350.4059317731399
  0
TEXT
  5
1946
330
18
100
AcDbEntity
  8
文字
100
AcDbText
 10
324.6996094044494
 20
356.577132637953
 30
0.0
 40
4.0
  1
Model No.55 Dial Gauge
  7
STYLE3
100
AcDbText
  0
LINE
  5
1947
330
18
100
AcDbEntity
  8
外形線
100
AcDbLine
 10
324.2467934044494
 20
354.186590637953
 30
0.0
 11
396.2467934044494
 21
354.186590637953
 31
0.0
  0
LINE
  5
1948
330
18
100
AcDbEntity
  8
外形線
100
AcDbLine
 10
324.2467934044494
 20
353.186590637953
 30
0.0
 11
396.2467934044494
 21
353.186590637953
 31
0.0
  0
TEXT
  5
1949
330
18
100
AcDbEntity
  8
0
  6
Continuous
100
AcDbText
 10
352.3270494044494
 20
183.771157637953
 30
0.0
 40
2.1
  1
Design and specifications are subject to change without notice for future improvement.
  7
STYLE3
100
AcDbText
  0
LINE
  5
194A
330
18
100
AcDbEntity
  8
外形線
100
AcDbLine
 10
350.8695824044494
 20
172.258388637953
 30
0.0
 11
350.8695824044494
 21
192.653372637953
 31
0.0
  0
LINE
  5
194B
330
18
100
AcDbEntity
  8
外形線
100
AcDbLine
 10
350.8695824044494
 20
181.873166637953
 30
0.0
 11
491.6609994044493
 21
181.873166637953
 31
0.0
  0
TEXT
  5
194C
330
18
100
AcDbEntity
  8
0
  6
Continuous
100
AcDbText
 10
395.6398264044494
 20
175.754672637953
 30
0.0
 40
2.399999999999999
  1
mm
  7
STYLE3
100
AcDbText
  0
TEXT
  5
194D
330
18
100
AcDbEntity
  8
0
  6
Continuous
100
AcDbText
 10
352.0355574044494
 20
174.006529637953
 30
0.0
 40
2.1
  1
3RD Angle Projection
  7
STYLE3
100
AcDbText
  0
TEXT
  5
194E
330
18
100
AcDbEntity
  8
0
  6
Continuous
100
AcDbText
 10
354.6590004044494
 20
177.502812637953
 30
0.0
 40
3.0
  1
三　　角　　法
  7
STYLE3
100
AcDbText
  0
TEXT
  5
194F
330
18
100
AcDbEntity
  8
0
  6
Continuous
100
AcDbText
 10
387.5977784044494
 20
177.508766637953
 30
0.0
 40
3.0
  1
単位
  7
STYLE3
100
AcDbText
  0
TEXT
  5
1950
330
18
100
AcDbEntity
  8
0
  6
Continuous
100
AcDbText
 10
387.7694994044494
 20
174.006530637953
 30
0.0
 40
2.1
  1
Unit
  7
STYLE3
100
AcDbText
  0
LINE
  5
1951
330
18
100
AcDbEntity
  8
外形線
100
AcDbLine
 10
386.1403094044494
 20
181.873166637953
 30
0.0
 11
386.1403094044494
 21
172.258388637953
 31
0.0
  0
TEXT
  5
1952
330
18
100
AcDbEntity
  8
0
  6
Continuous
100
AcDbText
 10
454.2413124044494
 20
177.794169637953
 30
0.0
 40
3.0
  1
株式会社　尾崎製作所
  7
STYLE3
100
AcDbText
  0
TEXT
  5
1953
330
18
100
AcDbEntity
  8
0
  6
Continuous
100
AcDbText
 10
455.1157914044494
 20
174.006529637953
 30
0.0
 40
2.1
  1
OZAKI MFG. CO., LTD.
  7
STYLE3
100
AcDbText
  0
TEXT
  5
1954
330
18
100
AcDbEntity
  8
0
  6
Continuous
100
AcDbText
 10
433.8367574044493
 20
175.754671637953
 30
0.0
 40
2.1
  1
2010.06.08
  7
STYLE3
100
AcDbText
  0
TEXT
  5
1955
330
18
100
AcDbEntity
  8
0
  6
Continuous
100
AcDbText
 10
414.9981784044493
 20
176.046029637953
 30
0.0
 40
2.399999999999999
  1
1/1
  7
STYLE3
100
AcDbText
  0
TEXT
  5
1956
330
18
100
AcDbEntity
  8
0
  6
Continuous
100
AcDbText
 10
404.9156744044494
 20
177.217409637953
 30
0.0
 40
3.0
  1
尺 度
  7
STYLE3
100
AcDbText
  0
TEXT
  5
1957
330
18
100
AcDbEntity
  8
0
  6
Continuous
100
AcDbText
 10
405.3788904044494
 20
174.297887637953
 30
0.0
 40
2.1
  1
Scale
  7
STYLE3
100
AcDbText
  0
LINE
  5
1958
330
18
100
AcDbEntity
  8
外形線
100
AcDbLine
 10
403.6299274044494
 20
181.873166637953
 30
0.0
 11
403.6299274044494
 21
172.258388637953
 31
0.0
  0
TEXT
  5
1959
330
18
100
AcDbEntity
  8
0
  6
Continuous
100
AcDbText
 10
425.0919504044494
 20
174.006531637953
 30
0.0
 40
2.1
  1
Date
  7
STYLE3
100
AcDbText
  0
TEXT
  5
195A
330
18
100
AcDbEntity
  8
0
  6
Continuous
100
AcDbText
 10
424.7085894044493
 20
177.339614637953
 30
0.0
 40
3.0
  1
日 付
  7
STYLE3
100
AcDbText
  0
LINE
  5
195B
330
18
100
AcDbEntity
  8
外形線
100
AcDbLine
 10
423.1599994044493
 20
181.873166637953
 30
0.0
 11
423.1599994044493
 21
172.258388637953
 31
0.0
  0
LINE
  5
195C
330
18
100
AcDbEntity
  8
外形線
100
AcDbLine
 10
452.8923484044494
 20
181.873166637953
 30
0.0
 11
452.8923484044494
 21
172.258388637953
 31
0.0
  0
LINE
  5
195D
330
18
100
AcDbEntity
  8
外形線
100
AcDbLine
 10
350.8695824044494
 20
192.653372637953
 30
0.0
 11
491.6609994044493
 21
192.653372637953
 31
0.0
  0
TEXT
  5
195E
330
18
100
AcDbEntity
  8
0
  6
Continuous
100
AcDbText
 10
352.6185434044494
 20
187.700305637953
 30
0.0
 40
3.5
  1
仕様及び外観は予告なく変更される場合がございますのでご了承下さい。
  7
STYLE3
100
AcDbText
  0
ENDSEC
  0
SECTION
  2
OBJECTS
  0
DICTIONARY
  5
C
330
0
100
AcDbDictionary
281
     1
  3
ACAD_COLOR
350
1911
  3
ACAD_GROUP
350
D
  3
ACAD_LAYOUT
350
1914
  3
ACAD_MATERIAL
350
1910
  3
ACAD_MLINESTYLE
350
1B
  3
ACAD_PLOTSETTINGS
350
1915
  3
ACAD_PLOTSTYLENAME
350
190E
  3
ACAD_TABLESTYLE
350
1912
  3
ACDBVARIABLEDICTIONARY
350
1310
  0
DICTIONARY
  5
1911
102
{ACAD_REACTORS
330
C
102
}
330
C
100
AcDbDictionary
281
     1
  0
DICTIONARY
  5
D
102
{ACAD_REACTORS
330
C
102
}
330
C
100
AcDbDictionary
281
     1
  0
DICTIONARY
  5
1914
102
{ACAD_REACTORS
330
C
102
}
330
C
100
AcDbDictionary
281
     1
  3
Model
350
1916
  3
レイアウト1
350
1917
  0
DICTIONARY
  5
1910
102
{ACAD_REACTORS
330
C
102
}
330
C
100
AcDbDictionary
281
     1
  0
DICTIONARY
  5
1B
102
{ACAD_REACTORS
330
C
102
}
330
C
100
AcDbDictionary
281
     1
  3
STANDARD
350
1C
  0
DICTIONARY
  5
1915
102
{ACAD_REACTORS
330
C
102
}
330
C
100
AcDbDictionary
281
     1
  0
ACDBDICTIONARYWDFLT
  5
190E
102
{ACAD_REACTORS
330
C
102
}
330
C
100
AcDbDictionary
281
     1
  3
Normal
350
190F
100
AcDbDictionaryWithDefault
340
190F
  0
DICTIONARY
  5
1912
102
{ACAD_REACTORS
330
C
102
}
330
C
100
AcDbDictionary
281
     1
  3
Standard
350
1913
  0
DICTIONARY
  5
1310
102
{ACAD_REACTORS
330
C
102
}
330
C
100
AcDbDictionary
281
     1
  3
CTABLESTYLE
350
1920
  3
SORTENTS
350
1311
  0
LAYOUT
  5
1916
102
{ACAD_REACTORS
330
1914
102
}
330
1914
100
AcDbPlotSettings
  1

  2
WIDR Printer
  4

  6

 40
0.0
 41
0.0
 42
0.0
 43
0.0
 44
0.0
 45
0.0
 46
0.0
 47
0.0
 48
0.0
 49
0.0
140
0.0
141
0.0
142
1.0
143
1.0
 70
  1712
 72
     0
 73
     0
 74
     0
  7
AutoCad LT 98.ctb
 75
     0
147
1.0
 76
     0
 77
     2
 78
   300
148
0.0
149
0.0
100
AcDbLayout
  1
Model
 70
     1
 71
     0
 10
0.0
 20
0.0
 11
12.0
 21
9.0
 12
0.0
 22
0.0
 32
0.0
 14
0.0
 24
0.0
 34
0.0
 15
0.0
 25
0.0
 35
0.0
146
0.0
 13
0.0
 23
0.0
 33
0.0
 16
1.0
 26
0.0
 36
0.0
 17
0.0
 27
1.0
 37
0.0
 76
     0
330
18
  0
LAYOUT
  5
1917
102
{ACAD_REACTORS
330
1914
102
}
330
1914
100
AcDbPlotSettings
  1

  2
WIDR Printer
  4

  6

 40
0.0
 41
0.0
 42
0.0
 43
0.0
 44
0.0
 45
0.0
 46
0.0
 47
0.0
 48
0.0
 49
0.0
140
0.0
141
0.0
142
1.0
143
1.0
 70
   688
 72
     0
 73
     0
 74
     5
  7
AutoCad LT 98.ctb
 75
    16
147
1.0
 76
     0
 77
     2
 78
   300
148
0.0
149
0.0
100
AcDbLayout
  1
レイアウト1
 70
     1
 71
     1
 10
0.0
 20
0.0
 11
420.0
 21
297.0
 12
0.0
 22
0.0
 32
0.0
 14
1.000000000000000E+20
 24
1.000000000000000E+20
 34
1.000000000000000E+20
 15
-1.000000000000000E+20
 25
-1.000000000000000E+20
 35
-1.000000000000000E+20
146
0.0
 13
0.0
 23
0.0
 33
0.0
 16
1.0
 26
0.0
 36
0.0
 17
0.0
 27
1.0
 37
0.0
 76
     0
330
15
  0
MLINESTYLE
  5
1C
102
{ACAD_REACTORS
330
1B
102
}
330
1B
100
AcDbMlineStyle
  2
STANDARD
 70
     0
  3

 62
   256
 51
90.0
 52
90.0
 71
     2
 49
0.5
 62
   256
  6
BYLAYER
 49
-0.5
 62
   256
  6
BYLAYER
  0
ACDBPLACEHOLDER
  5
190F
102
{ACAD_REACTORS
330
190E
102
}
330
190E
  0
ACAD_PROXY_OBJECT
  5
1913
102
{ACAD_REACTORS
330
1912
102
}
330
1912
100
AcDbProxyObject
 90
      499
 91
      504
 95
  2555929
 70
     0
 93
     1849
310
4214DD185B99185C992420000000000000F83F0000000000003E0FC00000000000004901028000000C1008070000C3001FDFF8000000C1003FBFF000000182007F7FE00000030400FEFFC00000060801FDFF8000000C1003FBFF000000182000000000000000C2020B0000001820100E000186003FBFF000000182007F7FE0
310
0000030400FEFFC00000060801FDFF8000000C1003FBFF000000182007F7FE0000003040000000000000012404160000003040201C00030C007F7FE00000030400FEFFC00000060801FDFF8000000C1003FBFF000000182007F7FE00000030400FEFFC000000608000
340
F
340
F
340
F
 94
        0
  0
DICTIONARYVAR
  5
1920
102
{ACAD_REACTORS
330
1310
102
}
330
1310
100
DictionaryVariables
280
     0
  1
STANDARD
  0
DICTIONARYVAR
  5
1311
102
{ACAD_REACTORS
330
1310
102
}
330
1310
100
DictionaryVariables
280
     0
  1
96
  0
ENDSEC
  0
EOF
