  0
SECTION
  2
HEADER
  9
$ACADVER
  1
AC1018
  9
$ACADMAINTVER
 70
     0
  9
$DWGCODEPAGE
  3
ANSI_932
  9
$INSBASE
 10
0.0
 20
0.0
 30
0.0
  9
$EXTMIN
 10
236.1560273818611
 20
166.8925479209044
 30
-0.0000000349181948
  9
$EXTMAX
 10
491.6047919688958
 20
362.3229019175512
 30
0.0000000814935746
  9
$LIMMIN
 10
0.0
 20
0.0
  9
$LIMMAX
 10
420.0
 20
297.0
  9
$ORTHOMODE
 70
     0
  9
$REGENMODE
 70
     1
  9
$FILLMODE
 70
     1
  9
$QTEXTMODE
 70
     0
  9
$MIRRTEXT
 70
     1
  9
$LTSCALE
 40
1.0
  9
$ATTMODE
 70
     1
  9
$TEXTSIZE
 40
1.0
  9
$TRACEWID
 40
1.0
  9
$TEXTSTYLE
  7
STYLE3
  9
$CLAYER
  8
寸法線
  9
$CELTYPE
  6
BYLAYER
  9
$CECOLOR
 62
   256
  9
$CELTSCALE
 40
1.0
  9
$DISPSILH
 70
     0
  9
$DIMSCALE
 40
1.0
  9
$DIMASZ
 40
2.5
  9
$DIMEXO
 40
0.0
  9
$DIMDLI
 40
3.75
  9
$DIMRND
 40
0.0
  9
$DIMDLE
 40
0.0
  9
$DIMEXE
 40
1.25
  9
$DIMTP
 40
0.0
  9
$DIMTM
 40
0.0
  9
$DIMTXT
 40
2.5
  9
$DIMCEN
 40
2.5
  9
$DIMTSZ
 40
0.0
  9
$DIMTOL
 70
     0
  9
$DIMLIM
 70
     0
  9
$DIMTIH
 70
     0
  9
$DIMTOH
 70
     0
  9
$DIMSE1
 70
     0
  9
$DIMSE2
 70
     0
  9
$DIMTAD
 70
     1
  9
$DIMZIN
 70
     8
  9
$DIMBLK
  1

  9
$DIMASO
 70
     1
  9
$DIMSHO
 70
     1
  9
$DIMPOST
  1

  9
$DIMAPOST
  1

  9
$DIMALT
 70
     0
  9
$DIMALTD
 70
     4
  9
$DIMALTF
 40
0.0394
  9
$DIMLFAC
 40
1.0
  9
$DIMTOFL
 70
     1
  9
$DIMTVP
 40
0.0
  9
$DIMTIX
 70
     0
  9
$DIMSOXD
 70
     0
  9
$DIMSAH
 70
     1
  9
$DIMBLK1
  1
OPEN
  9
$DIMBLK2
  1
OPEN
  9
$DIMSTYLE
  2
STYLE2
  9
$DIMCLRD
 70
     2
  9
$DIMCLRE
 70
     2
  9
$DIMCLRT
 70
     6
  9
$DIMTFAC
 40
1.0
  9
$DIMGAP
 40
0.625
  9
$DIMJUST
 70
     0
  9
$DIMSD1
 70
     0
  9
$DIMSD2
 70
     0
  9
$DIMTOLJ
 70
     1
  9
$DIMTZIN
 70
     0
  9
$DIMALTZ
 70
     0
  9
$DIMALTTZ
 70
     0
  9
$DIMUPT
 70
     0
  9
$DIMDEC
 70
     1
  9
$DIMTDEC
 70
     4
  9
$DIMALTU
 70
     8
  9
$DIMALTTD
 70
     4
  9
$DIMTXSTY
  7
STYLE3
  9
$DIMAUNIT
 70
     0
  9
$DIMADEC
 70
     0
  9
$DIMALTRND
 40
0.0
  9
$DIMAZIN
 70
     0
  9
$DIMDSEP
 70
    46
  9
$DIMATFIT
 70
     3
  9
$DIMFRAC
 70
     0
  9
$DIMLDRBLK
  1

  9
$DIMLUNIT
 70
     2
  9
$DIMLWD
 70
    -2
  9
$DIMLWE
 70
    -2
  9
$DIMTMOVE
 70
     0
  9
$LUNITS
 70
     2
  9
$LUPREC
 70
     4
  9
$SKETCHINC
 40
1.0
  9
$FILLETRAD
 40
0.0
  9
$AUNITS
 70
     0
  9
$AUPREC
 70
     0
  9
$MENU
  1
.
  9
$ELEVATION
 40
0.0
  9
$PELEVATION
 40
0.0
  9
$THICKNESS
 40
0.0
  9
$LIMCHECK
 70
     0
  9
$CHAMFERA
 40
0.2
  9
$CHAMFERB
 40
0.2
  9
$CHAMFERC
 40
20.0
  9
$CHAMFERD
 40
0.0
  9
$SKPOLY
 70
     0
  9
$TDCREATE
 40
2450717.578556713
  9
$TDUCREATE
 40
2450717.203556713
  9
$TDUPDATE
 40
2455356.455320810
  9
$TDUUPDATE
 40
2455356.080320810
  9
$TDINDWG
 40
0.4912049537
  9
$TDUSRTIMER
 40
0.4912049537
  9
$USRTIMER
 70
     1
  9
$ANGBASE
 50
0.0
  9
$ANGDIR
 70
     0
  9
$PDMODE
 70
     0
  9
$PDSIZE
 40
0.0
  9
$PLINEWID
 40
0.0
  9
$SPLFRAME
 70
     0
  9
$SPLINETYPE
 70
     6
  9
$SPLINESEGS
 70
     8
  9
$HANDSEED
  5
1DF1
  9
$SURFTAB1
 70
     6
  9
$SURFTAB2
 70
     6
  9
$SURFTYPE
 70
     6
  9
$SURFU
 70
     6
  9
$SURFV
 70
     6
  9
$UCSBASE
  2

  9
$UCSNAME
  2

  9
$UCSORG
 10
0.0
 20
0.0
 30
0.0
  9
$UCSXDIR
 10
1.0
 20
0.0
 30
0.0
  9
$UCSYDIR
 10
0.0
 20
1.0
 30
0.0
  9
$UCSORTHOREF
  2

  9
$UCSORTHOVIEW
 70
     0
  9
$UCSORGTOP
 10
0.0
 20
0.0
 30
0.0
  9
$UCSORGBOTTOM
 10
0.0
 20
0.0
 30
0.0
  9
$UCSORGLEFT
 10
0.0
 20
0.0
 30
0.0
  9
$UCSORGRIGHT
 10
0.0
 20
0.0
 30
0.0
  9
$UCSORGFRONT
 10
0.0
 20
0.0
 30
0.0
  9
$UCSORGBACK
 10
0.0
 20
0.0
 30
0.0
  9
$PUCSBASE
  2

  9
$PUCSNAME
  2

  9
$PUCSORG
 10
0.0
 20
0.0
 30
0.0
  9
$PUCSXDIR
 10
1.0
 20
0.0
 30
0.0
  9
$PUCSYDIR
 10
0.0
 20
1.0
 30
0.0
  9
$PUCSORTHOREF
  2

  9
$PUCSORTHOVIEW
 70
     0
  9
$PUCSORGTOP
 10
0.0
 20
0.0
 30
0.0
  9
$PUCSORGBOTTOM
 10
0.0
 20
0.0
 30
0.0
  9
$PUCSORGLEFT
 10
0.0
 20
0.0
 30
0.0
  9
$PUCSORGRIGHT
 10
0.0
 20
0.0
 30
0.0
  9
$PUCSORGFRONT
 10
0.0
 20
0.0
 30
0.0
  9
$PUCSORGBACK
 10
0.0
 20
0.0
 30
0.0
  9
$USERI1
 70
     0
  9
$USERI2
 70
     0
  9
$USERI3
 70
     0
  9
$USERI4
 70
     0
  9
$USERI5
 70
     0
  9
$USERR1
 40
0.0
  9
$USERR2
 40
0.0
  9
$USERR3
 40
0.0
  9
$USERR4
 40
0.0
  9
$USERR5
 40
0.0
  9
$WORLDVIEW
 70
     1
  9
$SHADEDGE
 70
     3
  9
$SHADEDIF
 70
    70
  9
$TILEMODE
 70
     1
  9
$MAXACTVP
 70
    48
  9
$PINSBASE
 10
0.0
 20
0.0
 30
0.0
  9
$PLIMCHECK
 70
     0
  9
$PEXTMIN
 10
1.000000000000000E+20
 20
1.000000000000000E+20
 30
1.000000000000000E+20
  9
$PEXTMAX
 10
-1.000000000000000E+20
 20
-1.000000000000000E+20
 30
-1.000000000000000E+20
  9
$PLIMMIN
 10
0.0
 20
0.0
  9
$PLIMMAX
 10
420.0
 20
297.0
  9
$UNITMODE
 70
     0
  9
$VISRETAIN
 70
     1
  9
$PLINEGEN
 70
     0
  9
$PSLTSCALE
 70
     1
  9
$TREEDEPTH
 70
  3020
  9
$CMLSTYLE
  2
STANDARD
  9
$CMLJUST
 70
     0
  9
$CMLSCALE
 40
20.0
  9
$PROXYGRAPHICS
 70
     1
  9
$MEASUREMENT
 70
     1
  9
$CELWEIGHT
370
    -1
  9
$ENDCAPS
280
     0
  9
$JOINSTYLE
280
     0
  9
$LWDISPLAY
290
     0
  9
$INSUNITS
 70
     0
  9
$HYPERLINKBASE
  1

  9
$STYLESHEET
  1

  9
$XEDIT
290
     1
  9
$CEPSNTYPE
380
     0
  9
$PSTYLEMODE
290
     1
  9
$FINGERPRINTGUID
  2
{59981915-12AC-48E4-BB18-DFC86F7C3C65}
  9
$VERSIONGUID
  2
{C0BE7C52-8F1C-43AB-84D5-CA186902A210}
  9
$EXTNAMES
290
     1
  9
$PSVPSCALE
 40
0.0
  9
$OLESTARTUP
290
     0
  9
$SORTENTS
280
    96
  9
$INDEXCTL
280
     0
  9
$HIDETEXT
280
     0
  9
$XCLIPFRAME
290
     0
  9
$HALOGAP
280
     0
  9
$OBSCOLOR
 70
   257
  9
$OBSLTYPE
280
     0
  9
$INTERSECTIONDISPLAY
280
     0
  9
$INTERSECTIONCOLOR
 70
   257
  9
$DIMASSOC
280
     1
  9
$PROJECTNAME
  1

  0
ENDSEC
  0
SECTION
  2
CLASSES
  0
CLASS
  1
HATCH
  2
AcDbHatch
  3
ObjectDBX Classes
 90
        0
 91
       24
280
     0
281
     1
  0
CLASS
  1
LWPOLYLINE
  2
AcDbPolyline
  3
ObjectDBX Classes
 90
        0
 91
        1
280
     0
281
     1
  0
CLASS
  1
IMAGEDEF
  2
AcDbRasterImageDef
  3
ISM
 90
        0
 91
        1
280
     0
281
     0
  0
CLASS
  1
DICTIONARYVAR
  2
AcDbDictionaryVar
  3
ObjectDBX Classes
 90
        0
 91
        2
280
     0
281
     0
  0
CLASS
  1
ACDBDICTIONARYWDFLT
  2
AcDbDictionaryWithDefault
  3
ObjectDBX Classes
 90
        0
 91
        1
280
     0
281
     0
  0
CLASS
  1
TABLESTYLE
  2
AcDbTableStyle
  3
ObjectDBX Classes
 90
     2047
 91
        1
280
     0
281
     0
  0
ENDSEC
  0
SECTION
  2
TABLES
  0
TABLE
  2
VPORT
  5
8
330
0
100
AcDbSymbolTable
 70
     2
  0
VPORT
  5
1DF0
330
8
100
AcDbSymbolTableRecord
100
AcDbViewportTableRecord
  2
*Active
 70
     0
 10
0.0
 20
0.0
 11
1.0
 21
1.0
 12
363.8804096753784
 22
264.6077249192278
 13
0.0
 23
0.0
 14
10.0
 24
10.0
 15
10.0
 25
10.0
 16
0.0
 26
0.0
 36
1.0
 17
0.0
 27
0.0
 37
0.0
 40
196.916516384454
 41
1.530456852791878
 42
50.0
 43
0.0
 44
0.0
 50
0.0
 51
0.0
 71
     0
 72
   100
 73
     1
 74
     1
 75
     0
 76
     0
 77
     0
 78
     0
281
     0
 65
     1
110
0.0
120
0.0
130
0.0
111
1.0
121
0.0
131
0.0
112
0.0
122
1.0
132
0.0
 79
     0
146
0.0
  0
ENDTAB
  0
TABLE
  2
LTYPE
  5
5
330
0
100
AcDbSymbolTable
 70
     4
  0
LTYPE
  5
12
330
5
100
AcDbSymbolTableRecord
100
AcDbLinetypeTableRecord
  2
BYBLOCK
 70
     0
  3

 72
    65
 73
     0
 40
0.0
  0
LTYPE
  5
13
330
5
100
AcDbSymbolTableRecord
100
AcDbLinetypeTableRecord
  2
BYLAYER
 70
     0
  3

 72
    65
 73
     0
 40
0.0
  0
LTYPE
  5
14
330
5
100
AcDbSymbolTableRecord
100
AcDbLinetypeTableRecord
  2
CONTINUOUS
 70
     0
  3
Solid line
 72
    65
 73
     0
 40
0.0
  0
LTYPE
  5
22
330
5
100
AcDbSymbolTableRecord
100
AcDbLinetypeTableRecord
  2
CENTER2
 70
     0
  3
Center (.5x) ___ _ ___ _ ___ _ ___ _ ___ _ ___
 72
    65
 73
     4
 40
28.575
 49
19.05
 74
     0
 49
-3.174999999999999
 74
     0
 49
3.174999999999999
 74
     0
 49
-3.174999999999999
 74
     0
  0
LTYPE
  5
24
330
5
100
AcDbSymbolTableRecord
100
AcDbLinetypeTableRecord
  2
PHANTOM2
 70
     0
  3
Phantom (.5x) ___ _ _ ___ _ _ ___ _ _ ___ _ _
 72
    65
 73
     6
 40
31.75
 49
15.875
 74
     0
 49
-3.174999999999999
 74
     0
 49
3.174999999999999
 74
     0
 49
-3.174999999999999
 74
     0
 49
3.174999999999999
 74
     0
 49
-3.174999999999999
 74
     0
  0
ENDTAB
  0
TABLE
  2
LAYER
  5
2
330
0
100
AcDbSymbolTable
 70
    16
  0
LAYER
  5
E
330
2
100
AcDbSymbolTableRecord
100
AcDbLayerTableRecord
  2
0
 70
     0
 62
     7
  6
CONTINUOUS
370
    -3
390
1D9E
  0
LAYER
  5
25
330
2
100
AcDbSymbolTableRecord
100
AcDbLayerTableRecord
  2
外形線
 70
     0
 62
     7
  6
CONTINUOUS
370
    -3
390
1D9E
  0
LAYER
  5
26
330
2
100
AcDbSymbolTableRecord
100
AcDbLayerTableRecord
  2
寸法線
 70
     0
 62
     2
  6
CONTINUOUS
370
    -3
390
1D9E
  0
LAYER
  5
27
330
2
100
AcDbSymbolTableRecord
100
AcDbLayerTableRecord
  2
中心線
 70
     0
 62
     4
  6
CENTER2
370
    -3
390
1D9E
  0
LAYER
  5
29
330
2
100
AcDbSymbolTableRecord
100
AcDbLayerTableRecord
  2
想像線
 70
     0
 62
     1
  6
PHANTOM2
370
    -3
390
1D9E
  0
LAYER
  5
2A
330
2
100
AcDbSymbolTableRecord
100
AcDbLayerTableRecord
  2
ﾊｯﾁﾝｸ
 70
     0
 62
     4
  6
CONTINUOUS
370
    -3
390
1D9E
  0
LAYER
  5
2B
330
2
100
AcDbSymbolTableRecord
100
AcDbLayerTableRecord
  2
文字
 70
     0
 62
     6
  6
CONTINUOUS
370
    -3
390
1D9E
  0
LAYER
  5
2C
330
2
100
AcDbSymbolTableRecord
100
AcDbLayerTableRecord
  2
目盛
 70
     0
 62
    70
  6
CONTINUOUS
370
    -3
390
1D9E
  0
LAYER
  5
2D
330
2
100
AcDbSymbolTableRecord
100
AcDbLayerTableRecord
  2
針
 70
     0
 62
     5
  6
CONTINUOUS
370
    -3
390
1D9E
  0
LAYER
  5
53
330
2
100
AcDbSymbolTableRecord
100
AcDbLayerTableRecord
  2
DEFPOINTS
 70
     0
 62
     7
  6
CONTINUOUS
290
     0
370
    -3
390
1D9E
  0
LAYER
  5
A5
330
2
100
AcDbSymbolTableRecord
100
AcDbLayerTableRecord
  2
C
 70
     0
 62
     7
  6
CONTINUOUS
370
    -3
390
1D9E
  0
LAYER
  5
E00
330
2
100
AcDbSymbolTableRecord
100
AcDbLayerTableRecord
  2
ROGO
 70
     0
 62
     6
  6
CONTINUOUS
370
    -3
390
1D9E
  0
ENDTAB
  0
TABLE
  2
STYLE
  5
3
330
0
100
AcDbSymbolTable
 70
     4
  0
STYLE
  5
F
330
3
100
AcDbSymbolTableRecord
100
AcDbTextStyleTableRecord
  2
STANDARD
 70
     0
 40
0.0
 41
1.0
 50
0.0
 71
     0
 42
2.5
  3
txt
  4

  0
STYLE
  5
3F
330
3
100
AcDbSymbolTableRecord
100
AcDbTextStyleTableRecord
  2
STYLE3
 70
     0
 40
0.0
 41
1.0
 50
0.0
 71
     0
 42
1.0
  3
romans.shx
  4
bigfont.shx
  0
ENDTAB
  0
TABLE
  2
VIEW
  5
6
330
0
100
AcDbSymbolTable
 70
     0
  0
ENDTAB
  0
TABLE
  2
UCS
  5
7
330
0
100
AcDbSymbolTable
 70
     0
  0
ENDTAB
  0
TABLE
  2
APPID
  5
9
330
0
100
AcDbSymbolTable
 70
     1
  0
APPID
  5
10
330
9
100
AcDbSymbolTableRecord
100
AcDbRegAppTableRecord
  2
ACAD
 70
     0
  0
ENDTAB
  0
TABLE
  2
DIMSTYLE
  5
A
330
0
100
AcDbSymbolTable
 70
     3
100
AcDbDimStyleTable
 71
     0
  0
DIMSTYLE
105
1D
330
A
100
AcDbSymbolTableRecord
100
AcDbDimStyleTableRecord
  2
STANDARD
 70
     0
 41
2.5
 42
0.625
 43
3.75
 44
1.25
 73
     0
 74
     0
 77
     1
 78
     8
140
2.5
141
2.5
143
0.0394
147
0.625
171
     4
172
     1
273
     8
274
     4
277
     6
340
F
  0
DIMSTYLE
105
66
330
A
100
AcDbSymbolTableRecord
100
AcDbDimStyleTableRecord
  2
STYLE2
 70
     0
 41
2.5
 42
0.0
 43
3.75
 44
1.25
 73
     0
 74
     0
 77
     1
 78
     8
140
2.5
141
2.5
143
0.0394
147
0.625
171
     4
172
     1
173
     1
176
     2
177
     2
178
     6
271
     1
273
     8
274
     4
340
3F
341
45
343
45
344
45
  0
ENDTAB
  0
TABLE
  2
BLOCK_RECORD
  5
1
330
0
100
AcDbSymbolTable
 70
     7
  0
BLOCK_RECORD
  5
18
330
1
100
AcDbSymbolTableRecord
100
AcDbBlockTableRecord
  2
*MODEL_SPACE
340
1DA5
  0
BLOCK_RECORD
  5
15
330
1
100
AcDbSymbolTableRecord
100
AcDbBlockTableRecord
  2
*PAPER_SPACE
340
1DA6
  0
BLOCK_RECORD
  5
45
330
1
100
AcDbSymbolTableRecord
100
AcDbBlockTableRecord
  2
_OPEN
340
0
102
{BLKREFS
331
836
331
837
331
875
331
876
331
87E
331
87F
331
F35
331
F36
331
FD7
331
FD8
331
FE0
331
FE1
331
10CC
331
10CD
331
169A
331
16A4
331
19FA
331
19FB
331
1A03
331
1A04
331
1A0C
331
1A0D
331
1A15
331
1A16
331
1A28
331
1A29
331
1A30
331
1A31
331
1A39
331
1A3A
331
1A4E
331
1A4F
331
1A6E
331
1A6F
331
1AB4
331
1AB5
331
1B12
331
1B23
331
1B26
331
1B35
331
1B36
331
1B38
331
1B3A
331
1B3D
331
1B3E
331
1B5F
331
1BA0
331
1BC0
331
1BD6
331
1BDB
331
1BE1
331
1BE4
331
1BE9
331
1BF2
331
1BF3
102
}
  0
BLOCK_RECORD
  5
1ABC
330
1
100
AcDbSymbolTableRecord
100
AcDbBlockTableRecord
  2
A$C5260192C
340
0
102
{BLKREFS
331
1CFA
331
1BCC
102
}
  0
BLOCK_RECORD
  5
1DB6
330
1
100
AcDbSymbolTableRecord
100
AcDbBlockTableRecord
  2
A$C3F87409A
340
0
102
{BLKREFS
331
1DBB
331
1DD7
102
}
  0
ENDTAB
  0
ENDSEC
  0
SECTION
  2
BLOCKS
  0
BLOCK
  5
19
330
18
100
AcDbEntity
  8
0
100
AcDbBlockBegin
  2
*MODEL_SPACE
 70
     0
 10
0.0
 20
0.0
 30
0.0
  3
*MODEL_SPACE
  1

  0
ENDBLK
  5
1A
330
18
100
AcDbEntity
  8
0
100
AcDbBlockEnd
  0
BLOCK
  5
16
330
15
100
AcDbEntity
 67
     1
  8
0
100
AcDbBlockBegin
  2
*PAPER_SPACE
 70
     0
 10
0.0
 20
0.0
 30
0.0
  3
*PAPER_SPACE
  1

  0
ENDBLK
  5
17
330
15
100
AcDbEntity
 67
     1
  8
0
100
AcDbBlockEnd
  0
BLOCK
  5
46
330
45
100
AcDbEntity
  8
0
100
AcDbBlockBegin
  2
_OPEN
 70
     0
 10
0.0
 20
0.0
 30
0.0
  3
_OPEN
  1

  0
LINE
  5
47
330
45
100
AcDbEntity
  8
0
  6
ByBlock
 62
     0
100
AcDbLine
 10
-1.0
 20
0.1666666666666666
 30
0.0
 11
0.0
 21
0.0
 31
0.0
  0
LINE
  5
48
330
45
100
AcDbEntity
  8
0
  6
ByBlock
 62
     0
100
AcDbLine
 10
0.0
 20
0.0
 30
0.0
 11
-1.0
 21
-0.1666666666666666
 31
0.0
  0
LINE
  5
49
330
45
100
AcDbEntity
  8
0
  6
ByBlock
 62
     0
100
AcDbLine
 10
0.0
 20
0.0
 30
0.0
 11
-1.0
 21
0.0
 31
0.0
  0
ENDBLK
  5
4A
330
45
100
AcDbEntity
  8
0
100
AcDbBlockEnd
  0
BLOCK
  5
1B08
330
1ABC
100
AcDbEntity
  8
0
100
AcDbBlockBegin
  2
A$C5260192C
 70
     0
 10
0.0
 20
0.0
 30
0.0
  3
A$C5260192C
  1

  0
HATCH
  5
1ABD
330
1ABC
100
AcDbEntity
  8
ROGO
 62
     4
100
AcDbHatch
 10
0.0
 20
0.0
 30
0.0
210
0.0
220
0.0
230
1.0
  2
SOLID
 70
     1
 71
     1
 91
        1
 92
        7
 72
     0
 73
     1
 93
       11
 10
31.30519714109164
 20
0.0000000707679533
 10
33.10746486550738
 20
0.0000000707679533
 10
33.7440270445822
 20
1.276616493155586
 10
34.38058922365718
 20
0.0000000707678964
 10
36.18281751590433
 20
0.0000000707678964
 10
34.96340256415925
 20
2.445519462708318
 10
37.92610919330253
 20
4.891038854648456
 10
36.12388090105486
 20
4.8910388546484
 10
35.28002417224775
 20
4.35703694912479
 10
35.546294768998
 20
4.8910388546484
 10
33.74402704458214
 20
4.891038854648456
 97
       11
330
1ABF
330
1B05
330
1B04
330
1B03
330
1AF7
330
1AC2
330
1AF9
330
1AFA
330
1AFB
330
1AF8
330
1ABE
 75
     0
 76
     1
 47
0.0514683685270805
 98
        1
 10
33.58891749706976
 20
2.792687905275101
450
        0
451
        0
460
0.0
461
0.0
452
        0
462
0.0
453
        0
470

  0
LINE
  5
1ABE
102
{ACAD_REACTORS
330
1ABD
102
}
330
1ABC
100
AcDbEntity
  8
ROGO
 62
     4
100
AcDbLine
 10
34.9634025641592
 20
2.445519462708318
 30
0.0
 11
37.92610919330241
 21
4.8910388546484
 31
0.0
  0
LINE
  5
1ABF
102
{ACAD_REACTORS
330
1ABD
102
}
330
1ABC
100
AcDbEntity
  8
ROGO
 62
     4
100
AcDbLine
 10
36.12388090105486
 20
4.8910388546484
 30
0.0
 11
37.92610919330241
 21
4.8910388546484
 31
0.0
  0
HATCH
  5
1AC0
330
1ABC
100
AcDbEntity
  8
ROGO
 62
     4
100
AcDbHatch
 10
0.0
 20
0.0
 30
0.0
210
0.0
220
0.0
230
1.0
  2
SOLID
 70
     1
 71
     1
 91
        1
 92
        7
 72
     0
 73
     1
 93
        4
 10
2.495368546491079
 20
0.4902536681340166
 10
2.273563912378563
 20
0.0000000707678964
 10
31.30519714109164
 20
0.0000000707679533
 10
31.54965341845553
 20
0.4902536681340166
 97
        4
330
1AC3
330
1ACB
330
1AC2
330
1AF7
 75
     0
 76
     1
 47
0.0514683685270805
 98
        1
 10
20.84079198367431
 20
0.3605894705757464
450
        0
451
        0
460
0.0
461
0.0
452
        0
462
0.0
453
        0
470

  0
HATCH
  5
1AC1
330
1ABC
100
AcDbEntity
  8
ROGO
 62
     4
100
AcDbHatch
 10
0.0
 20
0.0
 30
0.0
210
0.0
220
0.0
230
1.0
  2
SOLID
 70
     1
 71
     1
 91
        2
 92
        7
 72
     0
 73
     1
 93
        8
 10
16.49834772504903
 20
4.891038854648684
 10
13.99451357521968
 20
4.8910388546484
 10
11.73731760030495
 20
1.760911075435103
 10
13.47084812835573
 20
1.760911075435046
 10
13.90060427626145
 20
2.356868037877802
 10
15.8787720744047
 20
2.356868037877802
 10
16.14351977139978
 20
1.760911075435046
 10
17.88887451317589
 20
1.760911075435217
 97
        8
330
1AE2
330
1AD5
330
1AD6
330
1AE1
330
1ADF
330
1AE4
330
1AC4
330
1AC5
 92
       22
 72
     0
 73
     1
 93
        3
 10
15.59953469496065
 20
2.985441817150388
 10
14.35388104468382
 20
2.985441817150388
 10
15.12468644525597
 20
4.054342977489454
 97
        3
330
1AE0
330
1ADE
330
1AE3
 75
     0
 76
     1
 47
0.0128389261915577
 98
        2
 10
16.30227772699663
 20
4.140077226215055
 10
16.30227772699663
 20
4.140077226215055
450
        0
451
        0
460
0.0
461
0.0
452
        0
462
0.0
453
        0
470

  0
LINE
  5
1AC2
102
{ACAD_REACTORS
330
1AC9
330
1AC0
330
1ABD
102
}
330
1ABC
100
AcDbEntity
  8
ROGO
 62
     4
100
AcDbLine
 10
0.0000000440327312
 20
0.0000000707679533
 30
0.0
 11
33.10746486550744
 21
0.0000000707679533
 31
0.0
  0
LINE
  5
1AC3
102
{ACAD_REACTORS
330
1AC0
102
}
330
1ABC
100
AcDbEntity
  8
ROGO
 62
     4
100
AcDbLine
 10
2.461368939606586
 20
0.4902536681340166
 30
0.0
 11
31.54965341845559
 21
0.4902536681340166
 31
0.0
  0
LINE
  5
1AC4
102
{ACAD_REACTORS
330
1AC1
102
}
330
1ABC
100
AcDbEntity
  8
ROGO
 62
     4
100
AcDbLine
 10
17.88887451317589
 20
1.760911075435217
 30
0.0
 11
16.14351977139978
 21
1.760911075435103
 31
0.0
  0
LINE
  5
1AC5
102
{ACAD_REACTORS
330
1AC1
102
}
330
1ABC
100
AcDbEntity
  8
ROGO
 62
     4
100
AcDbLine
 10
16.4983477250492
 20
4.8910388546484
 30
0.0
 11
17.88887451317589
 21
1.760911075435103
 31
0.0
  0
HATCH
  5
1AC6
330
1ABC
100
AcDbEntity
  8
ROGO
 62
     4
100
AcDbHatch
 10
0.0
 20
0.0
 30
0.0
210
0.0
220
0.0
230
1.0
  2
SOLID
 70
     1
 71
     1
 91
        1
 92
        1
 93
       12
 72
     1
 10
8.53449174049382
 20
4.8910388546484
 11
12.76811978252721
 21
4.891038854648684
 72
     1
 10
12.76811978252721
 20
4.8910388546484
 11
12.41334550002074
 21
4.174019956398183
 72
     1
 10
12.41334550002074
 20
4.174019956398183
 11
10.18825758253433
 21
4.174019956398183
 72
     1
 10
10.18825758253433
 20
4.174019956398183
 11
9.910868179894748
 21
3.613400278833125
 72
     1
 10
9.910868179894748
 20
3.613400278833125
 11
12.13595609738098
 21
3.613400278833125
 72
     1
 10
12.13595609738098
 20
3.613400278833125
 11
11.85151925081391
 21
3.038537318343969
 72
     1
 10
11.85151925081391
 20
3.038537318343969
 11
9.626431333327786
 21
3.038537318343969
 72
     1
 10
9.626431333327786
 20
3.038537318343969
 11
9.349030187354003
 21
2.477893906836982
 72
     1
 10
9.349030187354287
 20
2.477893906836982
 11
11.57411810484041
 21
2.477893906836982
 72
     1
 10
11.57411810484041
 20
2.477893906836982
 11
11.21936166787515
 21
1.760911075435103
 72
     1
 10
11.21936166787515
 20
1.760911075435103
 11
6.98573362584176
 21
1.760911075435103
 72
     1
 10
6.98573362584176
 20
1.760911075435103
 11
8.53449174049382
 21
4.8910388546484
 97
       12
330
1AD4
330
1AE5
330
1AD3
330
1ADB
330
1AD7
330
1ADD
330
1AD9
330
1ADC
330
1AD8
330
1ADA
330
1AC7
330
1AC8
 75
     0
 76
     1
 98
        1
 10
-164.6407470224872
 20
-211.5432907659344
450
        0
451
        0
460
0.0
461
0.0
452
        0
462
0.0
453
        0
470

  0
LINE
  5
1AC7
102
{ACAD_REACTORS
330
1AC6
102
}
330
1ABC
100
AcDbEntity
  8
ROGO
 62
     4
100
AcDbLine
 10
6.98573362584176
 20
1.760911075435103
 30
0.0
 11
11.21936166787515
 21
1.760911075435103
 31
0.0
  0
LINE
  5
1AC8
102
{ACAD_REACTORS
330
1AC6
102
}
330
1ABC
100
AcDbEntity
  8
ROGO
 62
     4
100
AcDbLine
 10
8.53449174049382
 20
4.8910388546484
 30
0.0
 11
6.98573362584176
 21
1.760911075435103
 31
0.0
  0
HATCH
  5
1AC9
330
1ABC
100
AcDbEntity
  8
ROGO
 62
     4
100
AcDbHatch
 10
0.0
 20
0.0
 30
0.0
210
0.0
220
0.0
230
1.0
  2
SOLID
 70
     1
 71
     1
 91
        2
 92
        5
 93
        6
 72
     1
 10
0.0000000440327881
 20
0.0000000707679533
 11
2.273563912378619
 21
0.0000000707679533
 72
     1
 10
2.273563912378619
 20
0.0000000707679533
 11
3.070250001360363
 21
1.76091107543516
 72
     1
 10
3.070250001360363
 20
1.76091107543516
 11
5.195565907806155
 21
1.76091107543516
 72
     4
 94
        3
 73
     0
 74
     0
 95
       18
 96
       14
 40
0.108740278791501
 40
0.108740278791501
 40
0.108740278791501
 40
0.108740278791501
 40
0.6623149649549278
 40
1.384304701649787
 40
2.097394834876493
 40
2.774073369849618
 40
3.428974823686337
 40
4.005208313035923
 40
4.455173659284313
 40
4.720999734343524
 40
5.086034088486724
 40
5.569973738255373
 40
6.060470601257719
 40
6.060470601257719
 40
6.060470601257719
 40
6.060470601257719
 10
5.195565907805757
 20
1.760911075435103
 10
5.345142130083047
 20
1.762024924272395
 10
5.689800425361738
 20
1.764591490238501
 10
6.171974683526514
 20
2.022179574039114
 10
6.629213646579501
 20
2.35032802518333
 10
6.997488525990206
 20
2.760315279085716
 10
7.226934871521621
 20
3.22906546330978
 10
7.262475385203458
 20
3.67831945894818
 10
7.240778774770262
 20
4.033673784324719
 10
7.085745595521586
 20
4.281364571131234
 10
6.9245696872091
 20
4.532745390040645
 10
6.629027572269933
 20
4.750500792296293
 10
6.3868736026659
 20
4.84591002807673
 10
6.263733384055569
 20
4.891038854648684
 72
     1
 10
6.263733384055967
 20
4.8910388546484
 11
2.420040547144708
 21
4.8910388546484
 72
     1
 10
2.420040547144708
 20
4.8910388546484
 11
0.0000000440327881
 21
0.0000000707679533
 97
        6
330
1ACD
330
1ACC
330
1ACA
330
1AC2
330
1ACB
330
1AD2
 92
       20
 93
        4
 72
     1
 10
3.562158559960323
 20
2.848173933552345
 11
3.938776007070998
 21
3.680609464106794
 72
     1
 10
3.938776007070998
 20
3.680609464106794
 11
4.906522334458657
 21
3.68060946410668
 72
     4
 94
        3
 73
     0
 74
     0
 95
       15
 96
       11
 40
0.0
 40
0.0
 40
0.0
 40
0.0
 40
0.2923663550109739
 40
0.425669331585371
 40
0.5769770842444162
 40
0.680054960360229
 40
0.8430736905061507
 40
0.9407174566869015
 40
1.108242162553817
 40
1.164083766816419
 40
1.164083766816419
 40
1.164083766816419
 40
1.164083766816419
 10
4.906522334458145
 20
3.680609464106737
 10
5.044367041300688
 20
3.681240866443545
 10
5.2450613524569
 20
3.682160153516065
 10
5.354808149721861
 20
3.433900710229067
 10
5.305614402442074
 20
3.274060356752727
 10
5.243773852757101
 20
3.109954132369864
 10
5.134487595503799
 20
2.998441477828066
 10
4.98780943079123
 20
2.891035993067191
 10
4.849191555693266
 20
2.878034078197515
 10
4.759036188323591
 20
2.854145964768292
 10
4.73649733569232
 20
2.848173933552345
 72
     1
 10
4.736497335692433
 20
2.848173933552345
 11
3.562158559960323
 21
2.848173933552345
 97
        4
330
1ACF
330
1AD0
330
1ACE
330
1AD1
 75
     0
 76
     1
 47
0.0514683685270805
 98
        2
 10
2.4405844890166
 20
3.369795989649787
 10
2.4405844890166
 20
3.369795989649787
450
        0
451
        0
460
0.0
461
0.0
452
        0
462
0.0
453
        0
470

  0
LINE
  5
1ACA
102
{ACAD_REACTORS
330
1AC9
102
}
330
1ABC
100
AcDbEntity
  8
ROGO
 62
     4
100
AcDbLine
 10
2.420040547144708
 20
4.8910388546484
 30
0.0
 11
0.0000000440327312
 21
0.0000000707678396
 31
0.0
  0
LINE
  5
1ACB
102
{ACAD_REACTORS
330
1AC0
330
1AC9
102
}
330
1ABC
100
AcDbEntity
  8
ROGO
 62
     4
100
AcDbLine
 10
3.070250001360363
 20
1.760911075435103
 30
0.0
 11
2.273563912378619
 21
0.0000000707679533
 31
0.0
  0
LINE
  5
1ACC
102
{ACAD_REACTORS
330
1AC9
102
}
330
1ABC
100
AcDbEntity
  8
ROGO
 62
     4
100
AcDbLine
 10
2.420040547144708
 20
4.8910388546484
 30
0.0
 11
6.263733384055569
 21
4.8910388546484
 31
0.0
  0
SPLINE
  5
1ACD
102
{ACAD_REACTORS
330
1AC9
102
}
330
1ABC
100
AcDbEntity
  8
ROGO
 62
     4
100
AcDbSpline
210
0.0
220
0.0
230
1.0
 70
     8
 71
     3
 72
    18
 73
    14
 74
     0
 42
0.0000000001
 43
0.0000000001
 40
0.1087402787915014
 40
0.1087402787915014
 40
0.1087402787915014
 40
0.1087402787915014
 40
0.5992371417938475
 40
1.083176791562496
 40
1.448211145705696
 40
1.714037220764907
 40
2.164002567013297
 40
2.740236056362883
 40
3.395137510199602
 40
4.071816045172726
 40
4.784906178399433
 40
5.506895915094292
 40
6.060470601257719
 40
6.060470601257719
 40
6.060470601257719
 40
6.060470601257719
 10
6.263733384055569
 20
4.891038854648684
 30
0.0
 10
6.3868736026659
 20
4.84591002807673
 30
0.0
 10
6.629027572269933
 20
4.750500792296293
 30
0.0
 10
6.9245696872091
 20
4.532745390040645
 30
0.0
 10
7.085745595521586
 20
4.281364571131234
 30
0.0
 10
7.240778774770262
 20
4.033673784324719
 30
0.0
 10
7.262475385203458
 20
3.67831945894818
 30
0.0
 10
7.226934871521621
 20
3.22906546330978
 30
0.0
 10
6.997488525990206
 20
2.760315279085716
 30
0.0
 10
6.629213646579501
 20
2.35032802518333
 30
0.0
 10
6.171974683526514
 20
2.022179574039114
 30
0.0
 10
5.689800425361738
 20
1.764591490238501
 30
0.0
 10
5.345142130083047
 20
1.762024924272395
 30
0.0
 10
5.195565907805757
 20
1.760911075435103
 30
0.0
  0
SPLINE
  5
1ACE
102
{ACAD_REACTORS
330
1AC9
102
}
330
1ABC
100
AcDbEntity
  8
ROGO
 62
     4
100
AcDbSpline
210
0.0
220
0.0
230
1.0
 70
     8
 71
     3
 72
    15
 73
    11
 74
     9
 42
0.0000000001
 43
0.0000000001
 44
0.0000000001
 40
0.0
 40
0.0
 40
0.0
 40
0.0
 40
0.3670176361697508
 40
0.5343574908356218
 40
0.7242993660318959
 40
0.853696602700978
 40
1.05833967453222
 40
1.180915284331838
 40
1.391214863929486
 40
1.461314768535868
 40
1.461314768535868
 40
1.461314768535868
 40
1.461314768535868
 10
4.906522334458145
 20
3.680609464106737
 30
0.0
 10
5.04436704130062
 20
3.681240866443427
 30
0.0
 10
5.245061352456962
 20
3.682160153516011
 30
0.0
 10
5.354808149721805
 20
3.433900710229088
 30
0.0
 10
5.305614402442158
 20
3.274060356752695
 30
0.0
 10
5.24377385275703
 20
3.109954132369909
 30
0.0
 10
5.134487595503794
 20
2.998441477828037
 30
0.0
 10
4.987809430791313
 20
2.891035993067266
 30
0.0
 10
4.849191555693233
 20
2.878034078197464
 30
0.0
 10
4.759036188323607
 20
2.854145964768319
 30
0.0
 10
4.73649733569232
 20
2.848173933552345
 30
0.0
 11
4.906522334458145
 21
3.680609464106737
 31
0.0
 11
5.26357512516995
 21
3.595666836972043
 31
0.0
 11
5.3315853202119
 21
3.442770661970996
 31
0.0
 11
5.29758071152969
 21
3.255897436116015
 31
0.0
 11
5.24657330966778
 21
3.1369777581275
 31
0.0
 11
5.110552919583881
 21
2.984081583126453
 31
0.0
 11
5.008538115859835
 21
2.916127481418811
 31
0.0
 11
4.804507530734269
 21
2.865162458979227
 31
0.0
 11
4.73649733569232
 21
2.848173933552345
 31
0.0
  0
LINE
  5
1ACF
102
{ACAD_REACTORS
330
1AC9
102
}
330
1ABC
100
AcDbEntity
  8
ROGO
 62
     4
100
AcDbLine
 10
3.938776007070941
 20
3.680609464106737
 30
0.0
 11
3.562158559960323
 21
2.848173933552345
 31
0.0
  0
LINE
  5
1AD0
102
{ACAD_REACTORS
330
1AC9
102
}
330
1ABC
100
AcDbEntity
  8
ROGO
 62
     4
100
AcDbLine
 10
4.906522334458486
 20
3.680609464106737
 30
0.0
 11
3.938776007070941
 21
3.680609464106737
 31
0.0
  0
LINE
  5
1AD1
102
{ACAD_REACTORS
330
1AC9
102
}
330
1ABC
100
AcDbEntity
  8
ROGO
 62
     4
100
AcDbLine
 10
4.736497335692604
 20
2.848173933552345
 30
0.0
 11
3.562158559960323
 21
2.848173933552345
 31
0.0
  0
LINE
  5
1AD2
102
{ACAD_REACTORS
330
1AC9
102
}
330
1ABC
100
AcDbEntity
  8
ROGO
 62
     4
100
AcDbLine
 10
5.195565908542619
 20
1.760911075435103
 30
0.0
 11
3.070250001360363
 21
1.760911075435103
 31
0.0
  0
LINE
  5
1AD3
102
{ACAD_REACTORS
330
1AC6
102
}
330
1ABC
100
AcDbEntity
  8
ROGO
 62
     4
100
AcDbLine
 10
10.18825758253433
 20
4.174019956398183
 30
0.0
 11
12.41334550002074
 21
4.174019956398183
 31
0.0
  0
LINE
  5
1AD4
102
{ACAD_REACTORS
330
1AC6
102
}
330
1ABC
100
AcDbEntity
  8
ROGO
 62
     4
100
AcDbLine
 10
8.53449174049382
 20
4.8910388546484
 30
0.0
 11
12.76811978252721
 21
4.891038854648684
 31
0.0
  0
LINE
  5
1AD5
102
{ACAD_REACTORS
330
1AC1
102
}
330
1ABC
100
AcDbEntity
  8
ROGO
 62
     4
100
AcDbLine
 10
13.99451357521968
 20
4.8910388546484
 30
0.0
 11
11.73731760030495
 21
1.760911075435103
 31
0.0
  0
LINE
  5
1AD6
102
{ACAD_REACTORS
330
1AC1
102
}
330
1ABC
100
AcDbEntity
  8
ROGO
 62
     4
100
AcDbLine
 10
11.73731760030495
 20
1.760911075435103
 30
0.0
 11
13.4708481283555
 21
1.760911075435103
 31
0.0
  0
LINE
  5
1AD7
102
{ACAD_REACTORS
330
1AC6
102
}
330
1ABC
100
AcDbEntity
  8
ROGO
 62
     4
100
AcDbLine
 10
9.910868179894748
 20
3.613400278833125
 30
0.0
 11
12.13595609738098
 21
3.613400278833125
 31
0.0
  0
LINE
  5
1AD8
102
{ACAD_REACTORS
330
1AC6
102
}
330
1ABC
100
AcDbEntity
  8
ROGO
 62
     4
100
AcDbLine
 10
9.349030187354287
 20
2.477893906836982
 30
0.0
 11
11.57411810484041
 21
2.477893906836982
 31
0.0
  0
LINE
  5
1AD9
102
{ACAD_REACTORS
330
1AC6
102
}
330
1ABC
100
AcDbEntity
  8
ROGO
 62
     4
100
AcDbLine
 10
9.626431333327786
 20
3.038537318343969
 30
0.0
 11
11.85151925081391
 21
3.038537318343969
 31
0.0
  0
LINE
  5
1ADA
102
{ACAD_REACTORS
330
1AC6
102
}
330
1ABC
100
AcDbEntity
  8
ROGO
 62
     4
100
AcDbLine
 10
11.57411810484041
 20
2.477893906836982
 30
0.0
 11
11.21936166787515
 21
1.760911075435103
 31
0.0
  0
LINE
  5
1ADB
102
{ACAD_REACTORS
330
1AC6
102
}
330
1ABC
100
AcDbEntity
  8
ROGO
 62
     4
100
AcDbLine
 10
10.18825758253433
 20
4.174019956398183
 30
0.0
 11
9.910868179894748
 21
3.613400278833125
 31
0.0
  0
LINE
  5
1ADC
102
{ACAD_REACTORS
330
1AC6
102
}
330
1ABC
100
AcDbEntity
  8
ROGO
 62
     4
100
AcDbLine
 10
9.626431333327786
 20
3.038537318343969
 30
0.0
 11
9.349030187354003
 21
2.477893906836982
 31
0.0
  0
LINE
  5
1ADD
102
{ACAD_REACTORS
330
1AC6
102
}
330
1ABC
100
AcDbEntity
  8
ROGO
 62
     4
100
AcDbLine
 10
12.13595609738098
 20
3.613400278833125
 30
0.0
 11
11.85151925081391
 21
3.038537318343969
 31
0.0
  0
LINE
  5
1ADE
102
{ACAD_REACTORS
330
1AC1
102
}
330
1ABC
100
AcDbEntity
  8
ROGO
 62
     4
100
AcDbLine
 10
15.12468644525586
 20
4.054342977489284
 30
0.0
 11
14.35388104468382
 21
2.985441817150388
 31
0.0
  0
LINE
  5
1ADF
102
{ACAD_REACTORS
330
1AC1
102
}
330
1ABC
100
AcDbEntity
  8
ROGO
 62
     4
100
AcDbLine
 10
13.90060427626145
 20
2.356868037877802
 30
0.0
 11
15.8787720744047
 21
2.356868037877802
 31
0.0
  0
LINE
  5
1AE0
102
{ACAD_REACTORS
330
1AC1
102
}
330
1ABC
100
AcDbEntity
  8
ROGO
 62
     4
100
AcDbLine
 10
14.35388104468382
 20
2.985441817150388
 30
0.0
 11
15.59953469496065
 21
2.985441817150388
 31
0.0
  0
LINE
  5
1AE1
102
{ACAD_REACTORS
330
1AC1
102
}
330
1ABC
100
AcDbEntity
  8
ROGO
 62
     4
100
AcDbLine
 10
13.90060427626145
 20
2.356868037877802
 30
0.0
 11
13.47084812835578
 21
1.760911075435217
 31
0.0
  0
LINE
  5
1AE2
102
{ACAD_REACTORS
330
1AC1
102
}
330
1ABC
100
AcDbEntity
  8
ROGO
 62
     4
100
AcDbLine
 10
13.99451357521968
 20
4.8910388546484
 30
0.0
 11
16.4983477250492
 21
4.891038854648684
 31
0.0
  0
LINE
  5
1AE3
102
{ACAD_REACTORS
330
1AC1
102
}
330
1ABC
100
AcDbEntity
  8
ROGO
 62
     4
100
AcDbLine
 10
15.12468644525614
 20
4.054342977489284
 30
0.0
 11
15.59953469496065
 21
2.985441817150388
 31
0.0
  0
LINE
  5
1AE4
102
{ACAD_REACTORS
330
1AC1
102
}
330
1ABC
100
AcDbEntity
  8
ROGO
 62
     4
100
AcDbLine
 10
15.8787720744047
 20
2.356868037877802
 30
0.0
 11
16.14351977139978
 21
1.760911075435103
 31
0.0
  0
LINE
  5
1AE5
102
{ACAD_REACTORS
330
1AC6
102
}
330
1ABC
100
AcDbEntity
  8
ROGO
 62
     4
100
AcDbLine
 10
12.76811978252721
 20
4.8910388546484
 30
0.0
 11
12.41334550002074
 21
4.174019956398183
 31
0.0
  0
HATCH
  5
1AE6
330
1ABC
100
AcDbEntity
  8
ROGO
 62
     4
100
AcDbHatch
 10
0.0
 20
0.0
 30
0.0
210
0.0
220
0.0
230
1.0
  2
SOLID
 70
     1
 71
     1
 91
        2
 92
        5
 93
        6
 72
     4
 94
        3
 73
     0
 74
     0
 95
       38
 96
       34
 40
0.0
 40
0.0
 40
0.0
 40
0.0
 40
0.3432507174813109
 40
0.451050658195236
 40
0.5895662525824596
 40
0.7049961405144212
 40
0.8023894147780728
 40
0.9317499093329807
 40
0.9978480236196832
 40
1.072291850256752
 40
1.182008041939826
 40
1.306292679428502
 40
1.386914906588859
 40
1.474497692130477
 40
1.571855936222562
 40
1.719602004959564
 40
1.859976177744547
 40
1.925235430116201
 40
1.999654877449353
 40
2.087817346448435
 40
2.150577695187759
 40
2.203188941912056
 40
2.278305916846912
 40
2.360846604837925
 40
2.443386833255809
 40
2.515609648014825
 40
2.681012731610237
 40
2.746271983981783
 40
2.876790566243085
 40
2.992163186792343
 40
3.213035419290946
 40
3.485568884490814
 40
3.879146867041954
 40
3.879146867041954
 40
3.879146867041954
 40
3.879146867041954
 10
24.74114367961869
 20
4.904094836121032
 10
24.59751361292394
 20
4.89394838435993
 10
24.40877566477155
 20
4.88061537874006
 10
24.16912260181022
 20
4.814957584504838
 10
24.03848516772615
 20
4.736738009097052
 10
23.9025308058774
 20
4.679242871872418
 10
23.7866170502221
 20
4.594103975184566
 10
23.66937273350061
 20
4.550232721971894
 10
23.5872746738882
 20
4.471125010849164
 10
23.49225286650005
 20
4.422802606545701
 10
23.41658531421166
 20
4.31464301735815
 10
23.33201045225013
 20
4.213517720834033
 10
23.23389297247292
 20
4.13970076438909
 10
23.15336663999511
 20
4.062171363178379
 10
23.07949492702608
 20
3.942520202174989
 10
23.03577434106273
 20
3.783539239608899
 10
22.91253334781607
 20
3.683164393309027
 10
22.8939771128683
 20
3.562483878386615
 10
22.82580876127213
 20
3.491284405337353
 10
22.79616677785498
 20
3.399376114324866
 10
22.78487768375589
 20
3.315171885358381
 10
22.77132807895231
 20
3.236530964567748
 10
22.73588487888992
 20
3.153804189703407
 10
22.74745366167719
 20
3.051614821360146
 10
22.74415806278023
 20
2.952661464163043
 10
22.74609752659961
 20
2.819071350611523
 10
22.73909773307497
 20
2.689004946910358
 10
22.79491834335829
 20
2.547461850184561
 10
22.82795112803587
 20
2.421295761301394
 10
22.91841678238376
 20
2.246603511873672
 10
23.07446814030357
 20
2.045046428071032
 10
23.37121285078365
 20
1.800394316660401
 10
23.65654156597077
 20
1.775575498785599
 10
23.8251306218508
 20
1.760911075435103
 72
     1
 10
23.82513062185103
 20
1.760911075435103
 11
25.61397837529063
 21
1.760911075435046
 72
     4
 94
        3
 73
     0
 74
     0
 95
       11
 96
        7
 40
0.1647869275458135
 40
0.1647869275458135
 40
0.1647869275458135
 40
0.1647869275458135
 40
0.2545010798212315
 40
0.5111620267764023
 40
0.7602998271033902
 40
0.8850764140209603
 40
0.8850764140209603
 40
0.8850764140209603
 40
0.8850764140209603
 10
25.61397837529103
 20
1.760911075435103
 10
25.63894011814966
 20
1.760430009913989
 10
25.73531427919676
 20
1.758572676222115
 10
25.90001887564347
 20
1.782234427801029
 10
26.07331005260204
 20
1.804909007873675
 10
26.17662150034283
 20
1.821422220331101
 10
26.20994198471249
 20
1.830696989855425
 72
     4
 94
        3
 73
     0
 74
     0
 95
        9
 96
        5
 40
0.0
 40
0.0
 40
0.0
 40
0.0
 40
0.2156697247901238
 40
0.5056511322541886
 40
0.5056511322541886
 40
0.5056511322541886
 40
0.5056511322541886
 10
26.20994198471249
 20
1.830696989855425
 10
26.29691076492736
 20
1.857304524816413
 10
26.50081449888541
 20
1.919687551421588
 10
26.66928569213741
 20
2.051534858119794
 10
26.76590075066321
 20
2.127146807006909
 72
     4
 94
        3
 73
     0
 74
     0
 95
       25
 96
       21
 40
0.0
 40
0.0
 40
0.0
 40
0.0
 40
0.165525918914855
 40
0.3412380755365305
 40
0.5940540902285263
 40
0.7697671103696209
 40
0.9377330196075423
 40
1.11479469302833
 40
1.274661249598185
 40
1.574522170874768
 40
1.815540668866877
 40
2.15849091873445
 40
2.536227739636605
 40
2.738070817316548
 40
2.925680654369045
 40
3.162706124480894
 40
3.395643218188267
 40
3.648478129958861
 40
3.928509979727306
 40
4.337226830236035
 40
4.337226830236035
 40
4.337226830236035
 40
4.337226830236035
 10
26.76590075066321
 20
2.127146807006909
 10
26.80140019899483
 20
2.156482244550545
 10
26.86873294664633
 20
2.226253085274379
 10
26.98815866191171
 20
2.339336073095978
 10
27.09339886689719
 20
2.471086727634144
 10
27.22322023652708
 20
2.577866015744007
 10
27.29080483567543
 20
2.708411610875089
 10
27.38822270040293
 20
2.811082940818266
 10
27.46994033662389
 20
2.969648682351817
 10
27.53927371215241
 20
3.15179048800519
 10
27.60537351196291
 20
3.389208870173547
 10
27.63070363715178
 20
3.657052095826884
 10
27.59321190180703
 20
3.916190282228967
 10
27.50264134675968
 20
4.109887564520988
 10
27.43605502366779
 20
4.271314286249264
 10
27.33500193624218
 20
4.424213814793745
 10
27.21971402149796
 20
4.590508960979377
 10
27.05729376409784
 20
4.728061969383304
 10
26.84502716374527
 20
4.893973063012253
 10
26.64731667534267
 20
4.900325297092251
 10
26.52999143305891
 20
4.904094836121032
 72
     1
 10
26.52999143305863
 20
4.904094836121032
 11
24.74114367961909
 21
4.904094836121032
 97
        6
330
1AE8
330
1AF2
330
1AF1
330
1AF3
330
1AF4
330
1AE7
 92
       20
 93
        1
 72
     3
 10
25.15223068093149
 20
3.288679049376412
 11
0.4249751169687692
 21
0.3737124366286386
 40
0.6788083417438791
 50
0.0
 51
360.0
 73
     1
 97
        1
330
1AF5
 75
     0
 76
     1
 47
0.088756267210375
 98
        2
 10
25.27721048244774
 20
4.035934885679637
 10
25.27721048244774
 20
4.035934885679637
450
        0
451
        0
460
0.0
461
0.0
452
        0
462
0.0
453
        0
470

  0
SPLINE
  5
1AE7
102
{ACAD_REACTORS
330
1AE6
102
}
330
1ABC
100
AcDbEntity
  8
ROGO
 62
     4
100
AcDbSpline
210
0.0
220
0.0
230
1.0
 70
     8
 71
     3
 72
     9
 73
     5
 74
     3
 42
0.0000000001
 43
0.0000000001
 44
0.0000000001
 40
0.0
 40
0.0
 40
0.0
 40
0.0
 40
0.2707376934082537
 40
0.6347614221189222
 40
0.6347614221189222
 40
0.6347614221189222
 40
0.6347614221189222
 10
26.20994198471249
 20
1.830696989855425
 30
0.0
 10
26.29691076492733
 20
1.857304524816379
 30
0.0
 10
26.50081449888534
 20
1.919687551421489
 30
0.0
 10
26.66928569213739
 20
2.051534858119786
 30
0.0
 10
26.76590075066321
 20
2.127146807006909
 30
0.0
 11
26.20994198471249
 21
1.830696989855425
 31
0.0
 11
26.46440249762032
 21
1.923156418810549
 31
0.0
 11
26.76590075066321
 21
2.127146807006909
 31
0.0
  0
SPLINE
  5
1AE8
102
{ACAD_REACTORS
330
1AE6
102
}
330
1ABC
100
AcDbEntity
  8
ROGO
 62
     4
100
AcDbSpline
210
0.0
220
0.0
230
1.0
 70
     8
 71
     3
 72
    25
 73
    21
 74
     0
 42
0.0000000001
 43
0.0000000001
 40
0.0
 40
0.0
 40
0.0
 40
0.0
 40
0.4087168505087288
 40
0.6887487002771746
 40
0.9415836120477687
 40
1.17452070575514
 40
1.41154617586699
 40
1.599156012919487
 40
1.80099909059943
 40
2.178735911501585
 40
2.521686161369157
 40
2.762704659361267
 40
3.06256558063785
 40
3.222432137207705
 40
3.399493810628493
 40
3.567459719866414
 40
3.743172740007509
 40
3.995988754699505
 40
4.17170091132118
 40
4.337226830236035
 40
4.337226830236035
 40
4.337226830236035
 40
4.337226830236035
 10
26.52999143305891
 20
4.904094836121032
 30
0.0
 10
26.64731667534267
 20
4.900325297092251
 30
0.0
 10
26.84502716374527
 20
4.893973063012253
 30
0.0
 10
27.05729376409784
 20
4.728061969383304
 30
0.0
 10
27.21971402149796
 20
4.590508960979377
 30
0.0
 10
27.33500193624218
 20
4.424213814793745
 30
0.0
 10
27.43605502366779
 20
4.271314286249264
 30
0.0
 10
27.50264134675968
 20
4.109887564520988
 30
0.0
 10
27.59321190180703
 20
3.916190282228967
 30
0.0
 10
27.63070363715178
 20
3.657052095826884
 30
0.0
 10
27.60537351196291
 20
3.389208870173547
 30
0.0
 10
27.53927371215241
 20
3.15179048800519
 30
0.0
 10
27.46994033662389
 20
2.969648682351817
 30
0.0
 10
27.38822270040293
 20
2.811082940818266
 30
0.0
 10
27.29080483567543
 20
2.708411610875089
 30
0.0
 10
27.22322023652708
 20
2.577866015744007
 30
0.0
 10
27.09339886689719
 20
2.471086727634144
 30
0.0
 10
26.98815866191171
 20
2.339336073095978
 30
0.0
 10
26.86873294664633
 20
2.226253085274379
 30
0.0
 10
26.80140019899483
 20
2.156482244550545
 30
0.0
 10
26.76590075066321
 20
2.127146807006909
 30
0.0
  0
HATCH
  5
1AE9
330
1ABC
100
AcDbEntity
  8
ROGO
 62
     4
100
AcDbHatch
 10
0.0
 20
0.0
 30
0.0
210
0.0
220
0.0
230
1.0
  2
SOLID
 70
     1
 71
     1
 91
        1
 92
        5
 93
        8
 72
     1
 10
22.42218565687119
 20
3.726428378236505
 11
23.00289805382738
 21
4.891038854648684
 72
     1
 10
23.00289805382738
 20
4.891038854648684
 11
19.86826173965386
 21
4.891038854648684
 72
     4
 94
        3
 73
     0
 74
     0
 95
       26
 96
       22
 40
0.0
 40
0.0
 40
0.0
 40
0.0
 40
0.4523423364930458
 40
0.7551505049418584
 40
0.9734998541494285
 40
1.136534248098697
 40
1.347998413779669
 40
1.502346639649236
 40
1.78106356018612
 40
2.00793512649896
 40
2.162244143837927
 40
2.313552035927847
 40
2.58421243881549
 40
2.775601648311595
 40
2.878679524427258
 40
3.025098602575098
 40
3.130831104239184
 40
3.284002591344982
 40
3.370684404011905
 40
3.559313751485206
 40
3.645443550149729
 40
3.645443550149729
 40
3.645443550149729
 40
3.645443550149729
 10
19.8682617396509
 20
4.8910388546484
 10
19.6755277170588
 20
4.879540012356414
 10
19.35377319014833
 20
4.86034358552979
 10
19.00048867692459
 20
4.645727037741039
 10
18.74165176012781
 20
4.520958408158662
 10
18.55704958497432
 20
4.351346085829106
 10
18.4217354422646
 20
4.176148946808211
 10
18.25114656283233
 20
3.967402840243153
 10
18.11203620623757
 20
3.724326446288728
 10
18.04119575868696
 20
3.456413883877701
 10
17.9784459625954
 20
3.242886017157729
 10
17.93190966332355
 20
3.004937075653458
 10
17.94374981528403
 20
2.747868512768661
 10
17.96070545477141
 20
2.509116392103408
 10
18.03640826201621
 20
2.338683124043257
 10
18.12262035018983
 20
2.217346381601657
 10
18.22818587149055
 20
2.083707411773673
 10
18.3436976370773
 20
1.995198754796149
 10
18.43923529594349
 20
1.834859375042924
 10
18.60647074488815
 20
1.814398913811203
 10
18.7127722494468
 20
1.773676489329545
 10
18.74609498797645
 20
1.760911075435103
 72
     1
 10
18.74609498797656
 20
1.760911075435103
 11
21.44211524939493
 21
1.760911075435103
 72
     1
 10
21.44211524939493
 20
1.760911075435103
 11
22.02282149676552
 21
2.925509218940646
 72
     1
 10
22.02282149676552
 20
2.925509218940646
 11
20.02128394523698
 21
2.925509218940646
 72
     4
 94
        3
 73
     0
 74
     0
 95
       16
 96
       12
 40
0.0
 40
0.0
 40
0.0
 40
0.0
 40
0.1366061837575302
 40
0.2746213610656483
 40
0.3569412113822763
 40
0.4358690053714063
 40
0.5225504736378442
 40
0.5830823461136499
 40
0.6405218395853572
 40
0.7570008857965979
 40
0.9954783554147967
 40
0.9954783554147967
 40
0.9954783554147967
 40
0.9954783554147967
 10
20.02128394523698
 20
2.925509218940646
 10
19.9609105191542
 20
2.943271966127667
 10
19.83954095895558
 20
2.978980670335488
 10
19.82938330684845
 20
3.152083350014265
 10
19.84322163828722
 20
3.27543317422976
 10
19.90117660126202
 20
3.365239049424417
 10
19.97148602350472
 20
3.430584639724088
 10
19.99766533971513
 20
3.515687053907356
 10
20.07461705453051
 20
3.579950023856326
 10
20.21107306368958
 20
3.687967099399145
 10
20.36196978788343
 20
3.710972323004853
 10
20.46334972417037
 20
3.726428378236448
 72
     1
 10
20.46334972417037
 20
3.726428378236448
 11
22.42218565687119
 21
3.726428378236505
 97
        8
330
1AED
330
1AF0
330
1AEF
330
1AEC
330
1AEB
330
1AEE
330
1AEA
330
1AF6
 75
     0
 76
     1
 47
0.0514683685270805
 98
        1
 10
20.96456011660621
 20
4.194235714584465
450
        0
451
        0
460
0.0
461
0.0
452
        0
462
0.0
453
        0
470

  0
LINE
  5
1AEA
102
{ACAD_REACTORS
330
1AE9
102
}
330
1ABC
100
AcDbEntity
  8
ROGO
 62
     4
100
AcDbLine
 10
20.46334972417026
 20
3.726428378236448
 30
0.0
 11
22.42218565687119
 21
3.726428378236448
 31
0.0
  0
LINE
  5
1AEB
102
{ACAD_REACTORS
330
1AE9
102
}
330
1ABC
100
AcDbEntity
  8
ROGO
 62
     4
100
AcDbLine
 10
20.02128394523698
 20
2.925509218940646
 30
0.0
 11
22.02282149676552
 21
2.925509218940646
 31
0.0
  0
LINE
  5
1AEC
102
{ACAD_REACTORS
330
1AE9
102
}
330
1ABC
100
AcDbEntity
  8
ROGO
 62
     4
100
AcDbLine
 10
22.02282149676552
 20
2.925509218940646
 30
0.0
 11
21.44211524939493
 21
1.760911075435103
 31
0.0
  0
LINE
  5
1AED
102
{ACAD_REACTORS
330
1AE9
102
}
330
1ABC
100
AcDbEntity
  8
ROGO
 62
     4
100
AcDbLine
 10
19.86826173965193
 20
4.891038854648684
 30
0.0
 11
23.00289805382726
 21
4.891038854648684
 31
0.0
  0
SPLINE
  5
1AEE
102
{ACAD_REACTORS
330
1AE9
102
}
330
1ABC
100
AcDbEntity
  8
ROGO
 62
     4
100
AcDbSpline
210
0.0
220
0.0
230
1.0
 70
     8
 71
     3
 72
    16
 73
    12
 74
    10
 42
0.0000000001
 43
0.0000000001
 44
0.0000000001
 40
0.0
 40
0.0
 40
0.0
 40
0.0
 40
0.2993690473575003
 40
0.4455892381251522
 40
0.517695028533184
 40
0.5936827896699466
 40
0.7024970462955727
 40
0.8015778463996074
 40
0.9049168125810419
 40
1.078172056431769
 40
1.249658541759316
 40
1.249658541759316
 40
1.249658541759316
 40
1.249658541759316
 10
20.46334972417037
 20
3.726428378236448
 30
0.0
 10
20.36196978788339
 20
3.710972323004789
 30
0.0
 10
20.21107306368948
 20
3.687967099399052
 30
0.0
 10
20.07461705453046
 20
3.579950023856313
 30
0.0
 10
19.99766533971515
 20
3.515687053907385
 30
0.0
 10
19.9714860235047
 20
3.430584639724063
 30
0.0
 10
19.90117660126201
 20
3.365239049424443
 30
0.0
 10
19.84322163828714
 20
3.275433174229699
 30
0.0
 10
19.82938330684845
 20
3.15208335001435
 30
0.0
 10
19.83954095895547
 20
2.97898067033531
 30
0.0
 10
19.96091051915413
 20
2.943271966127589
 30
0.0
 10
20.02128394523698
 20
2.925509218940646
 30
0.0
 11
20.46334972417037
 21
3.726428378236448
 31
0.0
 11
20.17430712850051
 21
3.648478366022402
 31
0.0
 11
20.05528953159672
 21
3.563536292729054
 31
0.0
 11
20.0042821297348
 21
3.512570716447953
 31
0.0
 11
19.97027654337495
 21
3.444616614740255
 31
0.0
 11
19.902266348333
 21
3.359674541447077
 31
0.0
 11
19.85125894647081
 21
3.274731914312496
 31
0.0
 11
19.83425615329105
 21
3.172801315591925
 31
0.0
 11
19.8682617396509
 21
3.002916061322764
 31
0.0
 11
20.02128394523698
 21
2.925509218940646
 31
0.0
  0
LINE
  5
1AEF
102
{ACAD_REACTORS
330
1AE9
102
}
330
1ABC
100
AcDbEntity
  8
ROGO
 62
     4
100
AcDbLine
 10
18.74609498797616
 20
1.760911075435103
 30
0.0
 11
21.44211524939493
 21
1.760911075435103
 31
0.0
  0
SPLINE
  5
1AF0
102
{ACAD_REACTORS
330
1AE9
102
}
330
1ABC
100
AcDbEntity
  8
ROGO
 62
     4
100
AcDbSpline
210
0.0
220
0.0
230
1.0
 70
     8
 71
     3
 72
    26
 73
    22
 74
    20
 42
0.0000000001
 43
0.0000000001
 44
0.0000000001
 40
0.0
 40
0.0
 40
0.0
 40
0.0
 40
0.5678410399614757
 40
0.9479666470711411
 40
1.222068166045003
 40
1.426730901192431
 40
1.692189210237351
 40
1.885947897017572
 40
2.235830924194645
 40
2.520630678185275
 40
2.714340145135752
 40
2.904282195364426
 40
3.244051596220567
 40
3.484309115780308
 40
3.613706352449166
 40
3.797511304800689
 40
3.930240985086924
 40
4.122522470841556
 40
4.231337159805106
 40
4.468130128747411
 40
4.576251855368279
 40
4.576251855368279
 40
4.576251855368279
 40
4.576251855368279
 10
19.8682617396509
 20
4.8910388546484
 30
0.0
 10
19.6755277170588
 20
4.879540012356416
 30
0.0
 10
19.35377319014831
 20
4.860343585529868
 30
0.0
 10
19.00048867692463
 20
4.645727037741012
 30
0.0
 10
18.7416517601279
 20
4.520958408158605
 30
0.0
 10
18.55704958497432
 20
4.351346085829101
 30
0.0
 10
18.42173544226459
 20
4.176148946808195
 30
0.0
 10
18.25114656283236
 20
3.96740284024323
 30
0.0
 10
18.11203620623754
 20
3.72432644628881
 30
0.0
 10
18.04119575868693
 20
3.456413883877614
 30
0.0
 10
17.97844596259539
 20
3.242886017157717
 30
0.0
 10
17.93190966332349
 20
3.004937075653409
 30
0.0
 10
17.94374981528396
 20
2.747868512768687
 30
0.0
 10
17.96070545477144
 20
2.509116392103442
 30
0.0
 10
18.03640826201615
 20
2.338683124043213
 30
0.0
 10
18.1226203501899
 20
2.217346381601666
 30
0.0
 10
18.22818587149063
 20
2.08370741177377
 30
0.0
 10
18.3436976370772
 20
1.99519875479596
 30
0.0
 10
18.43923529594361
 20
1.834859375043162
 30
0.0
 10
18.60647074488827
 20
1.814398913811202
 30
0.0
 10
18.71277224944685
 20
1.773676489329557
 30
0.0
 10
18.74609498797645
 20
1.760911075435103
 30
0.0
 11
19.8682617396509
 21
4.8910388546484
 31
0.0
 11
19.30717836381353
 21
4.803695325847058
 31
0.0
 11
18.96712738860401
 21
4.633810625418959
 31
0.0
 11
18.72909219479635
 21
4.497902975844965
 31
0.0
 11
18.57606998921028
 21
4.361994772429568
 31
0.0
 11
18.40604499044457
 21
4.158133021147705
 31
0.0
 11
18.28702739354054
 21
4.005236846146544
 31
0.0
 11
18.11700141709707
 21
3.699443942303048
 31
0.0
 11
18.03198940655284
 21
3.427628089313657
 31
0.0
 11
17.9809820046911
 21
3.240754863458391
 31
0.0
 11
17.94697641833107
 21
3.053881637603581
 31
0.0
 11
17.94697641833107
 21
2.714112236747439
 31
0.0
 11
17.9809820046911
 21
2.476273434611812
 31
0.0
 11
18.03198940655284
 21
2.357353756623467
 31
0.0
 11
18.13400421027688
 21
2.204457581621966
 31
0.0
 11
18.21901719849876
 21
2.102526429060674
 31
0.0
 11
18.35503661090445
 21
1.966618779486339
 31
0.0
 11
18.42304680594674
 21
1.881676152351644
 31
0.0
 11
18.64408018425223
 21
1.796734079058296
 31
0.0
 11
18.74609498797645
 21
1.760911075435103
 31
0.0
  0
SPLINE
  5
1AF1
102
{ACAD_REACTORS
330
1AE6
102
}
330
1ABC
100
AcDbEntity
  8
ROGO
 62
     4
100
AcDbSpline
210
0.0
220
0.0
230
1.0
 70
     8
 71
     3
 72
    38
 73
    34
 74
    32
 42
0.0000000001
 43
0.0000000001
 44
0.0000000001
 40
0.0
 40
0.0
 40
0.0
 40
0.0
 40
0.4308945430429002
 40
0.5662195513482404
 40
0.740102986132462
 40
0.8850061320862096
 40
1.00726729068547
 40
1.169658010792484
 40
1.252633268529912
 40
1.346085188737121
 40
1.483815733414743
 40
1.639834553916849
 40
1.74104243481004
 40
1.850988146304279
 40
1.973205330312945
 40
2.158676100023023
 40
2.334892672798286
 40
2.416814878049149
 40
2.510236194069777
 40
2.620909602334223
 40
2.699694847095485
 40
2.76573957172865
 40
2.860036518365247
 40
2.963652709746624
 40
3.067268324209876
 40
3.15793213109488
 40
3.365568364594104
 40
3.447490569844806
 40
3.611335077657485
 40
3.756166333877484
 40
4.03343491583907
 40
4.375555636846979
 40
4.869627743054167
 40
4.869627743054167
 40
4.869627743054167
 40
4.869627743054167
 10
24.74114367961869
 20
4.904094836121032
 30
0.0
 10
24.59751361292405
 20
4.893948384359965
 30
0.0
 10
24.40877566477171
 20
4.880615378740173
 30
0.0
 10
24.16912260181014
 20
4.814957584504846
 30
0.0
 10
24.03848516772621
 20
4.736738009097098
 30
0.0
 10
23.90253080587731
 20
4.679242871872431
 30
0.0
 10
23.78661705022215
 20
4.594103975184565
 30
0.0
 10
23.66937273350063
 20
4.550232721971909
 30
0.0
 10
23.58727467388813
 20
4.471125010849192
 30
0.0
 10
23.49225286650005
 20
4.422802606545601
 30
0.0
 10
23.41658531421149
 20
4.31464301735804
 30
0.0
 10
23.33201045225013
 20
4.213517720834119
 30
0.0
 10
23.23389297247285
 20
4.13970076438898
 30
0.0
 10
23.15336663999514
 20
4.062171363178448
 30
0.0
 10
23.07949492702606
 20
3.942520202174985
 30
0.0
 10
23.03577434106268
 20
3.783539239608915
 30
0.0
 10
22.91253334781611
 20
3.683164393309026
 30
0.0
 10
22.89397711286839
 20
3.562483878386661
 30
0.0
 10
22.82580876127217
 20
3.491284405337413
 30
0.0
 10
22.79616677785499
 20
3.399376114324767
 30
0.0
 10
22.78487768375589
 20
3.315171885358397
 30
0.0
 10
22.77132807895224
 20
3.236530964567744
 30
0.0
 10
22.73588487889
 20
3.153804189703434
 30
0.0
 10
22.74745366167717
 20
3.051614821360151
 30
0.0
 10
22.74415806278013
 20
2.952661464163011
 30
0.0
 10
22.7460975265996
 20
2.819071350611562
 30
0.0
 10
22.73909773307502
 20
2.689004946910392
 30
0.0
 10
22.79491834335825
 20
2.54746185018454
 30
0.0
 10
22.82795112803583
 20
2.421295761301385
 30
0.0
 10
22.91841678238376
 20
2.246603511873705
 30
0.0
 10
23.07446814030349
 20
2.045046428070958
 30
0.0
 10
23.37121285078364
 20
1.800394316660412
 30
0.0
 10
23.65654156597073
 20
1.775575498785637
 30
0.0
 10
23.8251306218508
 20
1.760911075435103
 30
0.0
 11
24.74114367961869
 21
4.904094836121032
 31
0.0
 11
24.31337505225577
 21
4.852286451971451
 31
0.0
 11
24.1837482263403
 21
4.813431029236369
 31
0.0
 11
24.0281966462901
 21
4.735719029929668
 31
0.0
 11
23.89856982037452
 21
4.670959415119625
 31
0.0
 11
23.79486876700781
 21
4.606199223391456
 31
0.0
 11
23.65227956402504
 21
4.528487801003166
 31
0.0
 11
23.58746564185992
 21
4.476679993771369
 31
0.0
 11
23.50968934262812
 21
4.424871609621504
 31
0.0
 11
23.41895066632856
 21
4.321255995158253
 31
0.0
 11
23.31524961296174
 21
4.204688573116413
 31
0.0
 11
23.23747331372948
 21
4.139928381388585
 31
0.0
 11
23.15969803291153
 21
4.062216958999954
 31
0.0
 11
23.09488411074653
 21
3.958601344536702
 31
0.0
 11
23.01710882992893
 21
3.790225538345339
 31
0.0
 11
22.91340675814774
 21
3.647753924228879
 31
0.0
 11
22.88748200401318
 21
3.570041924922293
 31
0.0
 11
22.8356314773298
 21
3.492330502533548
 31
0.0
 11
22.79674332771378
 21
3.388714311152511
 31
0.0
 11
22.78377993223228
 21
3.311002888763766
 31
0.0
 11
22.77081755516485
 21
3.246242697035881
 31
0.0
 11
22.74489280103029
 21
3.155579467068889
 31
0.0
 11
22.74489280103029
 21
3.051963275687512
 31
0.0
 11
22.74489280103029
 21
2.948347661224261
 31
0.0
 11
22.74489280103029
 21
2.857683854339256
 31
0.0
 11
22.75785517809771
 21
2.650452625412469
 31
0.0
 11
22.78377993223228
 21
2.572740626106053
 31
0.0
 11
22.8356314773298
 21
2.417317204411062
 31
0.0
 11
22.9004443810806
 21
2.287797397873021
 31
0.0
 11
23.06895935661197
 21
2.067614361367816
 31
0.0
 11
23.34117538551061
 21
1.860382555523187
 31
0.0
 11
23.8251306218508
 21
1.760911075435103
 31
0.0
  0
LINE
  5
1AF2
102
{ACAD_REACTORS
330
1AE6
102
}
330
1ABC
100
AcDbEntity
  8
ROGO
 62
     4
100
AcDbLine
 10
24.74114367961869
 20
4.904094836121032
 30
0.0
 11
26.52999143305891
 21
4.904094836121032
 31
0.0
  0
LINE
  5
1AF3
102
{ACAD_REACTORS
330
1AE6
102
}
330
1ABC
100
AcDbEntity
  8
ROGO
 62
     4
100
AcDbLine
 10
23.8251306218508
 20
1.760911075435103
 30
0.0
 11
25.61397837529103
 21
1.760911075435103
 31
0.0
  0
SPLINE
  5
1AF4
102
{ACAD_REACTORS
330
1AE6
102
}
330
1ABC
100
AcDbEntity
  8
ROGO
 62
     4
100
AcDbSpline
210
0.0
220
0.0
230
1.0
 70
     8
 71
     3
 72
    11
 73
     7
 74
     0
 42
0.0000000001
 43
0.0000000001
 40
0.1647869275458134
 40
0.1647869275458134
 40
0.1647869275458134
 40
0.1647869275458134
 40
0.2895635144633836
 40
0.5387013147903714
 40
0.7953622617455423
 40
0.8850764140209602
 40
0.8850764140209602
 40
0.8850764140209602
 40
0.8850764140209602
 10
26.20994198471249
 20
1.830696989855425
 30
0.0
 10
26.17662150034283
 20
1.821422220331101
 30
0.0
 10
26.07331005260204
 20
1.804909007873675
 30
0.0
 10
25.90001887564347
 20
1.782234427801029
 30
0.0
 10
25.73531427919676
 20
1.758572676222115
 30
0.0
 10
25.63894011814966
 20
1.760430009913989
 30
0.0
 10
25.61397837529103
 20
1.760911075435103
 30
0.0
  0
ELLIPSE
  5
1AF5
102
{ACAD_REACTORS
330
1AE6
102
}
330
1ABC
100
AcDbEntity
  8
ROGO
 62
     4
100
AcDbEllipse
 10
25.15223068093149
 20
3.288679049376412
 30
0.0
 11
0.4249751169687691
 21
0.3737124366286384
 31
0.0
210
0.0
220
0.0
230
1.0
 40
0.6788083417438792
 41
0.0
 42
6.283185307179586
  0
LINE
  5
1AF6
102
{ACAD_REACTORS
330
1AE9
102
}
330
1ABC
100
AcDbEntity
  8
ROGO
 62
     4
100
AcDbLine
 10
23.00289805382726
 20
4.8910388546484
 30
0.0
 11
22.42218565687119
 21
3.726428378236448
 31
0.0
  0
LINE
  5
1AF7
102
{ACAD_REACTORS
330
1AC0
330
1ABD
102
}
330
1ABC
100
AcDbEntity
  8
ROGO
 62
     4
100
AcDbLine
 10
33.74402704458214
 20
4.8910388546484
 30
0.0
 11
31.30519714109164
 21
0.0000000707679533
 31
0.0
  0
LINE
  5
1AF8
102
{ACAD_REACTORS
330
1ABD
102
}
330
1ABC
100
AcDbEntity
  8
ROGO
 62
     4
100
AcDbLine
 10
34.9634025641592
 20
2.445519462708318
 30
0.0
 11
36.18281751590428
 21
0.0000000707679533
 31
0.0
  0
LINE
  5
1AF9
102
{ACAD_REACTORS
330
1ABD
102
}
330
1ABC
100
AcDbEntity
  8
ROGO
 62
     4
100
AcDbLine
 10
33.74402704458214
 20
1.276616493155586
 30
0.0
 11
33.10746486550744
 21
0.0000000707679533
 31
0.0
  0
LINE
  5
1AFA
102
{ACAD_REACTORS
330
1ABD
102
}
330
1ABC
100
AcDbEntity
  8
ROGO
 62
     4
100
AcDbLine
 10
33.74402704458214
 20
1.276616493155586
 30
0.0
 11
34.38058922365707
 21
0.0000000707679533
 31
0.0
  0
LINE
  5
1AFB
102
{ACAD_REACTORS
330
1ABD
102
}
330
1ABC
100
AcDbEntity
  8
ROGO
 62
     4
100
AcDbLine
 10
34.38058922365707
 20
0.0000000707679533
 30
0.0
 11
36.18281751590428
 21
0.0000000707679533
 31
0.0
  0
HATCH
  5
1AFC
330
1ABC
100
AcDbEntity
  8
ROGO
 62
     4
100
AcDbHatch
 10
0.0
 20
0.0
 30
0.0
210
0.0
220
0.0
230
1.0
  2
SOLID
 70
     1
 71
     1
 91
        1
 92
        5
 93
        8
 72
     4
 94
        3
 73
     0
 74
     0
 95
       26
 96
       22
 40
0.0
 40
0.0
 40
0.0
 40
0.0
 40
0.4523423364930458
 40
0.7551505049418584
 40
0.9734998541494285
 40
1.136534248098697
 40
1.347998413779843
 40
1.502346639649301
 40
1.781063560186185
 40
2.007935126499242
 40
2.16224414383799
 40
2.31355203592789
 40
2.584212438815532
 40
2.775601648311621
 40
2.878679524427493
 40
3.025098602575144
 40
3.130831104239391
 40
3.284002591345189
 40
3.370684404012041
 40
3.559313751485342
 40
3.645443550149757
 40
3.645443550149757
 40
3.645443550149757
 40
3.645443550149757
 10
29.9538118701675
 20
4.8910388546484
 10
29.7610778475754
 20
4.879540012356414
 10
29.43932332066498
 20
4.86034358552979
 10
29.08603880744113
 20
4.645727037741039
 10
28.82720189064446
 20
4.520958408158605
 10
28.64259971549086
 20
4.35134608582922
 10
28.50728557278131
 20
4.176148946807927
 10
28.33669669334864
 20
3.967402840243323
 10
28.197586336754
 20
3.724326446288728
 10
28.12674588920339
 20
3.456413883877416
 10
28.06399609311171
 20
3.242886017157672
 10
28.01745979384026
 20
3.004937075653458
 10
28.02929994580035
 20
2.747868512768548
 10
28.04625558528807
 20
2.509116392103521
 10
28.12195839253235
 20
2.338683124042972
 10
28.20817048070649
 20
2.217346381601487
 10
28.31373600200709
 20
2.083707411773673
 10
28.42924776759423
 20
1.995198754796092
 10
28.52478542645992
 20
1.834859375042981
 10
28.69202087540486
 20
1.814398913811317
 10
28.79832237996334
 20
1.773676489329545
 10
28.83164511849287
 20
1.760911075435103
 72
     1
 10
28.83164511849305
 20
1.76091107543516
 11
31.52766537991153
 21
1.76091107543516
 72
     1
 10
31.52766537991153
 20
1.76091107543516
 11
32.10837162728217
 21
2.925509218940703
 72
     1
 10
32.10837162728217
 20
2.925509218940703
 11
30.10683407575295
 21
2.92550921894059
 72
     4
 94
        3
 73
     0
 74
     0
 95
       16
 96
       12
 40
0.0
 40
0.0
 40
0.0
 40
0.0
 40
0.1366061837575313
 40
0.274621361065627
 40
0.3569412113821431
 40
0.4358690053712145
 40
0.5225504736376701
 40
0.5830823461134758
 40
0.6405218395851027
 40
0.7570008857964754
 40
0.9954783554145645
 40
0.9954783554145645
 40
0.9954783554145645
 40
0.9954783554145645
 10
30.1068340757534
 20
2.925509218940362
 10
30.04646064967062
 20
2.94327196612744
 10
29.92509108947201
 20
2.978980670335374
 10
29.91493343736511
 20
3.152083350014322
 10
29.92877176880393
 20
3.275433174229647
 10
29.98672673177856
 20
3.365239049424303
 10
30.05703615402126
 20
3.430584639724031
 10
30.08321547023138
 20
3.515687053907356
 10
30.1601671850475
 20
3.579950023856042
 10
30.29662319420561
 20
3.687967099399202
 10
30.44751991839973
 20
3.710972323004853
 10
30.5488998546868
 20
3.726428378236448
 72
     1
 10
30.5488998546868
 20
3.726428378236505
 11
32.50773578738796
 21
3.726428378236448
 72
     1
 10
32.50773578738796
 20
3.726428378236448
 11
33.08844818434375
 21
4.891038854648343
 72
     1
 10
33.08844818434375
 20
4.891038854648343
 11
29.95381187016733
 21
4.891038854648343
 97
        8
330
1AFF
330
1B01
330
1AFD
330
1B07
330
1AFE
330
1B02
330
1B00
330
1B06
 75
     0
 76
     1
 47
0.0514683685270805
 98
        1
 10
30.49471221841981
 20
4.317901811784906
450
        0
451
        0
460
0.0
461
0.0
452
        0
462
0.0
453
        0
470

  0
LINE
  5
1AFD
102
{ACAD_REACTORS
330
1AFC
102
}
330
1ABC
100
AcDbEntity
  8
ROGO
 62
     4
100
AcDbLine
 10
28.8316451184927
 20
1.760911075435103
 30
0.0
 11
31.52766537991164
 21
1.760911075435103
 31
0.0
  0
LINE
  5
1AFE
102
{ACAD_REACTORS
330
1AFC
102
}
330
1ABC
100
AcDbEntity
  8
ROGO
 62
     4
100
AcDbLine
 10
30.10683407575357
 20
2.925509218940646
 30
0.0
 11
32.10837162728206
 21
2.925509218940646
 31
0.0
  0
LINE
  5
1AFF
102
{ACAD_REACTORS
330
1AFC
102
}
330
1ABC
100
AcDbEntity
  8
ROGO
 62
     4
100
AcDbLine
 10
29.95381187016818
 20
4.8910388546484
 30
0.0
 11
33.08844818434375
 21
4.8910388546484
 31
0.0
  0
LINE
  5
1B00
102
{ACAD_REACTORS
330
1AFC
102
}
330
1ABC
100
AcDbEntity
  8
ROGO
 62
     4
100
AcDbLine
 10
30.54889985468685
 20
3.726428378236448
 30
0.0
 11
32.5077357873879
 21
3.726428378236448
 31
0.0
  0
SPLINE
  5
1B01
102
{ACAD_REACTORS
330
1AFC
102
}
330
1ABC
100
AcDbEntity
  8
ROGO
 62
     4
100
AcDbSpline
210
0.0
220
0.0
230
1.0
 70
     8
 71
     3
 72
    26
 73
    22
 74
    20
 42
0.0000000001
 43
0.0000000001
 44
0.0000000001
 40
0.0
 40
0.0
 40
0.0
 40
0.0
 40
0.5678410399615319
 40
0.9479666470711464
 40
1.222068166045008
 40
1.426730901192478
 40
1.692189210237617
 40
1.885947897017648
 40
2.23583092419475
 40
2.52063067818565
 40
2.714340145135853
 40
2.904282195364497
 40
3.244051596220639
 40
3.484309115780355
 40
3.613706352449475
 40
3.79751130480076
 40
3.930240985087236
 40
4.122522470841868
 40
4.231337159805276
 40
4.468130128747634
 40
4.576251855368341
 40
4.576251855368341
 40
4.576251855368341
 40
4.576251855368341
 10
29.9538118701675
 20
4.8910388546484
 30
0.0
 10
29.76107784757538
 20
4.879540012356422
 30
0.0
 10
29.43932332066488
 20
4.860343585529886
 30
0.0
 10
29.0860388074412
 20
4.645727037741012
 30
0.0
 10
28.82720189064452
 20
4.52095840815857
 30
0.0
 10
28.64259971549074
 20
4.351346085829121
 30
0.0
 10
28.50728557278133
 20
4.176148946807921
 30
0.0
 10
28.33669669334869
 20
3.967402840243268
 30
0.0
 10
28.1975863367539
 20
3.724326446288735
 30
0.0
 10
28.12674588920348
 20
3.456413883877487
 30
0.0
 10
28.06399609311171
 20
3.242886017157654
 30
0.0
 10
28.01745979384021
 20
3.004937075653376
 30
0.0
 10
28.02929994580058
 20
2.747868512768692
 30
0.0
 10
28.04625558528794
 20
2.509116392103388
 30
0.0
 10
28.12195839253242
 20
2.338683124043028
 30
0.0
 10
28.20817048070648
 20
2.217346381601578
 30
0.0
 10
28.3137360020071
 20
2.083707411773592
 30
0.0
 10
28.42924776759405
 20
1.995198754796095
 30
0.0
 10
28.52478542646008
 20
1.834859375043016
 30
0.0
 10
28.69202087540482
 20
1.814398913811273
 30
0.0
 10
28.79832237996333
 20
1.773676489329562
 30
0.0
 10
28.83164511849287
 20
1.760911075435103
 30
0.0
 11
29.9538118701675
 21
4.8910388546484
 31
0.0
 11
29.39272849433007
 21
4.803695325847058
 31
0.0
 11
29.05267751912061
 21
4.633810625418959
 31
0.0
 11
28.81464232531295
 21
4.497902975844965
 31
0.0
 11
28.66162011972682
 21
4.361994772429568
 31
0.0
 11
28.49159512096111
 21
4.158133021147421
 31
0.0
 11
28.37257752405702
 21
4.005236846146544
 31
0.0
 11
28.2025515476135
 21
3.699443942303048
 31
0.0
 11
28.11753953706926
 21
3.427628089313373
 31
0.0
 11
28.06653213520752
 21
3.240754863458391
 31
0.0
 11
28.03252654884767
 21
3.053881637603581
 31
0.0
 11
28.03252654884767
 21
2.714112236747439
 31
0.0
 11
28.06653213520752
 21
2.476273434611812
 31
0.0
 11
28.11753953706926
 21
2.357353756623183
 31
0.0
 11
28.21955434079331
 21
2.204457581621966
 31
0.0
 11
28.30456732901536
 21
2.102526429060503
 31
0.0
 11
28.44058674142122
 21
1.966618779486339
 31
0.0
 11
28.50859693646328
 21
1.881676152351644
 31
0.0
 11
28.72963031476883
 21
1.796734079058296
 31
0.0
 11
28.83164511849287
 21
1.760911075435103
 31
0.0
  0
SPLINE
  5
1B02
102
{ACAD_REACTORS
330
1AFC
102
}
330
1ABC
100
AcDbEntity
  8
ROGO
 62
     4
100
AcDbSpline
210
0.0
220
0.0
230
1.0
 70
     8
 71
     3
 72
    16
 73
    12
 74
    10
 42
0.0000000001
 43
0.0000000001
 44
0.0000000001
 40
0.0
 40
0.0
 40
0.0
 40
0.0
 40
0.2993690473573356
 40
0.4455892381251988
 40
0.5176950285331101
 40
0.5936827896698728
 40
0.7024970462955254
 40
0.8015778463994722
 40
0.9049168125807479
 40
1.078172056431452
 40
1.249658541758976
 40
1.249658541758976
 40
1.249658541758976
 40
1.249658541758976
 10
30.5488998546868
 20
3.726428378236448
 30
0.0
 10
30.44751991839979
 20
3.710972323004866
 30
0.0
 10
30.29662319420577
 20
3.68796709939923
 30
0.0
 10
30.16016718504725
 20
3.579950023855928
 30
0.0
 10
30.0832154702315
 20
3.515687053907418
 30
0.0
 10
30.0570361540211
 20
3.430584639724053
 30
0.0
 10
29.98672673177863
 20
3.36523904942429
 30
0.0
 10
29.92877176880398
 20
3.275433174229529
 30
0.0
 10
29.91493343736511
 20
3.152083350014308
 30
0.0
 10
29.9250910894721
 20
2.978980670335382
 30
0.0
 10
30.04646064967062
 20
2.943271966127423
 30
0.0
 10
30.1068340757534
 20
2.925509218940362
 30
0.0
 11
30.5488998546868
 21
3.726428378236448
 31
0.0
 11
30.25985725901711
 21
3.648478366022402
 31
0.0
 11
30.14083966211325
 21
3.56353629272877
 31
0.0
 11
30.08983226025123
 21
3.512570716447953
 31
0.0
 11
30.05582667389138
 21
3.444616614740255
 31
0.0
 11
29.9878164788496
 21
3.359674541446906
 31
0.0
 11
29.93680907698757
 21
3.274731914312326
 31
0.0
 11
29.91980628380776
 21
3.172801315591925
 31
0.0
 11
29.9538118701675
 21
3.002916061322764
 31
0.0
 11
30.1068340757534
 21
2.925509218940362
 31
0.0
  0
LINE
  5
1B03
102
{ACAD_REACTORS
330
1ABD
102
}
330
1ABC
100
AcDbEntity
  8
ROGO
 62
     4
100
AcDbLine
 10
33.74402704458214
 20
4.8910388546484
 30
0.0
 11
35.54629476899794
 21
4.8910388546484
 31
0.0
  0
LINE
  5
1B04
102
{ACAD_REACTORS
330
1ABD
102
}
330
1ABC
100
AcDbEntity
  8
ROGO
 62
     4
100
AcDbLine
 10
35.54629476899794
 20
4.8910388546484
 30
0.0
 11
35.28002417224775
 21
4.35703694912479
 31
0.0
  0
LINE
  5
1B05
102
{ACAD_REACTORS
330
1ABD
102
}
330
1ABC
100
AcDbEntity
  8
ROGO
 62
     4
100
AcDbLine
 10
35.28002417224775
 20
4.35703694912479
 30
0.0
 11
36.12388090105486
 21
4.8910388546484
 31
0.0
  0
LINE
  5
1B06
102
{ACAD_REACTORS
330
1AFC
102
}
330
1ABC
100
AcDbEntity
  8
ROGO
 62
     4
100
AcDbLine
 10
33.08844818434375
 20
4.8910388546484
 30
0.0
 11
32.5077357873879
 21
3.726428378236448
 31
0.0
  0
LINE
  5
1B07
102
{ACAD_REACTORS
330
1AFC
102
}
330
1ABC
100
AcDbEntity
  8
ROGO
 62
     4
100
AcDbLine
 10
32.10837162728206
 20
2.925509218940646
 30
0.0
 11
31.52766537991153
 21
1.760911075435103
 31
0.0
  0
ENDBLK
  5
1B09
330
1ABC
100
AcDbEntity
  8
0
100
AcDbBlockEnd
  0
BLOCK
  5
1DB7
330
1DB6
100
AcDbEntity
  8
0
100
AcDbBlockBegin
  2
A$C3F87409A
 70
     0
 10
0.0
 20
0.0
 30
0.0
  3
A$C3F87409A
  1

  0
LINE
  5
1DB8
330
1DB6
100
AcDbEntity
  8
外形線
100
AcDbLine
 10
0.0
 20
0.0
 30
0.0
 11
84.266655
 21
0.0
 31
0.0
  0
ENDBLK
  5
1DB9
330
1DB6
100
AcDbEntity
  8
0
100
AcDbBlockEnd
  0
ENDSEC
  0
SECTION
  2
ENTITIES
  0
LINE
  5
244
330
18
100
AcDbEntity
  8
中心線
 48
0.5
100
AcDbLine
 10
286.4435300997347
 20
274.2887520657681
 30
0.0
 11
354.0870887407411
 21
274.2887520657681
 31
0.0
  0
LINE
  5
245
330
18
100
AcDbEntity
  8
中心線
 48
0.5
100
AcDbLine
 10
324.4864573951089
 20
319.3969696308565
 30
0.0
 11
324.486457395109
 21
209.0103543635683
 31
0.0
  0
CIRCLE
  5
246
330
18
100
AcDbEntity
  8
外形線
100
AcDbCircle
 10
324.486457395109
 20
274.2887520657681
 30
0.0
 40
15.5
  0
CIRCLE
  5
247
330
18
100
AcDbEntity
  8
外形線
100
AcDbCircle
 10
324.486457395109
 20
274.2887520657681
 30
0.0
 40
23.0
  0
CIRCLE
  5
248
330
18
100
AcDbEntity
  8
外形線
100
AcDbCircle
 10
324.486457395109
 20
274.2887520657681
 30
0.0
 40
26.4
  0
LINE
  5
2B7
330
18
100
AcDbEntity
  8
中心線
 48
0.2
100
AcDbLine
 10
321.2864573951089
 20
272.0779880729759
 30
0.0
 11
321.2864573951089
 21
256.3883940509404
 31
0.0
  0
LINE
  5
2B9
330
18
100
AcDbEntity
  8
中心線
 48
0.2
100
AcDbLine
 10
314.3271822081792
 20
264.2147806542542
 30
0.0
 11
328.8551696561594
 21
264.2147806542542
 31
0.0
  0
LINE
  5
2D5
330
18
100
AcDbEntity
  8
外形線
100
AcDbLine
 10
328.486457395109
 20
248.193541777288
 30
0.0
 11
328.486457395109
 21
233.7887520657681
 31
0.0
  0
LINE
  5
2D6
330
18
100
AcDbEntity
  8
外形線
100
AcDbLine
 10
320.486457395109
 20
248.193541777288
 30
0.0
 11
320.486457395109
 21
233.7887520657681
 31
0.0
  0
LINE
  5
2D9
330
18
100
AcDbEntity
  8
外形線
100
AcDbLine
 10
326.4864573951089
 20
229.2887520657681
 30
0.0
 11
326.4864573951089
 21
223.2887520657681
 31
0.0
  0
LINE
  5
2DA
330
18
100
AcDbEntity
  8
外形線
100
AcDbLine
 10
322.486457395109
 20
229.2887520657681
 30
0.0
 11
322.486457395109
 21
223.2887520657681
 31
0.0
  0
LINE
  5
5CF
330
18
100
AcDbEntity
  8
外形線
  6
Continuous
100
AcDbLine
 10
328.186457395109
 20
314.788752065768
 30
0.0
 11
328.186457395109
 21
308.288752065768
 31
0.0
  0
LINE
  5
5D0
330
18
100
AcDbEntity
  8
外形線
  6
Continuous
100
AcDbLine
 10
320.786457395109
 20
314.788752065768
 30
0.0
 11
320.786457395109
 21
308.288752065768
 31
0.0
  0
LINE
  5
5D1
330
18
100
AcDbEntity
  8
外形線
  6
Continuous
100
AcDbLine
 10
320.786457395109
 20
314.788752065768
 30
0.0
 11
328.186457395109
 21
314.788752065768
 31
0.0
  0
LINE
  5
5D2
330
18
100
AcDbEntity
  8
外形線
  6
Continuous
100
AcDbLine
 10
320.486457395109
 20
308.288752065768
 30
0.0
 11
328.4864573951089
 21
308.288752065768
 31
0.0
  0
LINE
  5
5D3
330
18
100
AcDbEntity
  8
外形線
  6
Continuous
100
AcDbLine
 10
320.4864573951089
 20
302.288752065768
 30
0.0
 11
328.4864573951089
 21
302.288752065768
 31
0.0
  0
LINE
  5
5D4
330
18
100
AcDbEntity
  8
外形線
  6
Continuous
100
AcDbLine
 10
328.4864573951089
 20
308.288752065768
 30
0.0
 11
328.4864573951089
 21
302.288752065768
 31
0.0
  0
LINE
  5
5D5
330
18
100
AcDbEntity
  8
外形線
  6
Continuous
100
AcDbLine
 10
320.486457395109
 20
308.288752065768
 30
0.0
 11
320.486457395109
 21
302.288752065768
 31
0.0
  0
LINE
  5
5D6
330
18
100
AcDbEntity
  8
外形線
  6
Continuous
100
AcDbLine
 10
328.186457395109
 20
302.288752065768
 30
0.0
 11
328.186457395109
 21
300.4281858775399
 31
0.0
  0
LINE
  5
5D7
330
18
100
AcDbEntity
  8
外形線
  6
Continuous
100
AcDbLine
 10
320.786457395109
 20
302.288752065768
 30
0.0
 11
320.786457395109
 21
300.4281858775399
 31
0.0
  0
ARC
  5
5D9
330
18
100
AcDbEntity
  8
外形線
  6
Continuous
100
AcDbCircle
 10
324.4864573951089
 20
308.4437520657682
 30
0.0
 40
7.344999999999885
100
AcDbArc
 50
59.75198538337817
 51
120.2480146166212
  0
LINE
  5
697
330
18
100
AcDbEntity
  8
外形線
  6
Continuous
100
AcDbLine
 10
408.2342955756383
 20
298.7887520657681
 30
0.0
 11
408.2342955756383
 21
249.7887520657681
 31
0.0
  0
ARC
  5
6B8
330
18
100
AcDbEntity
  8
外形線
  6
Continuous
100
AcDbCircle
 10
401.7342955756382
 20
308.4437520657683
 30
0.0
 40
7.344999999999885
100
AcDbArc
 50
59.75198538337879
 51
120.2480146166218
  0
LINE
  5
6BB
330
18
100
AcDbEntity
  8
外形線
  6
Continuous
 62
     4
100
AcDbLine
 10
393.7342955756383
 20
272.2887520657681
 30
0.0
 11
387.7342955756382
 21
272.2887520657681
 31
0.0
  0
LINE
  5
6BC
330
18
100
AcDbEntity
  8
外形線
  6
Continuous
 62
     4
100
AcDbLine
 10
393.7342955756383
 20
273.2887520657681
 30
0.0
 11
387.7342955756382
 21
273.2887520657681
 31
0.0
  0
LINE
  5
6BD
330
18
100
AcDbEntity
  8
外形線
  6
Continuous
 62
     4
100
AcDbLine
 10
393.7342955756383
 20
274.2887520657681
 30
0.0
 11
387.7342955756382
 21
274.2887520657681
 31
0.0
  0
LINE
  5
6BE
330
18
100
AcDbEntity
  8
外形線
  6
Continuous
 62
     4
100
AcDbLine
 10
393.7342955756383
 20
275.2887520657681
 30
0.0
 11
387.7342955756382
 21
275.2887520657681
 31
0.0
  0
LINE
  5
6BF
330
18
100
AcDbEntity
  8
外形線
  6
Continuous
 62
     4
100
AcDbLine
 10
393.7342955756383
 20
277.2887520657681
 30
0.0
 11
387.7342955756382
 21
277.2887520657681
 31
0.0
  0
LINE
  5
6C0
330
18
100
AcDbEntity
  8
外形線
  6
Continuous
 62
     4
100
AcDbLine
 10
393.7342955756383
 20
276.2887520657681
 30
0.0
 11
387.7342955756382
 21
276.2887520657681
 31
0.0
  0
LINE
  5
6C1
330
18
100
AcDbEntity
  8
外形線
  6
Continuous
 62
     4
100
AcDbLine
 10
387.7342955756383
 20
295.9777667715371
 30
0.0
 11
393.7342955756383
 21
295.9777667715372
 31
0.0
  0
LINE
  5
6C2
330
18
100
AcDbEntity
  8
外形線
  6
Continuous
 62
     4
100
AcDbLine
 10
387.7342955756383
 20
296.9777667715371
 30
0.0
 11
393.7342955756383
 21
296.9777667715372
 31
0.0
  0
LINE
  5
6C3
330
18
100
AcDbEntity
  8
外形線
  6
Continuous
 62
     4
100
AcDbLine
 10
387.7342955756383
 20
297.9777667715372
 30
0.0
 11
393.7342955756383
 21
297.9777667715372
 31
0.0
  0
LINE
  5
6C4
330
18
100
AcDbEntity
  8
外形線
  6
Continuous
 62
     4
100
AcDbLine
 10
387.7342955756383
 20
298.9777667715371
 30
0.0
 11
393.7342955756383
 21
298.9777667715371
 31
0.0
  0
LINE
  5
6C5
330
18
100
AcDbEntity
  8
外形線
  6
Continuous
100
AcDbLine
 10
405.4342955756383
 20
314.788752065768
 30
0.0
 11
398.0342955756382
 21
314.788752065768
 31
0.0
  0
LINE
  5
6C6
330
18
100
AcDbEntity
  8
外形線
  6
Continuous
100
AcDbLine
 10
405.7342955756382
 20
308.288752065768
 30
0.0
 11
397.7342955756382
 21
308.288752065768
 31
0.0
  0
LINE
  5
6C7
330
18
100
AcDbEntity
  8
外形線
  6
Continuous
100
AcDbLine
 10
405.7342955756382
 20
302.288752065768
 30
0.0
 11
397.7342955756382
 21
302.288752065768
 31
0.0
  0
LINE
  5
6C9
330
18
100
AcDbEntity
  8
外形線
  6
Continuous
100
AcDbLine
 10
405.7342955756382
 20
308.288752065768
 30
0.0
 11
405.7342955756382
 21
302.288752065768
 31
0.0
  0
LINE
  5
6CA
330
18
100
AcDbEntity
  8
外形線
  6
Continuous
100
AcDbLine
 10
405.4342955756383
 20
302.288752065768
 30
0.0
 11
405.4342955756383
 21
298.7887520657681
 31
0.0
  0
LINE
  5
6CB
330
18
100
AcDbEntity
  8
外形線
  6
Continuous
100
AcDbLine
 10
405.4342955756383
 20
314.788752065768
 30
0.0
 11
405.4342955756383
 21
308.288752065768
 31
0.0
  0
LINE
  5
6CC
330
18
100
AcDbEntity
  8
外形線
  6
Continuous
100
AcDbLine
 10
397.7342955756382
 20
308.288752065768
 30
0.0
 11
397.7342955756382
 21
302.288752065768
 31
0.0
  0
LINE
  5
6CE
330
18
100
AcDbEntity
  8
外形線
  6
Continuous
100
AcDbLine
 10
398.0342955756382
 20
302.288752065768
 30
0.0
 11
398.0342955756382
 21
298.7887520657681
 31
0.0
  0
LINE
  5
6CF
330
18
100
AcDbEntity
  8
外形線
  6
Continuous
 62
     4
100
AcDbLine
 10
387.7342955756383
 20
299.9777667715372
 30
0.0
 11
393.7342955756383
 21
299.9777667715372
 31
0.0
  0
LINE
  5
6D0
330
18
100
AcDbEntity
  8
外形線
  6
Continuous
 62
     4
100
AcDbLine
 10
387.7342955756383
 20
300.9777667715372
 30
0.0
 11
393.7342955756383
 21
300.9777667715372
 31
0.0
  0
LINE
  5
6D1
330
18
100
AcDbEntity
  8
外形線
  6
Continuous
100
AcDbLine
 10
398.0342955756382
 20
314.788752065768
 30
0.0
 11
398.0342955756382
 21
308.288752065768
 31
0.0
  0
MTEXT
  5
778
330
18
100
AcDbEntity
  8
DEFPOINTS
  6
Continuous
100
AcDbMText
 10
735.8166661286731
 20
235.565234348894
 30
0.0
 40
1.0
 41
0.0
 71
     4
 72
     1
  1
\A1;
 73
     1
 44
1.0
  0
LINE
  5
789
330
18
100
AcDbEntity
  8
中心線
 48
0.5
100
AcDbLine
 10
401.7342955756382
 20
327.3075575945213
 30
0.0
 11
401.7342955756384
 21
206.7166736113862
 31
0.0
  0
LINE
  5
78E
330
18
100
AcDbEntity
  8
外形線
100
AcDbLine
 10
396.7342955756383
 20
249.7887520657681
 30
0.0
 11
408.2342955756383
 21
249.7887520657681
 31
0.0
  0
LINE
  5
78F
330
18
100
AcDbEntity
  8
外形線
100
AcDbLine
 10
396.7342955756383
 20
298.7887520657681
 30
0.0
 11
408.2342955756383
 21
298.7887520657681
 31
0.0
  0
LINE
  5
7B0
330
18
100
AcDbEntity
  8
外形線
100
AcDbLine
 10
403.7342955756383
 20
229.2887520657681
 30
0.0
 11
403.7342955756383
 21
223.2887520657681
 31
0.0
  0
LINE
  5
7B1
330
18
100
AcDbEntity
  8
外形線
100
AcDbLine
 10
399.7342955756384
 20
229.2887520657681
 30
0.0
 11
399.7342955756384
 21
223.2887520657681
 31
0.0
  0
LINE
  5
7C1
330
18
100
AcDbEntity
  8
外形線
100
AcDbLine
 10
405.7342955756383
 20
249.788752065768
 30
0.0
 11
405.7342955756384
 21
233.788752065768
 31
0.0
  0
LINE
  5
7C2
330
18
100
AcDbEntity
  8
外形線
100
AcDbLine
 10
397.7342955756385
 20
249.7887520657681
 30
0.0
 11
397.7342955756384
 21
233.7887520657681
 31
0.0
  0
LINE
  5
7C5
330
18
100
AcDbEntity
  8
外形線
100
AcDbLine
 10
398.6842955756385
 20
229.288752065768
 30
0.0
 11
404.7842955756384
 21
229.2887520657681
 31
0.0
  0
LINE
  5
7D6
330
18
100
AcDbEntity
  8
中心線
 48
0.5
100
AcDbLine
 10
383.7575958296844
 20
274.2887520657681
 30
0.0
 11
432.044483743599
 21
274.2887520657681
 31
0.0
  0
LINE
  5
835
330
18
100
AcDbEntity
  8
0
  6
ByBlock
 62
     2
100
AcDbLine
 10
287.6935300997347
 20
313.2887520657681
 30
0.0
 11
287.6935300997347
 21
276.7887520657681
 31
0.0
  0
INSERT
  5
836
330
18
100
AcDbEntity
  8
0
  6
ByBlock
 62
     2
100
AcDbBlockReference
  2
_OPEN
 10
287.6935300997347
 20
315.7887520657681
 30
0.0
 41
2.5
 42
2.5
 43
2.5
 50
90.0
  0
INSERT
  5
837
330
18
100
AcDbEntity
  8
0
  6
ByBlock
 62
     2
100
AcDbBlockReference
  2
_OPEN
 10
287.6935300997347
 20
274.2887520657681
 30
0.0
 41
2.5
 42
2.5
 43
2.5
 50
270.0
  0
MTEXT
  5
838
330
18
100
AcDbEntity
  8
0
  6
ByBlock
 62
     6
100
AcDbMText
 10
285.8185300997348
 20
295.0387520657681
 30
0.0
 40
2.5
 41
0.0
 71
     5
 72
     1
  1
\A1;41.5
  7
STYLE3
 11
0.0000000000000001
 21
1.0
 31
0.0
 73
     1
 44
1.0
  0
POINT
  5
839
330
18
100
AcDbEntity
  8
DEFPOINTS
  6
ByBlock
 62
     0
100
AcDbPoint
 10
324.4864573951089
 20
315.7887520657681
 30
0.0
  0
POINT
  5
83A
330
18
100
AcDbEntity
  8
DEFPOINTS
  6
ByBlock
 62
     0
100
AcDbPoint
 10
324.4864573951089
 20
274.2887520657681
 30
0.0
  0
POINT
  5
841
330
18
100
AcDbEntity
  8
DEFPOINTS
  6
ByBlock
 62
     0
100
AcDbPoint
 10
324.4864573951089
 20
274.2887520657681
 30
0.0
  0
POINT
  5
843
330
18
100
AcDbEntity
  8
DEFPOINTS
  6
ByBlock
 62
     0
100
AcDbPoint
 10
287.6935300997347
 20
214.2887520657681
 30
0.0
  0
LINE
  5
874
330
18
100
AcDbEntity
  8
0
  6
ByBlock
 62
     2
100
AcDbLine
 10
322.986457395109
 20
239.6385243613393
 30
0.0
 11
325.986457395109
 21
239.6385243613393
 31
0.0
  0
INSERT
  5
875
330
18
100
AcDbEntity
  8
0
  6
ByBlock
 62
     2
100
AcDbBlockReference
  2
_OPEN
 10
320.486457395109
 20
239.6385243613393
 30
0.0
 41
2.5
 42
2.5
 43
2.5
 50
180.0
  0
INSERT
  5
876
330
18
100
AcDbEntity
  8
0
  6
ByBlock
 62
     2
100
AcDbBlockReference
  2
_OPEN
 10
328.486457395109
 20
239.6385243613393
 30
0.0
 41
2.5
 42
2.5
 43
2.5
  0
MTEXT
  5
877
330
18
100
AcDbEntity
  8
0
  6
ByBlock
 62
     6
100
AcDbMText
 10
325.2975598852501
 20
241.5135243613392
 30
0.0
 40
2.5
 41
0.0
 71
     5
 72
     1
  1
8.0
  7
STYLE3
 73
     1
 44
1.0
  0
POINT
  5
878
330
18
100
AcDbEntity
  8
DEFPOINTS
  6
ByBlock
 62
     0
100
AcDbPoint
 10
320.486457395109
 20
239.0712214840705
 30
0.0
  0
POINT
  5
879
330
18
100
AcDbEntity
  8
DEFPOINTS
  6
ByBlock
 62
     0
100
AcDbPoint
 10
328.486457395109
 20
238.9091351427248
 30
0.0
  0
POINT
  5
87A
330
18
100
AcDbEntity
  8
DEFPOINTS
  6
ByBlock
 62
     0
100
AcDbPoint
 10
328.486457395109
 20
239.6385243613393
 30
0.0
  0
LINE
  5
87B
330
18
100
AcDbEntity
  8
0
  6
ByBlock
 62
     2
100
AcDbLine
 10
397.2342955756385
 20
225.8326527577653
 30
0.0
 11
396.3564997526546
 21
225.8326527577653
 31
0.0
  0
LINE
  5
87C
330
18
100
AcDbEntity
  8
0
  6
ByBlock
 62
     2
100
AcDbLine
 10
406.2342955756383
 20
225.8326527577653
 30
0.0
 11
410.7620518009909
 21
225.8326527577653
 31
0.0
  0
LINE
  5
87D
330
18
100
AcDbEntity
  8
0
  6
ByBlock
 62
     2
100
AcDbLine
 10
399.7342955756384
 20
225.8326527577653
 30
0.0
 11
403.7342955756383
 21
225.8326527577653
 31
0.0
  0
INSERT
  5
87E
330
18
100
AcDbEntity
  8
0
  6
ByBlock
 62
     2
100
AcDbBlockReference
  2
_OPEN
 10
399.7342955756384
 20
225.8326527577653
 30
0.0
 41
2.5
 42
2.5
 43
2.5
  0
INSERT
  5
87F
330
18
100
AcDbEntity
  8
0
  6
ByBlock
 62
     2
100
AcDbBlockReference
  2
_OPEN
 10
403.7342955756383
 20
225.8326527577653
 30
0.0
 41
2.5
 42
2.5
 43
2.5
 50
180.0
  0
MTEXT
  5
880
330
18
100
AcDbEntity
  8
0
  6
ByBlock
 62
     6
100
AcDbMText
 10
409.1964391275487
 20
227.7076527577654
 30
0.0
 40
2.5
 41
0.0
 71
     5
 72
     1
  1
\A1;4
  7
STYLE3
 73
     1
 44
1.0
  0
POINT
  5
881
330
18
100
AcDbEntity
  8
DEFPOINTS
  6
ByBlock
 62
     0
100
AcDbPoint
 10
399.7342955756384
 20
226.4809990332265
 30
0.0
  0
POINT
  5
882
330
18
100
AcDbEntity
  8
DEFPOINTS
  6
ByBlock
 62
     0
100
AcDbPoint
 10
403.7342955756383
 20
226.3999556350341
 30
0.0
  0
POINT
  5
883
330
18
100
AcDbEntity
  8
DEFPOINTS
  6
ByBlock
 62
     0
100
AcDbPoint
 10
403.7342955756383
 20
225.8326527577653
 30
0.0
  0
TEXT
  5
884
330
18
100
AcDbEntity
  8
文字
100
AcDbText
 10
406.0023068698619
 20
227.2103887068801
 30
0.0
 40
2.5
  1
φ
  7
STYLE3
100
AcDbText
  0
TEXT
  5
885
330
18
100
AcDbEntity
  8
文字
100
AcDbText
 10
320.3716048460947
 20
241.5185059892118
 30
0.0
 40
2.5
  1
φ
  7
STYLE3
100
AcDbText
  0
MTEXT
  5
887
330
18
100
AcDbEntity
  8
文字
100
AcDbMText
 10
302.9558756866726
 20
261.6432165871282
 30
0.0
 40
1.0
 41
6.927999999999999
 71
     1
 72
     5
  1

  7
STYLE3
 73
     1
 44
1.0
  0
TEXT
  5
93E
330
18
100
AcDbEntity
  8
文字
100
AcDbText
 10
441.4624315453284
 20
269.1816697787508
 30
0.0
 40
2.5
  1
φ
 50
90.0
  7
STYLE3
100
AcDbText
  0
LWPOLYLINE
  5
96E
330
18
100
AcDbEntity
  8
C
100
AcDbPolyline
 90
        5
 70
     0
 43
0.4
 10
236.3747858780381
 20
362.1007868078282
 10
491.374785878038
 20
362.1007868078282
 10
491.374785878038
 20
167.1007868078282
 10
236.3747858780381
 20
167.1007868078282
 10
236.3747858780381
 20
362.1007868078282
  0
MTEXT
  5
EB4
330
18
100
AcDbEntity
  8
DEFPOINTS
  6
Continuous
100
AcDbMText
 10
624.6916853418142
 20
184.890767874579
 30
0.0
 40
0.35
 41
0.0
 71
     4
 72
     1
  1
\A1;
 73
     1
 44
1.0
  0
TEXT
  5
F31
330
18
100
AcDbEntity
  8
文字
100
AcDbText
 10
319.1420483910187
 20
326.7344905681244
 30
0.0
 40
2.5
  1
φ
  7
STYLE3
100
AcDbText
  0
LINE
  5
F32
330
18
100
AcDbEntity
  8
0
  6
ByBlock
 62
     2
100
AcDbLine
 10
408.2342955756383
 20
298.7887520657681
 30
0.0
 11
443.5109125903513
 21
298.7887520657681
 31
0.0
  0
LINE
  5
F33
330
18
100
AcDbEntity
  8
0
  6
ByBlock
 62
     2
100
AcDbLine
 10
408.2342955756383
 20
249.788752065768
 30
0.0
 11
443.5109125903513
 21
249.7887520657681
 31
0.0
  0
LINE
  5
F34
330
18
100
AcDbEntity
  8
0
  6
ByBlock
 62
     2
100
AcDbLine
 10
442.2609125903512
 20
296.2887520657681
 30
0.0
 11
442.2609125903512
 21
252.2887520657681
 31
0.0
  0
INSERT
  5
F35
330
18
100
AcDbEntity
  8
0
  6
ByBlock
 62
     2
100
AcDbBlockReference
  2
_OPEN
 10
442.2609125903512
 20
298.7887520657681
 30
0.0
 41
2.5
 42
2.5
 43
2.5
 50
90.0
  0
INSERT
  5
F36
330
18
100
AcDbEntity
  8
0
  6
ByBlock
 62
     2
100
AcDbBlockReference
  2
_OPEN
 10
442.2609125903512
 20
249.7887520657681
 30
0.0
 41
2.5
 42
2.5
 43
2.5
 50
270.0
  0
MTEXT
  5
F37
330
18
100
AcDbEntity
  8
0
  6
ByBlock
 62
     6
100
AcDbMText
 10
440.2660691539013
 20
274.2887520657681
 30
0.0
 40
2.5
 41
0.0
 71
     5
 72
     1
  1
\A1;49
  7
STYLE3
 11
0.0000000000000001
 21
1.0
 31
0.0
 73
     1
 44
1.0
  0
POINT
  5
F3A
330
18
100
AcDbEntity
  8
DEFPOINTS
  6
ByBlock
 62
     0
100
AcDbPoint
 10
442.2609125903512
 20
249.7887520657681
 30
0.0
  0
ARC
  5
F7B
330
18
100
AcDbEntity
  8
外形線
100
AcDbCircle
 10
421.7342955756383
 20
274.2887520657681
 30
0.0
 40
8.0
100
AcDbArc
 50
270.0
 51
90.0
  0
CIRCLE
  5
F7C
330
18
100
AcDbEntity
  8
外形線
100
AcDbCircle
 10
421.7342955756383
 20
274.2887520657681
 30
0.0
 40
3.25
  0
ARC
  5
F7D
330
18
100
AcDbEntity
  8
外形線
100
AcDbCircle
 10
421.7342955756383
 20
274.2887520657681
 30
0.0
 40
7.5
100
AcDbArc
 50
270.0
 51
90.0
  0
LINE
  5
F7E
330
18
100
AcDbEntity
  8
外形線
100
AcDbLine
 10
421.7342955756383
 20
282.2887520657681
 30
0.0
 11
411.9030806763512
 21
282.2887520657681
 31
0.0
  0
LINE
  5
F7F
330
18
100
AcDbEntity
  8
外形線
100
AcDbLine
 10
421.7342955756383
 20
266.2887520657681
 30
0.0
 11
411.9030806763512
 21
266.2887520657681
 31
0.0
  0
LINE
  5
F8E
330
18
100
AcDbEntity
  8
外形線
100
AcDbLine
 10
408.2342955756383
 20
297.3887520657681
 30
0.0
 11
408.4342955756382
 21
297.388752065768
 31
0.0
  0
LINE
  5
F8F
330
18
100
AcDbEntity
  8
外形線
100
AcDbLine
 10
408.2342955756383
 20
251.1887520657681
 30
0.0
 11
408.4342955756382
 21
251.1887520657681
 31
0.0
  0
ARC
  5
F90
330
18
100
AcDbEntity
  8
外形線
100
AcDbCircle
 10
421.7342955756383
 20
274.2887520657681
 30
0.0
 40
8.0
100
AcDbArc
 50
270.0
 51
90.0
  0
LINE
  5
F96
330
18
100
AcDbEntity
  8
外形線
100
AcDbLine
 10
421.7342955756383
 20
281.7887520657681
 30
0.0
 11
410.7342955756383
 21
281.7887520657681
 31
0.0
  0
LINE
  5
F97
330
18
100
AcDbEntity
  8
外形線
100
AcDbLine
 10
421.7342955756383
 20
266.7887520657681
 30
0.0
 11
410.7342955756383
 21
266.7887520657681
 31
0.0
  0
LINE
  5
F9A
330
18
100
AcDbEntity
  8
中心線
 48
0.5
100
AcDbLine
 10
421.7342955756382
 20
286.2237203213458
 30
0.0
 11
421.7342955756385
 21
240.2435195561137
 31
0.0
  0
LINE
  5
FA4
330
18
100
AcDbEntity
  8
想像線
 48
0.5
100
AcDbLine
 10
417.2342955756382
 20
266.2887520657681
 30
0.0
 11
417.2342955756382
 21
282.2887520657681
 31
0.0
  0
LINE
  5
FA5
330
18
100
AcDbEntity
  8
想像線
 48
0.5
100
AcDbLine
 10
412.2342955756383
 20
266.2871663223152
 30
0.0
 11
412.2342955756383
 21
282.290337809221
 31
0.0
  0
LINE
  5
FD6
330
18
100
AcDbEntity
  8
0
  6
ByBlock
 62
     2
100
AcDbLine
 10
404.2342955756383
 20
241.4935195561136
 30
0.0
 11
419.2342955756383
 21
241.4935195561136
 31
0.0
  0
INSERT
  5
FD7
330
18
100
AcDbEntity
  8
0
  6
ByBlock
 62
     2
100
AcDbBlockReference
  2
_OPEN
 10
401.7342955756383
 20
241.4935195561136
 30
0.0
 41
2.5
 42
2.5
 43
2.5
 50
180.0
  0
INSERT
  5
FD8
330
18
100
AcDbEntity
  8
0
  6
ByBlock
 62
     2
100
AcDbBlockReference
  2
_OPEN
 10
421.7342955756383
 20
241.4935195561136
 30
0.0
 41
2.5
 42
2.5
 43
2.5
  0
MTEXT
  5
FD9
330
18
100
AcDbEntity
  8
0
  6
ByBlock
 62
     6
100
AcDbMText
 10
411.7342955756384
 20
243.3685195561137
 30
0.0
 40
2.5
 41
0.0
 71
     5
 72
     1
  1
\A1;20
  7
STYLE3
 73
     1
 44
1.0
  0
POINT
  5
FDC
330
18
100
AcDbEntity
  8
DEFPOINTS
  6
ByBlock
 62
     0
100
AcDbPoint
 10
421.7342955756383
 20
241.4935195561136
 30
0.0
  0
LINE
  5
FDD
330
18
100
AcDbEntity
  8
0
  6
ByBlock
 62
     2
100
AcDbLine
 10
410.7342955756383
 20
281.7887520657681
 30
0.0
 11
410.7342955756383
 21
253.2543065504143
 31
0.0
  0
LINE
  5
FDF
330
18
100
AcDbEntity
  8
0
  6
ByBlock
 62
     2
100
AcDbLine
 10
413.2342955756383
 20
254.5043065504143
 30
0.0
 11
419.2342955756383
 21
254.5043065504143
 31
0.0
  0
INSERT
  5
FE0
330
18
100
AcDbEntity
  8
0
  6
ByBlock
 62
     2
100
AcDbBlockReference
  2
_OPEN
 10
410.7342955756383
 20
254.5043065504143
 30
0.0
 41
2.5
 42
2.5
 43
2.5
 50
180.0
  0
INSERT
  5
FE1
330
18
100
AcDbEntity
  8
0
  6
ByBlock
 62
     2
100
AcDbBlockReference
  2
_OPEN
 10
421.7342955756383
 20
254.5043065504143
 30
0.0
 41
2.5
 42
2.5
 43
2.5
  0
MTEXT
  5
FE2
330
18
100
AcDbEntity
  8
0
  6
ByBlock
 62
     6
100
AcDbMText
 10
416.2342955756383
 20
256.3793065504143
 30
0.0
 40
2.5
 41
0.0
 71
     5
 72
     1
  1
\A1;11
  7
STYLE3
 73
     1
 44
1.0
  0
POINT
  5
FE3
330
18
100
AcDbEntity
  8
DEFPOINTS
  6
ByBlock
 62
     0
100
AcDbPoint
 10
410.7342955756383
 20
281.7887520657681
 30
0.0
  0
ARC
  5
1008
330
18
100
AcDbEntity
  8
外形線
100
AcDbCircle
 10
261.109295575635
 20
274.2887520657681
 30
0.0
 40
149.1250000000032
100
AcDbArc
 50
351.0887943333476
 51
356.2059438278885
  0
ARC
  5
100B
330
18
100
AcDbEntity
  8
外形線
100
AcDbCircle
 10
261.109295575635
 20
274.2887520657681
 30
0.0
 40
149.1250000000032
100
AcDbArc
 50
3.794056172111559
 51
8.911205666652444
  0
ARC
  5
100C
330
18
100
AcDbEntity
  8
外形線
100
AcDbCircle
 10
411.9030806763512
 20
284.2887520657681
 30
0.0
 40
2.0
100
AcDbArc
 50
183.7940561721114
 51
270.0
  0
ARC
  5
100D
330
18
100
AcDbEntity
  8
外形線
100
AcDbCircle
 10
411.9030806763512
 20
264.2887520657681
 30
0.0
 40
2.0
100
AcDbArc
 50
90.0
 51
176.2059438278884
  0
ARC
  5
100F
330
18
100
AcDbEntity
  8
外形線
100
AcDbCircle
 10
261.109295575634
 20
274.2887520657681
 30
0.0
 40
149.1250000000042
100
AcDbArc
 50
356.2059438278885
 51
3.794056172111511
  0
LINE
  5
10CA
330
18
100
AcDbEntity
  8
0
  6
ByBlock
 62
     2
100
AcDbLine
 10
408.2342955756383
 20
298.7887520657681
 30
0.0
 11
408.2342955756383
 21
327.3075575945213
 31
0.0
  0
LINE
  5
10CB
330
18
100
AcDbEntity
  8
0
  6
ByBlock
 62
     2
100
AcDbLine
 10
404.2342955756383
 20
326.0575575945213
 30
0.0
 11
405.7342955756382
 21
326.0575575945213
 31
0.0
  0
INSERT
  5
10CC
330
18
100
AcDbEntity
  8
0
  6
ByBlock
 62
     2
100
AcDbBlockReference
  2
_OPEN
 10
401.7342955756382
 20
326.0575575945213
 30
0.0
 41
2.5
 42
2.5
 43
2.5
 50
180.0
  0
INSERT
  5
10CD
330
18
100
AcDbEntity
  8
0
  6
ByBlock
 62
     2
100
AcDbBlockReference
  2
_OPEN
 10
408.2342955756383
 20
326.0575575945213
 30
0.0
 41
2.5
 42
2.5
 43
2.5
  0
MTEXT
  5
10CE
330
18
100
AcDbEntity
  8
0
  6
ByBlock
 62
     6
100
AcDbMText
 10
404.9842955756382
 20
327.9325575945212
 30
0.0
 40
2.5
 41
0.0
 71
     5
 72
     1
  1
\A1;6.5
  7
STYLE3
 73
     1
 44
1.0
  0
POINT
  5
10CF
330
18
100
AcDbEntity
  8
DEFPOINTS
  6
ByBlock
 62
     0
100
AcDbPoint
 10
401.7342955756382
 20
298.7887520657681
 30
0.0
  0
POINT
  5
10D0
330
18
100
AcDbEntity
  8
DEFPOINTS
  6
ByBlock
 62
     0
100
AcDbPoint
 10
408.2342955756383
 20
298.7887520657681
 30
0.0
  0
POINT
  5
10D1
330
18
100
AcDbEntity
  8
DEFPOINTS
  6
ByBlock
 62
     0
100
AcDbPoint
 10
408.2342955756383
 20
326.0575575945213
 30
0.0
  0
POINT
  5
10D9
330
18
100
AcDbEntity
  8
DEFPOINTS
  6
ByBlock
 62
     0
100
AcDbPoint
 10
401.7342955756382
 20
315.7887520657681
 30
0.0
  0
CIRCLE
  5
111B
330
18
100
AcDbEntity
  8
針
100
AcDbCircle
 10
324.4864573951089
 20
274.2887520657681
 30
0.0
 40
1.9
  0
LINE
  5
1121
330
18
100
AcDbEntity
  8
針
100
AcDbLine
 10
311.6279933741682
 20
292.1400266147233
 30
0.0
 11
323.1504444789573
 21
277.1483970590978
 31
0.0
  0
ARC
  5
1122
330
18
100
AcDbEntity
  8
針
100
AcDbCircle
 10
325.5774954620822
 20
278.9117528159752
 30
0.0
 40
3.0
100
AcDbArc
 50
216.0
 51
245.4722791770396
  0
ARC
  5
1126
330
18
100
AcDbEntity
  8
針
100
AcDbCircle
 10
319.7525731025824
 20
274.6796989994694
 30
0.0
 40
3.0
100
AcDbArc
 50
6.527720822960354
 51
36.00000000000001
  0
LINE
  5
1127
330
18
100
AcDbEntity
  8
針
100
AcDbLine
 10
311.4823703151808
 20
292.0342252693107
 30
0.0
 11
322.1796240857072
 21
276.4430547563467
 31
0.0
  0
CIRCLE
  5
1129
330
18
100
AcDbEntity
  8
針
100
AcDbCircle
 10
324.4864573951089
 20
274.2887520657681
 30
0.0
 40
0.475
  0
CIRCLE
  5
112B
330
18
100
AcDbEntity
  8
針
100
AcDbCircle
 10
324.4864573951089
 20
274.2887520657681
 30
0.0
 40
1.5
  0
HATCH
  5
1137
330
18
100
AcDbEntity
  8
針
100
AcDbHatch
 10
0.0
 20
0.0
 30
0.0
210
0.0
220
0.0
230
1.0
  2
SOLID
 70
     1
 71
     0
 91
        2
 92
        7
 72
     1
 73
     1
 93
        5
 10
311.6279933741682
 20
292.1400266147233
 42
0.0
 10
311.5551818446745
 20
292.0871259420171
 42
0.0
 10
311.4823703151808
 20
292.0342252693107
 42
0.0
 10
315.162371021376
 20
286.6706506800829
 42
-0.0085634322047721
 10
315.5918731803623
 20
286.9827022644565
 42
0.0
 97
        0
 92
        7
 72
     1
 73
     1
 93
        6
 10
315.5918731803623
 20
286.9827022644565
 42
0.0085634322047721
 10
315.162371021376
 20
286.6706506800829
 42
0.0
 10
322.1796240857075
 20
276.4430547563463
 42
-0.1293106770632391
 10
322.7331240109418
 20
275.0207507296774
 42
-0.2805221108582334
 10
324.3320951083913
 20
276.1824712330259
 42
-0.1293106770632486
 10
323.1504444789575
 20
277.1483970590975
 42
0.0
 97
        0
 75
     0
 76
     1
 47
0.0423559757596284
 98
        2
 10
314.9750276936559
 20
287.3111024513221
 10
317.6671139195106
 20
283.8221115628142
450
        0
451
        0
460
0.0
461
0.0
452
        0
462
0.0
453
        0
470

  0
LINE
  5
11FB
330
18
100
AcDbEntity
  8
外形線
100
AcDbLine
 10
323.186457395109
 20
212.2887520657681
 30
0.0
 11
325.7864573951089
 21
212.2887520657681
 31
0.0
  0
LINE
  5
1200
330
18
100
AcDbEntity
  8
外形線
100
AcDbLine
 10
326.986457395109
 20
216.7887520657681
 30
0.0
 11
325.7864573951089
 21
212.2887520657681
 31
0.0
  0
LINE
  5
1201
330
18
100
AcDbEntity
  8
外形線
100
AcDbLine
 10
326.986457395109
 20
219.7887520657682
 30
0.0
 11
326.986457395109
 21
218.8887520657682
 31
0.0
  0
LINE
  5
1202
330
18
100
AcDbEntity
  8
外形線
100
AcDbLine
 10
321.9864573951089
 20
216.7887520657681
 30
0.0
 11
323.186457395109
 21
212.2887520657681
 31
0.0
  0
LINE
  5
1203
330
18
100
AcDbEntity
  8
外形線
100
AcDbLine
 10
321.9864573951089
 20
216.7887520657681
 30
0.0
 11
326.986457395109
 21
216.7887520657681
 31
0.0
  0
LINE
  5
1204
330
18
100
AcDbEntity
  8
外形線
100
AcDbLine
 10
321.9864573951089
 20
219.7887520657682
 30
0.0
 11
326.986457395109
 21
219.7887520657682
 31
0.0
  0
LINE
  5
1205
330
18
100
AcDbEntity
  8
外形線
100
AcDbLine
 10
322.486457395109
 20
223.2887520657681
 30
0.0
 11
326.486457395109
 21
223.2887520657681
 31
0.0
  0
LINE
  5
1206
330
18
100
AcDbEntity
  8
外形線
100
AcDbLine
 10
321.9864573951089
 20
218.8887520657681
 30
0.0
 11
326.986457395109
 21
218.8887520657681
 31
0.0
  0
LINE
  5
1207
330
18
100
AcDbEntity
  8
外形線
100
AcDbLine
 10
321.9864573951089
 20
217.6887520657682
 30
0.0
 11
326.986457395109
 21
217.6887520657682
 31
0.0
  0
LINE
  5
1208
330
18
100
AcDbEntity
  8
外形線
100
AcDbLine
 10
321.9864573951089
 20
219.7887520657682
 30
0.0
 11
321.9864573951089
 21
218.8887520657682
 31
0.0
  0
LINE
  5
1209
330
18
100
AcDbEntity
  8
外形線
100
AcDbLine
 10
326.986457395109
 20
217.6887520657682
 30
0.0
 11
326.986457395109
 21
216.7887520657681
 31
0.0
  0
LINE
  5
120A
330
18
100
AcDbEntity
  8
外形線
100
AcDbLine
 10
321.9864573951089
 20
217.6887520657682
 30
0.0
 11
321.9864573951089
 21
216.7887520657681
 31
0.0
  0
ARC
  5
120C
330
18
100
AcDbEntity
  8
外形線
100
AcDbCircle
 10
327.3470125226554
 20
218.2887520657681
 30
0.0
 40
0.7
100
AcDbArc
 50
121.0027191338674
 51
238.9972808661233
  0
ARC
  5
120D
330
18
100
AcDbEntity
  8
外形線
100
AcDbCircle
 10
321.6259022675626
 20
218.2887520657681
 30
0.0
 40
0.7
100
AcDbArc
 50
301.0027191338767
 51
58.99728086613252
  0
LINE
  5
120E
330
18
100
AcDbEntity
  8
外形線
100
AcDbLine
 10
326.686457395109
 20
223.0887520657681
 30
0.0
 11
326.686457395109
 21
219.7887520657681
 31
0.0
  0
LINE
  5
120F
330
18
100
AcDbEntity
  8
外形線
100
AcDbLine
 10
322.2864573951091
 20
223.0887520657681
 30
0.0
 11
322.2864573951089
 21
219.7887520657681
 31
0.0
  0
LINE
  5
1210
330
18
100
AcDbEntity
  8
外形線
100
AcDbLine
 10
322.2864573951091
 20
223.0887520657681
 30
0.0
 11
322.486457395109
 21
223.2887520657681
 31
0.0
  0
LINE
  5
1211
330
18
100
AcDbEntity
  8
外形線
 48
0.5
100
AcDbLine
 10
326.486457395109
 20
223.2887520657681
 30
0.0
 11
326.686457395109
 21
223.0887520657681
 31
0.0
  0
LINE
  5
1212
330
18
100
AcDbEntity
  8
外形線
100
AcDbLine
 10
322.2864573951091
 20
223.0887520657681
 30
0.0
 11
326.686457395109
 21
223.0887520657681
 31
0.0
  0
LINE
  5
1213
330
18
100
AcDbEntity
  8
中心線
100
AcDbLine
 10
324.1359760426428
 20
216.7887520657681
 30
0.0
 11
324.486457395109
 21
217.3958035753451
 31
0.0
  0
LINE
  5
1214
330
18
100
AcDbEntity
  8
中心線
100
AcDbLine
 10
322.9812755042636
 20
216.7887520657681
 30
0.0
 11
323.5008907465342
 21
217.6887520657681
 31
0.0
  0
LINE
  5
1215
330
18
100
AcDbEntity
  8
中心線
100
AcDbLine
 10
321.986457395109
 20
217.0656765564226
 30
0.0
 11
322.346190208155
 21
217.6887520657681
 31
0.0
  0
LINE
  5
1217
330
18
100
AcDbEntity
  8
中心線
100
AcDbLine
 10
322.8958044602539
 20
216.7887520657682
 30
0.0
 11
322.3761892179833
 21
217.6887520657681
 31
0.0
  0
LINE
  5
1218
330
18
100
AcDbEntity
  8
中心線
100
AcDbLine
 10
324.0505049986331
 20
216.7887520657682
 30
0.0
 11
323.5308897563624
 21
217.6887520657681
 31
0.0
  0
LINE
  5
121C
330
18
100
AcDbEntity
  8
中心線
100
AcDbLine
 10
322.4039252350741
 20
216.7887520657682
 30
0.0
 11
322.9235404773447
 21
217.6887520657681
 31
0.0
  0
LINE
  5
121D
330
18
100
AcDbEntity
  8
中心線
100
AcDbLine
 10
323.5586257734533
 20
216.7887520657682
 30
0.0
 11
324.0782410157239
 21
217.6887520657681
 31
0.0
  0
LINE
  5
121F
330
18
100
AcDbEntity
  8
中心線
100
AcDbLine
 10
324.486457395109
 20
217.0336603653903
 30
0.0
 11
324.108240025552
 21
217.6887520657681
 31
0.0
  0
LINE
  5
1220
330
18
100
AcDbEntity
  8
中心線
100
AcDbLine
 10
323.4731547294435
 20
216.7887520657682
 30
0.0
 11
322.9535394871728
 21
217.6887520657681
 31
0.0
  0
LINE
  5
1221
330
18
100
AcDbEntity
  8
中心線
100
AcDbLine
 10
322.3184541910644
 20
216.7887520657681
 30
0.0
 11
321.986457395109
 21
217.3637873843128
 31
0.0
  0
LINE
  5
1222
330
18
100
AcDbEntity
  8
中心線
100
AcDbLine
 10
324.1359760426427
 20
218.8887520657682
 30
0.0
 11
324.4864573951089
 21
219.4958035753451
 31
0.0
  0
LINE
  5
1223
330
18
100
AcDbEntity
  8
中心線
100
AcDbLine
 10
324.4864573951089
 20
219.1336603653903
 30
0.0
 11
324.1082400255519
 21
219.7887520657682
 31
0.0
  0
LINE
  5
1224
330
18
100
AcDbEntity
  8
中心線
100
AcDbLine
 10
322.3184541910642
 20
218.8887520657682
 30
0.0
 11
321.9864573951089
 21
219.4637873843129
 31
0.0
  0
LINE
  5
1225
330
18
100
AcDbEntity
  8
中心線
100
AcDbLine
 10
323.5586257734532
 20
218.8887520657682
 30
0.0
 11
324.0782410157238
 21
219.7887520657682
 31
0.0
  0
LINE
  5
1226
330
18
100
AcDbEntity
  8
中心線
100
AcDbLine
 10
322.4039252350739
 20
218.8887520657682
 30
0.0
 11
322.9235404773445
 21
219.7887520657682
 31
0.0
  0
LINE
  5
1227
330
18
100
AcDbEntity
  8
中心線
100
AcDbLine
 10
322.9812755042635
 20
218.8887520657682
 30
0.0
 11
323.5008907465342
 21
219.7887520657682
 31
0.0
  0
LINE
  5
1228
330
18
100
AcDbEntity
  8
中心線
100
AcDbLine
 10
323.4731547294434
 20
218.8887520657682
 30
0.0
 11
322.9535394871728
 21
219.7887520657682
 31
0.0
  0
LINE
  5
1229
330
18
100
AcDbEntity
  8
中心線
100
AcDbLine
 10
322.8958044602538
 20
218.8887520657682
 30
0.0
 11
322.3761892179831
 21
219.7887520657682
 31
0.0
  0
LINE
  5
122A
330
18
100
AcDbEntity
  8
中心線
100
AcDbLine
 10
324.0505049986329
 20
218.8887520657682
 30
0.0
 11
323.5308897563623
 21
219.7887520657682
 31
0.0
  0
LINE
  5
122B
330
18
100
AcDbEntity
  8
中心線
100
AcDbLine
 10
321.9864573951089
 20
219.1656765564227
 30
0.0
 11
322.3461902081549
 21
219.7887520657682
 31
0.0
  0
LINE
  5
1250
330
18
100
AcDbEntity
  8
外形線
100
AcDbLine
 10
399.2342955756384
 20
216.7887520657681
 30
0.0
 11
400.4342955756384
 21
212.2887520657681
 31
0.0
  0
LINE
  5
1251
330
18
100
AcDbEntity
  8
外形線
100
AcDbLine
 10
404.2342955756384
 20
216.7887520657681
 30
0.0
 11
403.0342955756384
 21
212.2887520657681
 31
0.0
  0
LINE
  5
1252
330
18
100
AcDbEntity
  8
外形線
100
AcDbLine
 10
400.4342955756384
 20
212.2887520657681
 30
0.0
 11
403.0342955756384
 21
212.2887520657681
 31
0.0
  0
LINE
  5
1254
330
18
100
AcDbEntity
  8
外形線
100
AcDbLine
 10
399.5342955756385
 20
223.0887520657681
 30
0.0
 11
403.9342955756384
 21
223.0887520657681
 31
0.0
  0
LINE
  5
1255
330
18
100
AcDbEntity
  8
外形線
100
AcDbLine
 10
399.2342955756384
 20
217.6887520657682
 30
0.0
 11
404.2342955756384
 21
217.6887520657682
 31
0.0
  0
LINE
  5
1256
330
18
100
AcDbEntity
  8
外形線
100
AcDbLine
 10
399.2342955756384
 20
218.8887520657681
 30
0.0
 11
404.2342955756384
 21
218.8887520657681
 31
0.0
  0
LINE
  5
1257
330
18
100
AcDbEntity
  8
外形線
100
AcDbLine
 10
399.7342955756385
 20
223.2887520657681
 30
0.0
 11
403.7342955756384
 21
223.2887520657681
 31
0.0
  0
LINE
  5
1258
330
18
100
AcDbEntity
  8
外形線
100
AcDbLine
 10
399.2342955756384
 20
219.7887520657682
 30
0.0
 11
404.2342955756384
 21
219.7887520657682
 31
0.0
  0
LINE
  5
1259
330
18
100
AcDbEntity
  8
外形線
100
AcDbLine
 10
399.2342955756384
 20
216.7887520657681
 30
0.0
 11
404.2342955756384
 21
216.7887520657681
 31
0.0
  0
LINE
  5
125A
330
18
100
AcDbEntity
  8
外形線
100
AcDbLine
 10
399.5342955756385
 20
223.0887520657681
 30
0.0
 11
399.5342955756384
 21
219.7887520657681
 31
0.0
  0
LINE
  5
125B
330
18
100
AcDbEntity
  8
中心線
100
AcDbLine
 10
399.2342955756383
 20
219.1656765564227
 30
0.0
 11
399.5940283886844
 21
219.7887520657682
 31
0.0
  0
LINE
  5
125C
330
18
100
AcDbEntity
  8
中心線
100
AcDbLine
 10
401.2983431791623
 20
218.8887520657682
 30
0.0
 11
400.7787279368917
 21
219.7887520657682
 31
0.0
  0
LINE
  5
125D
330
18
100
AcDbEntity
  8
中心線
100
AcDbLine
 10
400.1436426407832
 20
218.8887520657682
 30
0.0
 11
399.6240273985126
 21
219.7887520657682
 31
0.0
  0
LINE
  5
125E
330
18
100
AcDbEntity
  8
中心線
100
AcDbLine
 10
400.7209929099728
 20
218.8887520657682
 30
0.0
 11
400.2013776677022
 21
219.7887520657682
 31
0.0
  0
LINE
  5
125F
330
18
100
AcDbEntity
  8
中心線
100
AcDbLine
 10
400.2291136847929
 20
218.8887520657682
 30
0.0
 11
400.7487289270636
 21
219.7887520657682
 31
0.0
  0
LINE
  5
1260
330
18
100
AcDbEntity
  8
中心線
100
AcDbLine
 10
399.6517634156034
 20
218.8887520657682
 30
0.0
 11
400.171378657874
 21
219.7887520657682
 31
0.0
  0
LINE
  5
1261
330
18
100
AcDbEntity
  8
中心線
100
AcDbLine
 10
400.8064639539826
 20
218.8887520657682
 30
0.0
 11
401.3260791962532
 21
219.7887520657682
 31
0.0
  0
LINE
  5
1262
330
18
100
AcDbEntity
  8
中心線
100
AcDbLine
 10
399.5662923715937
 20
218.8887520657682
 30
0.0
 11
399.2342955756383
 21
219.4637873843129
 31
0.0
  0
LINE
  5
1263
330
18
100
AcDbEntity
  8
中心線
100
AcDbLine
 10
401.7342955756383
 20
219.1336603653903
 30
0.0
 11
401.3560782060813
 21
219.7887520657682
 31
0.0
  0
LINE
  5
1264
330
18
100
AcDbEntity
  8
中心線
100
AcDbLine
 10
401.3838142231721
 20
218.8887520657682
 30
0.0
 11
401.7342955756383
 21
219.4958035753451
 31
0.0
  0
LINE
  5
1265
330
18
100
AcDbEntity
  8
中心線
100
AcDbLine
 10
399.5662923715938
 20
216.7887520657681
 30
0.0
 11
399.2342955756384
 21
217.3637873843128
 31
0.0
  0
LINE
  5
1266
330
18
100
AcDbEntity
  8
中心線
100
AcDbLine
 10
400.7209929099729
 20
216.7887520657682
 30
0.0
 11
400.2013776677022
 21
217.6887520657681
 31
0.0
  0
LINE
  5
1267
330
18
100
AcDbEntity
  8
中心線
100
AcDbLine
 10
401.7342955756384
 20
217.0336603653903
 30
0.0
 11
401.3560782060814
 21
217.6887520657681
 31
0.0
  0
LINE
  5
1268
330
18
100
AcDbEntity
  8
中心線
100
AcDbLine
 10
400.8064639539827
 20
216.7887520657682
 30
0.0
 11
401.3260791962533
 21
217.6887520657681
 31
0.0
  0
LINE
  5
1269
330
18
100
AcDbEntity
  8
中心線
100
AcDbLine
 10
399.6517634156035
 20
216.7887520657682
 30
0.0
 11
400.1713786578741
 21
217.6887520657681
 31
0.0
  0
LINE
  5
126A
330
18
100
AcDbEntity
  8
中心線
100
AcDbLine
 10
401.2983431791625
 20
216.7887520657682
 30
0.0
 11
400.7787279368918
 21
217.6887520657681
 31
0.0
  0
LINE
  5
126B
330
18
100
AcDbEntity
  8
中心線
100
AcDbLine
 10
400.1436426407833
 20
216.7887520657682
 30
0.0
 11
399.6240273985127
 21
217.6887520657681
 31
0.0
  0
LINE
  5
126C
330
18
100
AcDbEntity
  8
中心線
100
AcDbLine
 10
399.2342955756384
 20
217.0656765564226
 30
0.0
 11
399.5940283886845
 21
217.6887520657681
 31
0.0
  0
LINE
  5
126D
330
18
100
AcDbEntity
  8
中心線
100
AcDbLine
 10
400.229113684793
 20
216.7887520657681
 30
0.0
 11
400.7487289270637
 21
217.6887520657681
 31
0.0
  0
LINE
  5
126E
330
18
100
AcDbEntity
  8
中心線
100
AcDbLine
 10
401.3838142231722
 20
216.7887520657681
 30
0.0
 11
401.7342955756384
 21
217.3958035753451
 31
0.0
  0
ARC
  5
126F
330
18
100
AcDbEntity
  8
外形線
100
AcDbCircle
 10
398.8737404480921
 20
218.2887520657681
 30
0.0
 40
0.7
100
AcDbArc
 50
301.0027191338767
 51
58.99728086613252
  0
LINE
  5
1270
330
18
100
AcDbEntity
  8
外形線
100
AcDbLine
 10
399.2342955756384
 20
217.6887520657682
 30
0.0
 11
399.2342955756384
 21
216.7887520657681
 31
0.0
  0
LINE
  5
1271
330
18
100
AcDbEntity
  8
外形線
100
AcDbLine
 10
399.2342955756384
 20
219.7887520657682
 30
0.0
 11
399.2342955756384
 21
218.8887520657682
 31
0.0
  0
LINE
  5
1272
330
18
100
AcDbEntity
  8
外形線
100
AcDbLine
 10
399.5342955756385
 20
223.0887520657681
 30
0.0
 11
399.7342955756385
 21
223.2887520657681
 31
0.0
  0
LINE
  5
1273
330
18
100
AcDbEntity
  8
外形線
100
AcDbLine
 10
403.9342955756384
 20
223.0887520657681
 30
0.0
 11
403.9342955756384
 21
219.7887520657681
 31
0.0
  0
ARC
  5
1274
330
18
100
AcDbEntity
  8
外形線
100
AcDbCircle
 10
404.5948507031848
 20
218.2887520657681
 30
0.0
 40
0.7
100
AcDbArc
 50
121.0027191338674
 51
238.9972808661233
  0
LINE
  5
1275
330
18
100
AcDbEntity
  8
外形線
100
AcDbLine
 10
404.2342955756384
 20
217.6887520657682
 30
0.0
 11
404.2342955756384
 21
216.7887520657681
 31
0.0
  0
LINE
  5
1276
330
18
100
AcDbEntity
  8
外形線
100
AcDbLine
 10
404.2342955756384
 20
219.7887520657682
 30
0.0
 11
404.2342955756384
 21
218.8887520657682
 31
0.0
  0
LINE
  5
1277
330
18
100
AcDbEntity
  8
外形線
 48
0.5
100
AcDbLine
 10
403.7342955756384
 20
223.2887520657681
 30
0.0
 11
403.9342955756384
 21
223.0887520657681
 31
0.0
  0
LINE
  5
1278
330
18
100
AcDbEntity
  8
外形線
100
AcDbLine
 10
387.7342955756383
 20
301.7887520657681
 30
0.0
 11
393.7342955756383
 21
301.7887520657681
 31
0.0
  0
LINE
  5
127A
330
18
100
AcDbEntity
  8
外形線
100
AcDbLine
 10
386.7342955756383
 20
300.7887520657681
 30
0.0
 11
386.7342955756383
 21
274.2887520657681
 31
0.0
  0
LINE
  5
127B
330
18
100
AcDbEntity
  8
外形線
100
AcDbLine
 10
386.7342955756383
 20
300.7887520657681
 30
0.0
 11
387.7342955756383
 21
301.7887520657681
 31
0.0
  0
LINE
  5
127C
330
18
100
AcDbEntity
  8
外形線
100
AcDbLine
 10
396.7342955756382
 20
300.7887520657681
 30
0.0
 11
396.7342955756382
 21
274.2887520657681
 31
0.0
  0
LINE
  5
127D
330
18
100
AcDbEntity
  8
外形線
100
AcDbLine
 10
394.7342955756383
 20
300.7887520657681
 30
0.0
 11
394.7342955756383
 21
274.2887520657681
 31
0.0
  0
LINE
  5
127E
330
18
100
AcDbEntity
  8
外形線
100
AcDbLine
 10
393.7342955756383
 20
301.7887520657681
 30
0.0
 11
394.7342955756383
 21
300.7887520657681
 31
0.0
  0
LINE
  5
127F
330
18
100
AcDbEntity
  8
外形線
100
AcDbLine
 10
394.7342955756383
 20
300.7887520657681
 30
0.0
 11
396.7342955756382
 21
300.7887520657681
 31
0.0
  0
LINE
  5
1280
330
18
100
AcDbEntity
  8
外形線
100
AcDbLine
 10
387.7342955756383
 20
301.7887520657681
 30
0.0
 11
387.7342955756382
 21
274.2887520657681
 31
0.0
  0
LINE
  5
1281
330
18
100
AcDbEntity
  8
外形線
100
AcDbLine
 10
393.7342955756383
 20
301.7887520657681
 30
0.0
 11
393.7342955756384
 21
274.2887520657681
 31
0.0
  0
LINE
  5
128A
330
18
100
AcDbEntity
  8
外形線
100
AcDbLine
 10
387.7342955756383
 20
246.7887520657681
 30
0.0
 11
387.7342955756382
 21
274.2887520657681
 31
0.0
  0
LINE
  5
128B
330
18
100
AcDbEntity
  8
外形線
100
AcDbLine
 10
386.7342955756383
 20
247.7887520657681
 30
0.0
 11
386.7342955756383
 21
274.2887520657681
 31
0.0
  0
LINE
  5
128D
330
18
100
AcDbEntity
  8
外形線
100
AcDbLine
 10
386.7342955756383
 20
247.7887520657681
 30
0.0
 11
387.7342955756383
 21
246.7887520657681
 31
0.0
  0
LINE
  5
128E
330
18
100
AcDbEntity
  8
外形線
100
AcDbLine
 10
393.7342955756383
 20
246.7887520657681
 30
0.0
 11
393.7342955756384
 21
274.2887520657681
 31
0.0
  0
LINE
  5
128F
330
18
100
AcDbEntity
  8
外形線
100
AcDbLine
 10
394.7342955756383
 20
247.7887520657681
 30
0.0
 11
394.7342955756383
 21
274.2887520657681
 31
0.0
  0
LINE
  5
1290
330
18
100
AcDbEntity
  8
外形線
100
AcDbLine
 10
396.7342955756382
 20
247.7887520657681
 30
0.0
 11
396.7342955756382
 21
274.2887520657681
 31
0.0
  0
LINE
  5
1291
330
18
100
AcDbEntity
  8
外形線
100
AcDbLine
 10
387.7342955756383
 20
246.7887520657681
 30
0.0
 11
393.7342955756383
 21
246.7887520657681
 31
0.0
  0
LINE
  5
1292
330
18
100
AcDbEntity
  8
外形線
100
AcDbLine
 10
393.7342955756383
 20
246.7887520657681
 30
0.0
 11
394.7342955756383
 21
247.7887520657681
 31
0.0
  0
LINE
  5
1293
330
18
100
AcDbEntity
  8
外形線
100
AcDbLine
 10
394.7342955756383
 20
247.7887520657681
 30
0.0
 11
396.7342955756382
 21
247.7887520657681
 31
0.0
  0
LINE
  5
1294
330
18
100
AcDbEntity
  8
外形線
  6
Continuous
 62
     4
100
AcDbLine
 10
393.7342955756383
 20
271.2887520657682
 30
0.0
 11
387.7342955756382
 21
271.2887520657681
 31
0.0
  0
LINE
  5
1295
330
18
100
AcDbEntity
  8
外形線
  6
Continuous
 62
     4
100
AcDbLine
 10
387.7342955756383
 20
247.599737359999
 30
0.0
 11
393.7342955756383
 21
247.599737359999
 31
0.0
  0
LINE
  5
1296
330
18
100
AcDbEntity
  8
外形線
  6
Continuous
 62
     4
100
AcDbLine
 10
387.7342955756383
 20
248.599737359999
 30
0.0
 11
393.7342955756383
 21
248.599737359999
 31
0.0
  0
LINE
  5
1297
330
18
100
AcDbEntity
  8
外形線
  6
Continuous
 62
     4
100
AcDbLine
 10
387.7342955756383
 20
249.5997373599991
 30
0.0
 11
393.7342955756383
 21
249.5997373599991
 31
0.0
  0
LINE
  5
1298
330
18
100
AcDbEntity
  8
外形線
  6
Continuous
 62
     4
100
AcDbLine
 10
387.7342955756383
 20
250.599737359999
 30
0.0
 11
393.7342955756383
 21
250.599737359999
 31
0.0
  0
LINE
  5
1299
330
18
100
AcDbEntity
  8
外形線
  6
Continuous
 62
     4
100
AcDbLine
 10
387.7342955756383
 20
251.5997373599991
 30
0.0
 11
393.7342955756383
 21
251.599737359999
 31
0.0
  0
LINE
  5
129A
330
18
100
AcDbEntity
  8
外形線
  6
Continuous
 62
     4
100
AcDbLine
 10
387.7342955756383
 20
252.5997373599991
 30
0.0
 11
393.7342955756383
 21
252.599737359999
 31
0.0
  0
LINE
  5
1313
330
18
100
AcDbEntity
  8
外形線
100
AcDbLine
 10
398.4842955756384
 20
230.0887520657681
 30
0.0
 11
404.9842955756385
 21
230.0887520657681
 31
0.0
  0
LINE
  5
1314
330
18
100
AcDbEntity
  8
外形線
100
AcDbLine
 10
397.8342955756384
 20
231.2887520657681
 30
0.0
 11
405.6342955756383
 21
231.2887520657681
 31
0.0
  0
LINE
  5
1315
330
18
100
AcDbEntity
  8
外形線
100
AcDbLine
 10
397.7342955756384
 20
233.7887520657681
 30
0.0
 11
405.7342955756384
 21
233.788752065768
 31
0.0
  0
LINE
  5
1316
330
18
100
AcDbEntity
  8
外形線
100
AcDbLine
 10
405.6342955756383
 20
233.788752065768
 30
0.0
 11
405.6342955756383
 21
231.2887520657681
 31
0.0
  0
LINE
  5
1317
330
18
100
AcDbEntity
  8
外形線
100
AcDbLine
 10
397.8342955756383
 20
233.788752065768
 30
0.0
 11
397.8342955756384
 21
231.2887520657681
 31
0.0
  0
LINE
  5
1318
330
18
100
AcDbEntity
  8
外形線
100
AcDbLine
 10
404.9842955756385
 20
230.0887520657681
 30
0.0
 11
404.9842955756384
 21
229.4887520657681
 31
0.0
  0
LINE
  5
1319
330
18
100
AcDbEntity
  8
外形線
100
AcDbLine
 10
398.4842955756384
 20
230.0887520657681
 30
0.0
 11
398.4842955756385
 21
229.4887520657681
 31
0.0
  0
LINE
  5
131A
330
18
100
AcDbEntity
  8
外形線
100
AcDbLine
 10
398.4842955756385
 20
229.4887520657681
 30
0.0
 11
398.6842955756385
 21
229.288752065768
 31
0.0
  0
LINE
  5
131B
330
18
100
AcDbEntity
  8
外形線
 48
0.5
100
AcDbLine
 10
404.7842955756384
 20
229.2887520657681
 30
0.0
 11
404.9842955756384
 21
229.4887520657681
 31
0.0
  0
ARC
  5
131C
330
18
100
AcDbEntity
  8
外形線
100
AcDbCircle
 10
405.4342955756385
 20
230.6249423305062
 30
0.0
 40
0.7
100
AcDbArc
 50
108.5043392264886
 51
229.9947991151398
  0
ARC
  5
131E
330
18
100
AcDbEntity
  8
外形線
100
AcDbCircle
 10
398.0342955756382
 20
230.6249423305062
 30
0.0
 40
0.7
100
AcDbArc
 50
310.0052008848602
 51
71.49566077351135
  0
LINE
  5
132A
330
18
100
AcDbEntity
  8
外形線
100
AcDbLine
 10
321.2364573951089
 20
230.0887520657681
 30
0.0
 11
327.736457395109
 21
230.0887520657681
 31
0.0
  0
LINE
  5
132B
330
18
100
AcDbEntity
  8
外形線
100
AcDbLine
 10
321.4364573951089
 20
229.288752065768
 30
0.0
 11
327.536457395109
 21
229.2887520657681
 31
0.0
  0
LINE
  5
132C
330
18
100
AcDbEntity
  8
外形線
100
AcDbLine
 10
320.5864573951089
 20
231.2887520657681
 30
0.0
 11
328.3864573951089
 21
231.2887520657681
 31
0.0
  0
LINE
  5
132D
330
18
100
AcDbEntity
  8
外形線
100
AcDbLine
 10
320.486457395109
 20
233.7887520657681
 30
0.0
 11
328.486457395109
 21
233.788752065768
 31
0.0
  0
LINE
  5
132E
330
18
100
AcDbEntity
  8
外形線
100
AcDbLine
 10
321.2364573951089
 20
230.0887520657681
 30
0.0
 11
321.236457395109
 21
229.4887520657681
 31
0.0
  0
LINE
  5
132F
330
18
100
AcDbEntity
  8
外形線
100
AcDbLine
 10
321.236457395109
 20
229.4887520657681
 30
0.0
 11
321.4364573951089
 21
229.288752065768
 31
0.0
  0
ARC
  5
1330
330
18
100
AcDbEntity
  8
外形線
100
AcDbCircle
 10
320.7864573951088
 20
230.6249423305062
 30
0.0
 40
0.7
100
AcDbArc
 50
310.0052008848602
 51
71.49566077351135
  0
LINE
  5
1331
330
18
100
AcDbEntity
  8
外形線
100
AcDbLine
 10
320.5864573951089
 20
233.788752065768
 30
0.0
 11
320.5864573951089
 21
231.2887520657681
 31
0.0
  0
LINE
  5
1332
330
18
100
AcDbEntity
  8
外形線
100
AcDbLine
 10
327.736457395109
 20
230.0887520657681
 30
0.0
 11
327.736457395109
 21
229.4887520657681
 31
0.0
  0
LINE
  5
1333
330
18
100
AcDbEntity
  8
外形線
 48
0.5
100
AcDbLine
 10
327.536457395109
 20
229.2887520657681
 30
0.0
 11
327.736457395109
 21
229.4887520657681
 31
0.0
  0
ARC
  5
1334
330
18
100
AcDbEntity
  8
外形線
100
AcDbCircle
 10
328.1864573951091
 20
230.6249423305062
 30
0.0
 40
0.7
100
AcDbArc
 50
108.5043392264886
 51
229.9947991151398
  0
LINE
  5
1335
330
18
100
AcDbEntity
  8
外形線
100
AcDbLine
 10
328.3864573951088
 20
233.788752065768
 30
0.0
 11
328.3864573951089
 21
231.2887520657681
 31
0.0
  0
LINE
  5
1553
330
18
100
AcDbEntity
  8
外形線
100
AcDbLine
 10
321.586457395109
 20
217.7887520657681
 30
0.0
 11
327.3864573951089
 21
217.7887520657681
 31
0.0
  0
LINE
  5
1554
330
18
100
AcDbEntity
  8
外形線
 48
0.5
100
AcDbLine
 10
321.586457395109
 20
219.7887520657682
 30
0.0
 11
321.586457395109
 21
217.7887520657681
 31
0.0
  0
LINE
  5
1555
330
18
100
AcDbEntity
  8
外形線
 48
0.5
100
AcDbLine
 10
327.3864573951089
 20
219.7887520657682
 30
0.0
 11
327.3864573951089
 21
217.7887520657681
 31
0.0
  0
LINE
  5
156F
330
18
100
AcDbEntity
  8
外形線
 48
0.5
100
AcDbLine
 10
327.986457395109
 20
231.288752065768
 30
0.0
 11
327.986457395109
 21
229.288752065768
 31
0.0
  0
LINE
  5
1571
330
18
100
AcDbEntity
  8
外形線
 48
0.5
100
AcDbLine
 10
320.9864573951091
 20
231.2887520657682
 30
0.0
 11
320.9864573951092
 21
229.2887520657681
 31
0.0
  0
LINE
  5
15C1
330
18
100
AcDbEntity
  8
外形線
100
AcDbLine
 10
321.586457395109
 20
219.7887520657682
 30
0.0
 11
321.9456579324575
 21
220.4829852282931
 31
0.0
  0
LINE
  5
15C2
330
18
100
AcDbEntity
  8
外形線
100
AcDbLine
 10
321.9456579324575
 20
220.4829852282931
 30
0.0
 11
320.9864573951092
 21
221.2387520657681
 31
0.0
  0
LINE
  5
15C3
330
18
100
AcDbEntity
  8
外形線
100
AcDbLine
 10
320.9864573951092
 20
221.2387520657681
 30
0.0
 11
322.0081434420192
 21
222.0437520657681
 31
0.0
  0
LINE
  5
15FC
330
18
100
AcDbEntity
  8
外形線
100
AcDbLine
 10
320.9864573951092
 20
222.8487520657681
 30
0.0
 11
322.0081434420192
 21
223.6537520657681
 31
0.0
  0
LINE
  5
15FD
330
18
100
AcDbEntity
  8
外形線
100
AcDbLine
 10
322.0081434420192
 20
222.0437520657681
 30
0.0
 11
320.9864573951092
 21
222.8487520657681
 31
0.0
  0
LINE
  5
15FE
330
18
100
AcDbEntity
  8
外形線
100
AcDbLine
 10
320.9864573951092
 20
224.4587520657681
 30
0.0
 11
322.0081434420192
 21
225.2637520657681
 31
0.0
  0
LINE
  5
15FF
330
18
100
AcDbEntity
  8
外形線
100
AcDbLine
 10
322.0081434420192
 20
223.6537520657681
 30
0.0
 11
320.9864573951092
 21
224.4587520657681
 31
0.0
  0
LINE
  5
1600
330
18
100
AcDbEntity
  8
外形線
100
AcDbLine
 10
320.9864573951092
 20
226.0687520657681
 30
0.0
 11
322.0081434420192
 21
226.8737520657681
 31
0.0
  0
LINE
  5
1601
330
18
100
AcDbEntity
  8
外形線
100
AcDbLine
 10
322.0081434420192
 20
225.2637520657681
 30
0.0
 11
320.9864573951092
 21
226.0687520657681
 31
0.0
  0
LINE
  5
1602
330
18
100
AcDbEntity
  8
外形線
100
AcDbLine
 10
320.9864573951092
 20
227.6787520657681
 30
0.0
 11
322.0081434420192
 21
228.4837520657681
 31
0.0
  0
LINE
  5
1603
330
18
100
AcDbEntity
  8
外形線
100
AcDbLine
 10
322.0081434420192
 20
226.8737520657681
 30
0.0
 11
320.9864573951092
 21
227.6787520657681
 31
0.0
  0
LINE
  5
1605
330
18
100
AcDbEntity
  8
外形線
100
AcDbLine
 10
322.0081434420192
 20
228.4837520657681
 30
0.0
 11
320.9864573951092
 21
229.2887520657681
 31
0.0
  0
LINE
  5
1606
330
18
100
AcDbEntity
  8
外形線
100
AcDbLine
 10
326.9647713481988
 20
222.0437520657681
 30
0.0
 11
327.9864573951087
 21
222.8487520657681
 31
0.0
  0
LINE
  5
160D
330
18
100
AcDbEntity
  8
外形線
100
AcDbLine
 10
327.9864573951087
 20
221.2387520657681
 30
0.0
 11
326.9647713481988
 21
222.0437520657681
 31
0.0
  0
LINE
  5
160E
330
18
100
AcDbEntity
  8
外形線
100
AcDbLine
 10
327.0272568577603
 20
220.4829852282931
 30
0.0
 11
327.9864573951087
 21
221.2387520657681
 31
0.0
  0
LINE
  5
160F
330
18
100
AcDbEntity
  8
外形線
100
AcDbLine
 10
326.9647713481988
 20
228.4837520657681
 30
0.0
 11
327.9864573951087
 21
229.2887520657681
 31
0.0
  0
LINE
  5
1610
330
18
100
AcDbEntity
  8
外形線
100
AcDbLine
 10
326.9647713481988
 20
226.8737520657681
 30
0.0
 11
327.9864573951087
 21
227.6787520657681
 31
0.0
  0
LINE
  5
1611
330
18
100
AcDbEntity
  8
外形線
100
AcDbLine
 10
327.9864573951087
 20
227.6787520657681
 30
0.0
 11
326.9647713481988
 21
228.4837520657681
 31
0.0
  0
LINE
  5
1612
330
18
100
AcDbEntity
  8
外形線
100
AcDbLine
 10
326.9647713481988
 20
225.2637520657681
 30
0.0
 11
327.9864573951087
 21
226.0687520657681
 31
0.0
  0
LINE
  5
1613
330
18
100
AcDbEntity
  8
外形線
100
AcDbLine
 10
327.9864573951087
 20
226.0687520657681
 30
0.0
 11
326.9647713481988
 21
226.8737520657681
 31
0.0
  0
LINE
  5
1614
330
18
100
AcDbEntity
  8
外形線
100
AcDbLine
 10
326.9647713481988
 20
223.6537520657681
 30
0.0
 11
327.9864573951087
 21
224.4587520657681
 31
0.0
  0
LINE
  5
1615
330
18
100
AcDbEntity
  8
外形線
100
AcDbLine
 10
327.9864573951087
 20
224.4587520657681
 30
0.0
 11
326.9647713481988
 21
225.2637520657681
 31
0.0
  0
LINE
  5
1616
330
18
100
AcDbEntity
  8
外形線
100
AcDbLine
 10
327.9864573951087
 20
222.8487520657681
 30
0.0
 11
326.9647713481988
 21
223.6537520657681
 31
0.0
  0
LINE
  5
1617
330
18
100
AcDbEntity
  8
外形線
100
AcDbLine
 10
327.3864573951089
 20
219.7887520657682
 30
0.0
 11
327.0272568577603
 21
220.4829852282931
 31
0.0
  0
LINE
  5
1692
330
18
100
AcDbEntity
  8
0
  6
ByBlock
 62
     2
100
AcDbLine
 10
398.6842955756385
 20
229.288752065768
 30
0.0
 11
381.9959435051582
 21
229.288752065768
 31
0.0
  0
LINE
  5
1693
330
18
100
AcDbEntity
  8
0
  6
ByBlock
 62
     2
100
AcDbLine
 10
383.2459435051582
 20
236.2887520657681
 30
0.0
 11
383.2459435051582
 21
238.7887520657681
 31
0.0
  0
LINE
  5
1694
330
18
100
AcDbEntity
  8
0
  6
ByBlock
 62
     2
100
AcDbLine
 10
383.2459435051582
 20
226.788752065768
 30
0.0
 11
383.2459435051582
 21
224.2887520657681
 31
0.0
  0
MTEXT
  5
1697
330
18
100
AcDbEntity
  8
0
  6
ByBlock
 62
     6
100
AcDbMText
 10
380.0306575052038
 20
228.8651958906455
 30
0.0
 40
2.5
 41
0.0
 71
     4
 72
     1
  1
\A1;4.5
  7
STYLE3
 11
0.0000000000000001
 21
1.0
 31
0.0
 73
     1
 44
1.0
  0
LINE
  5
1698
330
18
100
AcDbEntity
  8
0
  6
ByBlock
 62
     2
100
AcDbLine
 10
383.2459435051582
 20
233.7887520657681
 30
0.0
 11
383.2459435051582
 21
229.288752065768
 31
0.0
  0
LINE
  5
1699
330
18
100
AcDbEntity
  8
0
  6
ByBlock
 62
     2
100
AcDbLine
 10
383.2459435051582
 20
233.7887520657681
 30
0.0
 11
383.2459435051582
 21
229.288752065768
 31
0.0
  0
INSERT
  5
169A
330
18
100
AcDbEntity
  8
0
  6
ByBlock
 62
     2
100
AcDbBlockReference
  2
_OPEN
 10
383.2459435051582
 20
233.7887520657681
 30
0.0
 41
2.5
 42
2.5
 43
2.5
 50
270.0
  0
POINT
  5
169C
330
18
100
AcDbEntity
  8
DEFPOINTS
  6
ByBlock
 62
     0
100
AcDbPoint
 10
397.7342955756384
 20
233.7887520657681
 30
0.0
  0
POINT
  5
169D
330
18
100
AcDbEntity
  8
DEFPOINTS
  6
ByBlock
 62
     0
100
AcDbPoint
 10
398.6842955756385
 20
229.288752065768
 30
0.0
  0
POINT
  5
169E
330
18
100
AcDbEntity
  8
DEFPOINTS
  6
ByBlock
 62
     0
100
AcDbPoint
 10
383.2459435051582
 20
229.288752065768
 30
0.0
  0
LINE
  5
169F
330
18
100
AcDbEntity
  8
0
  6
ByBlock
 62
     2
100
AcDbLine
 10
399.7342955756385
 20
223.2887520657681
 30
0.0
 11
381.9959435051582
 21
223.2887520657681
 31
0.0
  0
LINE
  5
16A0
330
18
100
AcDbEntity
  8
0
  6
ByBlock
 62
     2
100
AcDbLine
 10
383.2459435051582
 20
231.7887520657681
 30
0.0
 11
383.2459435051582
 21
234.2887520657681
 31
0.0
  0
LINE
  5
16A1
330
18
100
AcDbEntity
  8
0
  6
ByBlock
 62
     2
100
AcDbLine
 10
383.2459435051582
 20
220.7887520657681
 30
0.0
 11
383.2459435051582
 21
218.2887520657681
 31
0.0
  0
LINE
  5
16A2
330
18
100
AcDbEntity
  8
0
  6
ByBlock
 62
     2
100
AcDbLine
 10
383.2459435051582
 20
229.288752065768
 30
0.0
 11
383.2459435051582
 21
223.2887520657681
 31
0.0
  0
INSERT
  5
16A4
330
18
100
AcDbEntity
  8
0
  6
ByBlock
 62
     2
100
AcDbBlockReference
  2
_OPEN
 10
383.2459435051582
 20
223.2887520657681
 30
0.0
 41
2.5
 42
2.5
 43
2.5
 50
90.0
  0
MTEXT
  5
16A5
330
18
100
AcDbEntity
  8
0
  6
ByBlock
 62
     6
100
AcDbMText
 10
381.3709435051582
 20
226.2887520657681
 30
0.0
 40
2.5
 41
0.0
 71
     5
 72
     1
  1
\A1;6
  7
STYLE3
 11
0.0000000000000001
 21
1.0
 31
0.0
 73
     1
 44
1.0
  0
POINT
  5
16A6
330
18
100
AcDbEntity
  8
DEFPOINTS
  6
ByBlock
 62
     0
100
AcDbPoint
 10
398.6842955756385
 20
229.288752065768
 30
0.0
  0
POINT
  5
16A7
330
18
100
AcDbEntity
  8
DEFPOINTS
  6
ByBlock
 62
     0
100
AcDbPoint
 10
399.7342955756385
 20
223.2887520657681
 30
0.0
  0
POINT
  5
16A8
330
18
100
AcDbEntity
  8
DEFPOINTS
  6
ByBlock
 62
     0
100
AcDbPoint
 10
383.2459435051582
 20
223.2887520657681
 30
0.0
  0
CIRCLE
  5
16A9
102
{ACAD_REACTORS
330
16AA
102
}
330
18
100
AcDbEntity
  8
寸法線
100
AcDbCircle
 10
383.2459435051582
 20
229.288752065768
 30
0.0
 40
0.4478825375691719
  0
HATCH
  5
16AA
330
18
100
AcDbEntity
  8
寸法線
100
AcDbHatch
 10
0.0
 20
0.0
 30
0.0
210
0.0
220
0.0
230
1.0
  2
SOLID
 70
     1
 71
     1
 91
        1
 92
        1
 93
        1
 72
     2
 10
383.2459435051582
 20
229.288752065768
 40
0.4478825375691719
 50
0.0
 51
360.0
 73
     1
 97
        1
330
16A9
 75
     0
 76
     1
 98
        1
 10
2.457012517410817
 20
-18.1670596109833
450
        0
451
        0
460
0.0
461
0.0
452
        0
462
0.0
453
        0
470

  0
TEXT
  5
1793
330
18
100
AcDbEntity
  8
文字
100
AcDbText
 10
339.3370376030968
 20
278.6303521338189
 30
0.0
 40
2.5
  1
40
 50
0.030000000000189
  7
STYLE3
100
AcDbText
  0
LINE
  5
1794
330
18
100
AcDbEntity
  8
目盛
100
AcDbLine
 10
347.2014022103391
 20
277.8986387732783
 30
0.0
 11
344.9792880436316
 21
277.5454976823262
 31
0.0
  0
LINE
  5
1795
330
18
100
AcDbEntity
  8
目盛
100
AcDbLine
 10
347.4864542423189
 20
274.3007948370564
 30
0.0
 11
345.2364545507439
 21
274.2996167398652
 31
0.0
  0
TEXT
  5
1796
330
18
100
AcDbEntity
  8
文字
100
AcDbText
 10
340.3632641837665
 20
273.1408528377122
 30
0.0
 40
2.5
  1
50
 50
0.030000000000189
  7
STYLE3
100
AcDbText
  0
LINE
  5
1797
330
18
100
AcDbEntity
  8
目盛
100
AcDbLine
 10
347.4418251742562
 20
272.8565893221893
 30
0.0
 11
346.1942508384329
 21
272.9344242539055
 31
0.0
  0
LINE
  5
1798
330
18
100
AcDbEntity
  8
目盛
100
AcDbLine
 10
347.3855127670756
 20
272.1362504811889
 30
0.0
 11
346.1409988881642
 21
272.2532342629595
 31
0.0
  0
LINE
  5
1799
330
18
100
AcDbEntity
  8
目盛
100
AcDbLine
 10
346.9299127936754
 20
279.317798672489
 30
0.0
 11
345.7101597828836
 21
279.0444809221236
 31
0.0
  0
LINE
  5
179A
330
18
100
AcDbEntity
  8
目盛
100
AcDbLine
 10
347.0768044746081
 20
278.6103511711658
 30
0.0
 11
345.8490682202874
 21
278.3754816545679
 31
0.0
  0
LINE
  5
179B
330
18
100
AcDbEntity
  8
目盛
100
AcDbLine
 10
346.7608721318953
 20
280.0202831119759
 30
0.0
 11
345.5503061135916
 21
279.7087868594646
 31
0.0
  0
LINE
  5
179C
330
18
100
AcDbEntity
  8
目盛
100
AcDbLine
 10
347.4403128305248
 20
275.7449528246069
 30
0.0
 11
346.1928206872955
 21
275.6658114790178
 31
0.0
  0
LINE
  5
179D
330
18
100
AcDbEntity
  8
目盛
100
AcDbLine
 10
347.4747268596988
 20
275.0232362544412
 30
0.0
 11
346.2253643887971
 21
274.9833186354915
 31
0.0
  0
LINE
  5
179E
330
18
100
AcDbEntity
  8
目盛
100
AcDbLine
 10
347.3035830379459
 20
277.1833638530373
 30
0.0
 11
346.0635218617047
 21
277.0260479950335
 31
0.0
  0
LINE
  5
179F
330
18
100
AcDbEntity
  8
目盛
100
AcDbLine
 10
347.3832461172883
 20
276.4652323004332
 30
0.0
 11
346.1388554258654
 21
276.346945331158
 31
0.0
  0
LINE
  5
17A0
330
18
100
AcDbEntity
  8
目盛
100
AcDbLine
 10
347.475483404874
 20
273.5783415349102
 30
0.0
 11
346.2260798173866
 21
273.6169508028916
 31
0.0
  0
LINE
  5
17A1
330
18
100
AcDbEntity
  8
目盛
100
AcDbLine
 10
345.8668803993552
 20
282.7668127024649
 30
0.0
 11
344.7049008882547
 21
282.3060485374269
 31
0.0
  0
LINE
  5
17A2
330
18
100
AcDbEntity
  8
目盛
100
AcDbLine
 10
346.1226327713563
 20
282.0910539753503
 30
0.0
 11
344.9467536748212
 21
281.6670158280904
 31
0.0
  0
LINE
  5
17A3
330
18
100
AcDbEntity
  8
目盛
100
AcDbLine
 10
345.2923491864701
 20
284.0925710546203
 30
0.0
 11
344.1615941978091
 21
283.5597548052259
 31
0.0
  0
LINE
  5
17A4
330
18
100
AcDbEntity
  8
目盛
100
AcDbLine
 10
345.5900281311384
 20
283.4342046073
 30
0.0
 11
344.4430949389627
 21
282.9371691430862
 31
0.0
  0
LINE
  5
17A5
330
18
100
AcDbEntity
  8
目盛
100
AcDbLine
 10
346.3570328504285
 20
281.4075953182341
 30
0.0
 11
344.2175200341472
 21
280.7111867391885
 31
0.0
  0
LINE
  5
17A6
330
18
100
AcDbEntity
  8
目盛
100
AcDbLine
 10
344.2773910331147
 20
286.0070687424952
 30
0.0
 11
343.2017968136579
 21
285.3702037057164
 31
0.0
  0
LINE
  5
17A7
330
18
100
AcDbEntity
  8
目盛
100
AcDbLine
 10
344.6357066239923
 20
285.3796382121655
 30
0.0
 11
343.5406387311182
 21
284.7768726607307
 31
0.0
  0
LINE
  5
17A8
330
18
100
AcDbEntity
  8
目盛
100
AcDbLine
 10
343.502538954248
 20
287.2266283264291
 30
0.0
 11
342.4690562608166
 21
286.52348287748
 31
0.0
  0
LINE
  5
17A9
330
18
100
AcDbEntity
  8
目盛
100
AcDbLine
 10
343.8995441801246
 20
286.6229347090347
 30
0.0
 11
342.8444851157215
 21
285.9525986958137
 31
0.0
  0
LINE
  5
17AA
330
18
100
AcDbEntity
  8
目盛
100
AcDbLine
 10
344.9741373385295
 20
284.7412623162281
 30
0.0
 11
342.969907778847
 21
283.7187341395526
 31
0.0
  0
LINE
  5
17AB
330
18
100
AcDbEntity
  8
目盛
100
AcDbLine
 10
346.5698493119928
 20
280.7171112222961
 30
0.0
 11
345.3696649686838
 21
280.3677438768325
 31
0.0
  0
LINE
  5
17AC
330
18
100
AcDbEntity
  8
目盛
100
AcDbLine
 10
336.1840426330974
 20
294.0919462424659
 30
0.0
 11
335.5483043049458
 21
293.0156856893845
 31
0.0
  0
LINE
  5
17AD
330
18
100
AcDbEntity
  8
目盛
100
AcDbLine
 10
335.5562372196541
 20
294.4496045932804
 30
0.0
 11
334.9546187509288
 21
293.3539060863502
 31
0.0
  0
LINE
  5
17AE
330
18
100
AcDbEntity
  8
目盛
100
AcDbLine
 10
343.086767151712
 20
287.817553821963
 30
0.0
 11
341.2671716320442
 21
286.4940840849439
 31
0.0
  0
TEXT
  5
17AF
330
18
100
AcDbEntity
  8
文字
100
AcDbText
 10
336.6096133097534
 20
284.0134835105689
 30
0.0
 40
2.5
  1
30
 50
0.030000000000189
  7
STYLE3
100
AcDbText
  0
LINE
  5
17B0
330
18
100
AcDbEntity
  8
目盛
100
AcDbLine
 10
341.2444896832836
 20
290.0421121463509
 30
0.0
 11
340.3337270589263
 21
289.185951272406
 31
0.0
  0
LINE
  5
17B1
330
18
100
AcDbEntity
  8
目盛
100
AcDbLine
 10
340.741395607798
 20
290.5607213289417
 30
0.0
 11
339.1512386087306
 21
288.9688982488485
 31
0.0
  0
LINE
  5
17B2
330
18
100
AcDbEntity
  8
目盛
100
AcDbLine
 10
336.8003039421775
 20
293.7147445298677
 30
0.0
 11
336.1310731515759
 21
292.6589840698622
 31
0.0
  0
LINE
  5
17B3
330
18
100
AcDbEntity
  8
目盛
100
AcDbLine
 10
337.4044129713841
 20
293.318371708036
 30
0.0
 11
336.7023501683256
 21
292.2841532492169
 31
0.0
  0
LINE
  5
17B4
330
18
100
AcDbEntity
  8
目盛
100
AcDbLine
 10
339.6875947965233
 20
291.5492683298702
 30
0.0
 11
338.8614460247073
 21
290.6111967937775
 31
0.0
  0
LINE
  5
17B5
330
18
100
AcDbEntity
  8
目盛
100
AcDbLine
 10
340.222259870779
 20
291.0632720424082
 30
0.0
 11
339.3670532144926
 21
290.1516133480255
 31
0.0
  0
LINE
  5
17B6
330
18
100
AcDbEntity
  8
目盛
100
AcDbLine
 10
338.5738020406639
 20
292.4696959586841
 30
0.0
 11
337.8081854838403
 21
291.4816011818951
 31
0.0
  0
LINE
  5
17B7
330
18
100
AcDbEntity
  8
目盛
100
AcDbLine
 10
339.1379280349075
 20
292.0182305716669
 30
0.0
 11
338.3416524566575
 21
291.0546719572158
 31
0.0
  0
LINE
  5
17B8
330
18
100
AcDbEntity
  8
目盛
100
AcDbLine
 10
337.9957735380407
 20
292.9032189490911
 30
0.0
 11
336.674210002319
 21
291.0822384931138
 31
0.0
  0
LINE
  5
17B9
330
18
100
AcDbEntity
  8
目盛
100
AcDbLine
 10
342.2005831983635
 20
288.9587809350812
 30
0.0
 11
341.2378589699257
 21
288.161496757401
 31
0.0
  0
LINE
  5
17BA
330
18
100
AcDbEntity
  8
目盛
100
AcDbLine
 10
342.6526390890887
 20
288.3951280235156
 30
0.0
 11
341.6653466057202
 21
287.6284771562466
 31
0.0
  0
LINE
  5
17BB
330
18
100
AcDbEntity
  8
目盛
100
AcDbLine
 10
341.7310456041224
 20
289.507956299287
 30
0.0
 11
340.7938397231977
 21
288.6808256344217
 31
0.0
  0
TEXT
  5
17BC
330
18
100
AcDbEntity
  8
文字
100
AcDbText
 10
332.53506927367
 20
288.093515104302
 30
0.0
 40
2.5
  1
20
 50
0.030000000000189
  7
STYLE3
100
AcDbText
  0
LINE
  5
17BD
330
18
100
AcDbEntity
  8
目盛
100
AcDbLine
 10
333.6098053185292
 20
295.4018883242264
 30
0.0
 11
333.1139711922564
 21
294.2544352667014
 31
0.0
  0
LINE
  5
17BE
330
18
100
AcDbEntity
  8
目盛
100
AcDbLine
 10
334.2684831334645
 20
295.1048989823844
 30
0.0
 11
333.7368512998583
 21
293.9735866499594
 31
0.0
  0
LINE
  5
17BF
330
18
100
AcDbEntity
  8
目盛
100
AcDbLine
 10
331.582393935359
 20
296.1667703630625
 30
0.0
 11
330.8882262303345
 21
294.0265294426749
 31
0.0
  0
LINE
  5
17C0
330
18
100
AcDbEntity
  8
目盛
100
AcDbLine
 10
334.9175072699946
 20
294.7873666166994
 30
0.0
 11
333.8970784778862
 21
292.7820673671517
 31
0.0
  0
TEXT
  5
17C1
330
18
100
AcDbEntity
  8
文字
100
AcDbText
 10
327.4162063326938
 20
290.9051698917058
 30
0.0
 40
2.5
  1
10
 50
0.030000000000189
  7
STYLE3
100
AcDbText
  0
LINE
  5
17C2
330
18
100
AcDbEntity
  8
目盛
100
AcDbLine
 10
330.8916873571846
 20
296.3788636348148
 30
0.0
 11
330.5435770331588
 21
295.1783140930188
 31
0.0
  0
LINE
  5
17C3
330
18
100
AcDbEntity
  8
目盛
100
AcDbLine
 10
330.1946595903506
 20
296.5691566334201
 30
0.0
 11
329.8844312101745
 21
295.3582650808301
 31
0.0
  0
LINE
  5
17C4
330
18
100
AcDbEntity
  8
目盛
100
AcDbLine
 10
328.7843975791068
 20
296.8836123258977
 30
0.0
 11
328.5508138734548
 21
295.655630790021
 31
0.0
  0
LINE
  5
17C5
330
18
100
AcDbEntity
  8
目盛
100
AcDbLine
 10
329.4919985171091
 20
296.7374615626628
 30
0.0
 11
329.2199582387396
 21
295.5174230030489
 31
0.0
  0
LINE
  5
17C6
330
18
100
AcDbEntity
  8
目盛
100
AcDbLine
 10
328.0725550930394
 20
297.0074646899663
 30
0.0
 11
327.721741187807
 21
294.7849819332512
 31
0.0
  0
LINE
  5
17C7
330
18
100
AcDbEntity
  8
目盛
100
AcDbLine
 10
327.3571735614989
 20
297.1088964275383
 30
0.0
 11
327.201156378543
 21
295.8686711904855
 31
0.0
  0
LINE
  5
17C8
330
18
100
AcDbEntity
  8
目盛
100
AcDbLine
 10
332.266097680871
 20
295.9330861286158
 30
0.0
 11
331.8432911436015
 21
294.7567636252001
 31
0.0
  0
LINE
  5
17C9
330
18
100
AcDbEntity
  8
目盛
100
AcDbLine
 10
332.9421238606684
 20
295.6780415496013
 30
0.0
 11
332.4825767701488
 21
294.5155801646103
 31
0.0
  0
TEXT
  5
17CA
330
18
100
AcDbEntity
  8
文字
100
AcDbText
 10
323.3788999634412
 20
292.0859617824715
 30
0.0
 40
2.5
  1
0
 50
0.030000000000189
  7
STYLE3
100
AcDbText
  0
LINE
  5
17CB
330
18
100
AcDbEntity
  8
目盛
100
AcDbLine
 10
319.4574107883881
 20
296.7322074643345
 30
0.0
 11
319.7307285387534
 21
295.5124544535427
 31
0.0
  0
LINE
  5
17CC
330
18
100
AcDbEntity
  8
目盛
100
AcDbLine
 10
320.1648582897113
 20
296.8790991452672
 30
0.0
 11
320.3997278063091
 21
295.6513628909465
 31
0.0
  0
LINE
  5
17CD
330
18
100
AcDbEntity
  8
目盛
100
AcDbLine
 10
318.0580982385809
 20
296.3721439826519
 30
0.0
 11
318.4074655840446
 21
295.1719596393429
 31
0.0
  0
LINE
  5
17CE
330
18
100
AcDbEntity
  8
目盛
100
AcDbLine
 10
318.7549263489012
 20
296.5631668025543
 30
0.0
 11
319.0664226014125
 21
295.3526007842507
 31
0.0
  0
LINE
  5
17CF
330
18
100
AcDbEntity
  8
目盛
100
AcDbLine
 10
320.8765706875988
 20
297.0036968809982
 30
0.0
 11
321.2297117785509
 21
294.7815827142907
 31
0.0
  0
LINE
  5
17D0
330
18
100
AcDbEntity
  8
目盛
100
AcDbLine
 10
323.0302566362702
 20
297.2426075011838
 30
0.0
 11
323.1093979818593
 21
295.9951153579545
 31
0.0
  0
LINE
  5
17D1
330
18
100
AcDbEntity
  8
目盛
100
AcDbLine
 10
323.751973206436
 20
297.2770215303579
 30
0.0
 11
323.7918908253856
 21
296.0276590594562
 31
0.0
  0
LINE
  5
17D2
330
18
100
AcDbEntity
  8
目盛
100
AcDbLine
 10
321.5918456078398
 20
297.105877708605
 30
0.0
 11
321.7491614658436
 21
295.8658165323637
 31
0.0
  0
LINE
  5
17D3
330
18
100
AcDbEntity
  8
目盛
100
AcDbLine
 10
322.3099771604439
 20
297.1855407879474
 30
0.0
 11
322.4282641297192
 21
295.9411500965245
 31
0.0
  0
LINE
  5
17D4
330
18
100
AcDbEntity
  8
目盛
100
AcDbLine
 10
325.9186201386878
 20
297.2441198449153
 30
0.0
 11
325.8407852069716
 21
295.996545509092
 31
0.0
  0
LINE
  5
17D5
330
18
100
AcDbEntity
  8
目盛
100
AcDbLine
 10
324.4744146238207
 20
297.288748912978
 30
0.0
 11
324.4755927210119
 21
295.038749221403
 31
0.0
  0
LINE
  5
17D6
330
18
100
AcDbEntity
  8
目盛
100
AcDbLine
 10
325.1968679259669
 20
297.2777780755331
 30
0.0
 11
325.1582586579855
 21
296.0283744880458
 31
0.0
  0
LINE
  5
17D7
330
18
100
AcDbEntity
  8
目盛
100
AcDbLine
 10
326.6389589796882
 20
297.1878074377347
 30
0.0
 11
326.5219751979176
 21
295.9432935588233
 31
0.0
  0
LINE
  5
17D8
330
18
100
AcDbEntity
  8
目盛
100
AcDbLine
 10
316.0083967584122
 20
295.6691750700143
 30
0.0
 11
316.4691609234502
 21
294.5071955589139
 31
0.0
  0
LINE
  5
17D9
330
18
100
AcDbEntity
  8
目盛
100
AcDbLine
 10
313.3955712487116
 20
294.4380012946514
 30
0.0
 11
313.9983368001463
 21
293.3429334017773
 31
0.0
  0
LINE
  5
17DA
330
18
100
AcDbEntity
  8
目盛
100
AcDbLine
 10
314.6826384062568
 20
295.0946438571293
 30
0.0
 11
315.2154546556511
 21
293.9638888684683
 31
0.0
  0
LINE
  5
17DB
330
18
100
AcDbEntity
  8
目盛
100
AcDbLine
 10
315.3410048535771
 20
295.3923228017974
 30
0.0
 11
315.8380403177909
 21
294.2453896096219
 31
0.0
  0
LINE
  5
17DC
330
18
100
AcDbEntity
  8
目盛
100
AcDbLine
 10
314.0339471446489
 20
294.7764320091886
 30
0.0
 11
315.0564753213245
 21
292.7722024495061
 31
0.0
  0
LINE
  5
17DD
330
18
100
AcDbEntity
  8
目盛
100
AcDbLine
 10
311.548581134448
 20
293.3048336249072
 30
0.0
 11
312.2517265833971
 21
292.2713509314757
 31
0.0
  0
LINE
  5
17DE
330
18
100
AcDbEntity
  8
目盛
100
AcDbLine
 10
310.9576556389141
 20
292.8890618223712
 30
0.0
 11
312.2811253759331
 21
291.0694663027033
 31
0.0
  0
LINE
  5
17DF
330
18
100
AcDbEntity
  8
目盛
100
AcDbLine
 10
307.7119374184688
 20
290.0245545414382
 30
0.0
 11
308.6235961128516
 21
289.1693478851518
 31
0.0
  0
LINE
  5
17E0
330
18
100
AcDbEntity
  8
目盛
100
AcDbLine
 10
309.8164285257959
 20
292.0028778690227
 30
0.0
 11
310.6137127034761
 21
291.0401536405848
 31
0.0
  0
LINE
  5
17E1
330
18
100
AcDbEntity
  8
目盛
100
AcDbLine
 10
310.3800814373615
 20
292.4549337597479
 30
0.0
 11
311.1467323046304
 21
291.4676412763794
 31
0.0
  0
LINE
  5
17E2
330
18
100
AcDbEntity
  8
目盛
100
AcDbLine
 10
308.7330973145262
 20
291.0467843539427
 30
0.0
 11
309.589258188471
 21
290.1360217295854
 31
0.0
  0
LINE
  5
17E3
330
18
100
AcDbEntity
  8
目盛
100
AcDbLine
 10
309.2672531615901
 20
291.5333402747815
 30
0.0
 11
310.0943838264553
 21
290.5961343938569
 31
0.0
  0
LINE
  5
17E4
330
18
100
AcDbEntity
  8
目盛
100
AcDbLine
 10
312.7681407183819
 20
294.0796857037739
 30
0.0
 11
313.4050057551607
 21
293.0040914843169
 31
0.0
  0
LINE
  5
17E5
330
18
100
AcDbEntity
  8
目盛
100
AcDbLine
 10
312.1522747518424
 20
293.7018388507837
 30
0.0
 11
312.8226107650635
 21
292.6467797863806
 31
0.0
  0
LINE
  5
17E6
330
18
100
AcDbEntity
  8
目盛
100
AcDbLine
 10
317.3676141426429
 20
296.1593275210876
 30
0.0
 11
318.0640227216886
 21
294.0198147048063
 31
0.0
  0
TEXT
  5
17E7
330
18
100
AcDbEntity
  8
文字
100
AcDbText
 10
316.5472282300406
 20
290.9846563176801
 30
0.0
 40
2.5
  1
10
 50
0.030000000000189
  7
STYLE3
100
AcDbText
  0
LINE
  5
17E8
330
18
100
AcDbEntity
  8
目盛
100
AcDbLine
 10
316.6841554855267
 20
295.9249274420155
 30
0.0
 11
317.1081936327868
 21
294.7490483454803
 31
0.0
  0
TEXT
  5
17E9
330
18
100
AcDbEntity
  8
文字
100
AcDbText
 10
304.5468614772427
 20
278.8213093518542
 30
0.0
 40
2.5
  1
40
 50
0.030000000000189
  7
STYLE3
100
AcDbText
  0
LINE
  5
17EA
330
18
100
AcDbEntity
  8
目盛
100
AcDbLine
 10
301.8915971349795
 20
278.586692249766
 30
0.0
 11
303.1195786708563
 21
278.3531085441139
 31
0.0
  0
LINE
  5
17EB
330
18
100
AcDbEntity
  8
目盛
100
AcDbLine
 10
301.7677447709108
 20
277.8748497636985
 30
0.0
 11
303.990227527626
 21
277.5240358584662
 31
0.0
  0
LINE
  5
17EC
330
18
100
AcDbEntity
  8
目盛
100
AcDbLine
 10
302.2060528274571
 20
279.9969542610098
 30
0.0
 11
303.416944380047
 21
279.6867258808336
 31
0.0
  0
LINE
  5
17ED
330
18
100
AcDbEntity
  8
目盛
100
AcDbLine
 10
302.0377478982143
 20
279.2942931877683
 30
0.0
 11
303.2577864578283
 21
279.0222529093987
 31
0.0
  0
LINE
  5
17EE
330
18
100
AcDbEntity
  8
目盛
100
AcDbLine
 10
306.3055135021929
 20
288.376096711323
 30
0.0
 11
307.293608278982
 21
287.6104801544993
 31
0.0
  0
LINE
  5
17EF
330
18
100
AcDbEntity
  8
目盛
100
AcDbLine
 10
306.7569788892101
 20
288.9402227055665
 30
0.0
 11
307.7205375036613
 21
288.1439471273166
 31
0.0
  0
LINE
  5
17F0
330
18
100
AcDbEntity
  8
目盛
100
AcDbLine
 10
305.871990511786
 20
287.7980682086999
 30
0.0
 11
307.6929709677633
 21
286.4765046729782
 31
0.0
  0
LINE
  5
17F1
330
18
100
AcDbEntity
  8
目盛
100
AcDbLine
 10
302.3963458260623
 20
280.6939820278437
 30
0.0
 11
303.5968953678584
 21
280.3458717038179
 31
0.0
  0
LINE
  5
17F2
330
18
100
AcDbEntity
  8
目盛
100
AcDbLine
 10
303.3733211366506
 20
283.4120999891884
 30
0.0
 11
304.5207741941756
 21
282.9162658629156
 31
0.0
  0
LINE
  5
17F3
330
18
100
AcDbEntity
  8
目盛
100
AcDbLine
 10
303.6703104784927
 20
284.0707778041237
 30
0.0
 11
304.8016228109176
 21
283.5391459705174
 31
0.0
  0
LINE
  5
17F4
330
18
100
AcDbEntity
  8
目盛
100
AcDbLine
 10
302.8421233322612
 20
282.0683923515302
 30
0.0
 11
304.018445835677
 21
281.6455858142607
 31
0.0
  0
LINE
  5
17F5
330
18
100
AcDbEntity
  8
目盛
100
AcDbLine
 10
303.0971679112757
 20
282.7444185313275
 30
0.0
 11
304.2596292962668
 21
282.2848714408079
 31
0.0
  0
LINE
  5
17F6
330
18
100
AcDbEntity
  8
目盛
100
AcDbLine
 10
302.6084390978145
 20
281.3846886060182
 30
0.0
 11
304.7486800182022
 21
280.6905209009937
 31
0.0
  0
LINE
  5
17F7
330
18
100
AcDbEntity
  8
目盛
100
AcDbLine
 10
305.0604649310094
 20
286.6025986128367
 30
0.0
 11
306.116225391015
 21
285.9333678222352
 31
0.0
  0
LINE
  5
17F8
330
18
100
AcDbEntity
  8
目盛
100
AcDbLine
 10
305.4568377528411
 20
287.2067076420432
 30
0.0
 11
306.4910562116602
 21
286.5046448389849
 31
0.0
  0
LINE
  5
17F9
330
18
100
AcDbEntity
  8
目盛
100
AcDbLine
 10
304.3256048675967
 20
285.3585318903133
 30
0.0
 11
305.4213033745269
 21
284.756913421588
 31
0.0
  0
LINE
  5
17FA
330
18
100
AcDbEntity
  8
目盛
100
AcDbLine
 10
304.6832632184111
 20
285.9863373037565
 30
0.0
 11
305.7595237714926
 21
285.350598975605
 31
0.0
  0
LINE
  5
17FB
330
18
100
AcDbEntity
  8
目盛
100
AcDbLine
 10
303.9878428441777
 20
284.7198019406538
 30
0.0
 11
305.9931420937254
 21
283.6993731485454
 31
0.0
  0
TEXT
  5
17FC
330
18
100
AcDbEntity
  8
文字
100
AcDbText
 10
307.7319888064147
 20
284.0308736552101
 30
0.0
 40
2.5
  1
30
 50
0.030000000000189
  7
STYLE3
100
AcDbText
  0
LINE
  5
17FD
330
18
100
AcDbEntity
  8
目盛
100
AcDbLine
 10
307.2259411310069
 20
289.4898894671824
 30
0.0
 11
308.1640126670996
 21
288.6637406953663
 31
0.0
  0
LINE
  5
17FE
330
18
100
AcDbEntity
  8
目盛
100
AcDbLine
 10
308.2144881319354
 20
290.5436902784571
 30
0.0
 11
309.8063112120285
 21
288.9535332793897
 31
0.0
  0
TEXT
  5
17FF
330
18
100
AcDbEntity
  8
文字
100
AcDbText
 10
303.7817852577239
 20
273.082685700911
 30
0.0
 40
2.5
  1
50
 50
0.030000000000189
  7
STYLE3
100
AcDbText
  0
TEXT
  5
1800
330
18
100
AcDbEntity
  8
文字
100
AcDbText
 10
304.9384110986265
 20
266.9759807302216
 30
0.0
 40
2.5
  1
60
 50
0.030000000000189
  7
STYLE3
100
AcDbText
  0
LINE
  5
1801
330
18
100
AcDbEntity
  8
目盛
100
AcDbLine
 10
301.5326019596932
 20
272.8325513069293
 30
0.0
 11
302.7800941029225
 21
272.9116926525184
 31
0.0
  0
LINE
  5
1802
330
18
100
AcDbEntity
  8
目盛
100
AcDbLine
 10
301.8961103156099
 20
269.9671529603704
 30
0.0
 11
303.1238465699306
 21
270.2020224769683
 31
0.0
  0
LINE
  5
1803
330
18
100
AcDbEntity
  8
目盛
100
AcDbLine
 10
301.6693317522721
 20
271.3941402784989
 30
0.0
 11
302.9093929285133
 21
271.5514561365027
 31
0.0
  0
LINE
  5
1804
330
18
100
AcDbEntity
  8
目盛
100
AcDbLine
 10
301.5896686729296
 20
272.112271831103
 30
0.0
 11
302.8340593643525
 21
272.2305588003783
 31
0.0
  0
LINE
  5
1805
330
18
100
AcDbEntity
  8
目盛
100
AcDbLine
 10
301.7715125798789
 20
270.678865358258
 30
0.0
 11
303.9936267465863
 21
271.03200644921
 31
0.0
  0
LINE
  5
1806
330
18
100
AcDbEntity
  8
目盛
100
AcDbLine
 10
303.1060343908628
 20
265.8106914290713
 30
0.0
 11
304.2680139019632
 21
266.2714555941093
 31
0.0
  0
LINE
  5
1807
330
18
100
AcDbEntity
  8
目盛
100
AcDbLine
 10
302.8502820188616
 20
266.4864501561859
 30
0.0
 11
304.0261611153968
 21
266.9104883034458
 31
0.0
  0
LINE
  5
1808
330
18
100
AcDbEntity
  8
目盛
100
AcDbLine
 10
302.0430019965425
 20
269.2597054590473
 30
0.0
 11
303.2627550073344
 21
269.5330232094126
 31
0.0
  0
LINE
  5
1809
330
18
100
AcDbEntity
  8
目盛
100
AcDbLine
 10
302.4030654782252
 20
267.8603929092401
 30
0.0
 11
303.6032498215342
 21
268.2097602547037
 31
0.0
  0
LINE
  5
180A
330
18
100
AcDbEntity
  8
目盛
100
AcDbLine
 10
302.2120426583227
 20
268.5572210195603
 30
0.0
 11
303.4226086766263
 21
268.8687172720717
 31
0.0
  0
LINE
  5
180B
330
18
100
AcDbEntity
  8
目盛
100
AcDbLine
 10
302.6158819397894
 20
267.1699088133021
 30
0.0
 11
304.7553947560708
 21
267.8663173923477
 31
0.0
  0
LINE
  5
180C
330
18
100
AcDbEntity
  8
目盛
100
AcDbLine
 10
301.4981879305191
 20
273.554267877095
 30
0.0
 11
302.7475504014208
 21
273.5941854960447
 31
0.0
  0
LINE
  5
180D
330
18
100
AcDbEntity
  8
目盛
100
AcDbLine
 10
301.5874020231424
 20
276.4412536503473
 30
0.0
 11
302.8319159020538
 21
276.3242698685768
 31
0.0
  0
LINE
  5
180E
330
18
100
AcDbEntity
  8
目盛
100
AcDbLine
 10
301.6663130333388
 20
277.159468232158
 30
0.0
 11
302.9065382703917
 21
277.0034510492021
 31
0.0
  0
LINE
  5
180F
330
18
100
AcDbEntity
  8
目盛
100
AcDbLine
 10
301.4974313853441
 20
274.999162596626
 30
0.0
 11
302.7468349728314
 21
274.9605533286447
 31
0.0
  0
LINE
  5
1810
330
18
100
AcDbEntity
  8
目盛
100
AcDbLine
 10
301.5310896159618
 20
275.7209148093469
 30
0.0
 11
302.7786639517851
 21
275.6430798776307
 31
0.0
  0
LINE
  5
1811
330
18
100
AcDbEntity
  8
目盛
100
AcDbLine
 10
301.4864605478991
 20
274.2767092944798
 30
0.0
 11
303.7364602394741
 21
274.2778873916711
 31
0.0
  0
LINE
  5
1812
330
18
100
AcDbEntity
  8
針
100
AcDbLine
 10
302.4864573951088
 20
274.2887520657681
 30
0.0
 11
302.4864573951088
 21
274.3787520657681
 31
0.0
  0
LINE
  5
1813
330
18
100
AcDbEntity
  8
目盛
100
AcDbLine
 10
306.7723315918544
 20
259.6187231964551
 30
0.0
 11
307.7350558202922
 21
260.4160073741353
 31
0.0
  0
LINE
  5
1814
330
18
100
AcDbEntity
  8
目盛
100
AcDbLine
 10
306.3202757011292
 20
260.1823761080207
 30
0.0
 11
307.3075681844977
 21
260.9490269752896
 31
0.0
  0
LINE
  5
1815
330
18
100
AcDbEntity
  8
目盛
100
AcDbLine
 10
305.886147638506
 20
260.7599503095732
 30
0.0
 11
307.7057431581737
 21
262.0834200465923
 31
0.0
  0
LINE
  5
1816
330
18
100
AcDbEntity
  8
目盛
100
AcDbLine
 10
304.6955237571033
 20
262.570435389041
 30
0.0
 11
305.7711179765602
 21
263.2073004258198
 31
0.0
  0
LINE
  5
1817
330
18
100
AcDbEntity
  8
目盛
100
AcDbLine
 10
304.3372081662257
 20
263.1978659193707
 30
0.0
 11
305.4322760590999
 21
263.8006314708055
 31
0.0
  0
LINE
  5
1818
330
18
100
AcDbEntity
  8
目盛
100
AcDbLine
 10
305.4703758359699
 20
261.3508758051072
 30
0.0
 11
306.5038585294014
 21
262.0540212540563
 31
0.0
  0
LINE
  5
1819
330
18
100
AcDbEntity
  8
目盛
100
AcDbLine
 10
305.0733706100934
 20
261.9545694225016
 30
0.0
 11
306.1284296744966
 21
262.6249054357225
 31
0.0
  0
LINE
  5
181A
330
18
100
AcDbEntity
  8
目盛
100
AcDbLine
 10
303.6805656037478
 20
264.4849330769159
 30
0.0
 11
304.8113205924088
 21
265.0177493263102
 31
0.0
  0
LINE
  5
181B
330
18
100
AcDbEntity
  8
目盛
100
AcDbLine
 10
303.3828866590797
 20
265.1432995242362
 30
0.0
 11
304.5298198512552
 21
265.6403349884499
 31
0.0
  0
LINE
  5
181C
330
18
100
AcDbEntity
  8
目盛
100
AcDbLine
 10
303.9987774516884
 20
263.8362418153081
 30
0.0
 11
306.0030070113711
 21
264.8587699919836
 31
0.0
  0
LINE
  5
181D
330
18
100
AcDbEntity
  8
目盛
100
AcDbLine
 10
307.7284251069343
 20
258.5353919851854
 30
0.0
 11
308.6391877312916
 21
259.3915528591302
 31
0.0
  0
LINE
  5
181E
330
18
100
AcDbEntity
  8
目盛
100
AcDbLine
 10
308.2315191824199
 20
258.0167828025946
 30
0.0
 11
309.8216761814873
 21
259.6086058826877
 31
0.0
  0
LINE
  5
181F
330
18
100
AcDbEntity
  8
目盛
100
AcDbLine
 10
311.5685018188338
 20
255.2591324235002
 30
0.0
 11
312.2705646218923
 21
256.2933508823193
 31
0.0
  0
LINE
  5
1820
330
18
100
AcDbEntity
  8
目盛
100
AcDbLine
 10
310.9771412521772
 20
255.6742851824452
 30
0.0
 11
312.2987047878988
 21
257.4952656384224
 31
0.0
  0
LINE
  5
1821
330
18
100
AcDbEntity
  8
目盛
100
AcDbLine
 10
309.2853199936947
 20
257.028235801666
 30
0.0
 11
310.1114687655107
 21
257.9663073377588
 31
0.0
  0
LINE
  5
1822
330
18
100
AcDbEntity
  8
目盛
100
AcDbLine
 10
308.7506549194388
 20
257.514232089128
 30
0.0
 11
309.6058615757253
 21
258.4258907835107
 31
0.0
  0
LINE
  5
1823
330
18
100
AcDbEntity
  8
目盛
100
AcDbLine
 10
310.399112749554
 20
256.1078081728521
 30
0.0
 11
311.1647293063777
 21
257.0959029496411
 31
0.0
  0
LINE
  5
1824
330
18
100
AcDbEntity
  8
目盛
100
AcDbLine
 10
309.8349867553105
 20
256.5592735598693
 30
0.0
 11
310.6312623335603
 21
257.5228321743204
 31
0.0
  0
TEXT
  5
1825
330
18
100
AcDbEntity
  8
文字
100
AcDbText
 10
307.5341738914145
 20
261.9498645563976
 30
0.0
 40
2.5
  1
70
 50
0.030000000000189
  7
STYLE3
100
AcDbText
  0
LINE
  5
1826
330
18
100
AcDbEntity
  8
目盛
100
AcDbLine
 10
307.2418691860955
 20
259.0695478322493
 30
0.0
 11
308.1790750670202
 21
259.8966784971145
 31
0.0
  0
LINE
  5
1827
330
18
100
AcDbEntity
  8
目盛
100
AcDbLine
 10
336.2047740718361
 20
254.4978184277623
 30
0.0
 11
335.5679090350573
 21
255.5734126472192
 31
0.0
  0
LINE
  5
1828
330
18
100
AcDbEntity
  8
目盛
100
AcDbLine
 10
325.9426581539477
 20
251.3348966303524
 30
0.0
 11
325.8635168083586
 21
252.5823887735817
 31
0.0
  0
LINE
  5
1829
330
18
100
AcDbEntity
  8
目盛
100
AcDbLine
 10
325.220941583782
 20
251.3004826011784
 30
0.0
 11
325.1810239648324
 21
252.5498450720801
 31
0.0
  0
LINE
  5
182A
330
18
100
AcDbEntity
  8
目盛
100
AcDbLine
 10
326.662937629774
 20
251.3919633435889
 30
0.0
 11
326.5446506604988
 21
252.6363540350117
 31
0.0
  0
LINE
  5
182B
330
18
100
AcDbEntity
  8
目盛
100
AcDbLine
 10
322.3339558105298
 20
251.3896966938016
 30
0.0
 11
322.4509395923004
 21
252.634210572713
 31
0.0
  0
LINE
  5
182C
330
18
100
AcDbEntity
  8
目盛
100
AcDbLine
 10
323.7760468642512
 20
251.2997260560032
 30
0.0
 11
323.8146561322325
 21
252.5491296434905
 31
0.0
  0
LINE
  5
182D
330
18
100
AcDbEntity
  8
目盛
100
AcDbLine
 10
323.0542946515302
 20
251.3333842866209
 30
0.0
 11
323.1321295832464
 21
252.5809586224442
 31
0.0
  0
LINE
  5
182E
330
18
100
AcDbEntity
  8
目盛
100
AcDbLine
 10
324.4985001663973
 20
251.2887552185583
 30
0.0
 11
324.497322069206
 21
253.5387549101333
 31
0.0
  0
LINE
  5
182F
330
18
100
AcDbEntity
  8
目盛
100
AcDbLine
 10
316.0307909295496
 20
252.8994625819349
 30
0.0
 11
316.4903380200691
 21
254.0619239669259
 31
0.0
  0
TEXT
  5
1830
330
18
100
AcDbEntity
  8
文字
100
AcDbText
 10
315.4232045510604
 20
255.9073908627652
 30
0.0
 40
2.5
  1
90
 50
0.030000000000189
  7
STYLE3
100
AcDbText
  0
LINE
  5
1831
330
18
100
AcDbEntity
  8
目盛
100
AcDbLine
 10
315.3631094716887
 20
253.1756158073098
 30
0.0
 11
315.8589435979615
 21
254.3230688648348
 31
0.0
  0
LINE
  5
1832
330
18
100
AcDbEntity
  8
目盛
100
AcDbLine
 10
314.7044316567534
 20
253.4726051491518
 30
0.0
 11
315.2360634903597
 21
254.6039174815767
 31
0.0
  0
LINE
  5
1833
330
18
100
AcDbEntity
  8
目盛
100
AcDbLine
 10
312.1726108480404
 20
254.8627596016685
 30
0.0
 11
312.841841638642
 21
255.918520061674
 31
0.0
  0
LINE
  5
1834
330
18
100
AcDbEntity
  8
目盛
100
AcDbLine
 10
313.4166775705638
 20
254.1278995382558
 30
0.0
 11
314.0182960392891
 21
255.223598045186
 31
0.0
  0
LINE
  5
1835
330
18
100
AcDbEntity
  8
目盛
100
AcDbLine
 10
312.7888721571206
 20
254.4855578890703
 30
0.0
 11
313.4246104852722
 21
255.5618184421517
 31
0.0
  0
LINE
  5
1836
330
18
100
AcDbEntity
  8
目盛
100
AcDbLine
 10
314.0554075202233
 20
253.7901375148368
 30
0.0
 11
315.0758363123317
 21
255.7954367643845
 31
0.0
  0
TEXT
  5
1837
330
18
100
AcDbEntity
  8
文字
100
AcDbText
 10
320.81137336843
 20
254.1823746120559
 30
0.0
 40
2.5
  1
100
 50
0.030000000000189
  7
STYLE3
100
AcDbText
  0
LINE
  5
1838
330
18
100
AcDbEntity
  8
目盛
100
AcDbLine
 10
320.9003596971786
 20
251.5700394415699
 30
0.0
 11
321.2511736024109
 21
253.7925221982851
 31
0.0
  0
LINE
  5
1839
330
18
100
AcDbEntity
  8
目盛
100
AcDbLine
 10
318.7782551998673
 20
252.0083474981162
 30
0.0
 11
319.0884835800434
 21
253.2192390507062
 31
0.0
  0
LINE
  5
183A
330
18
100
AcDbEntity
  8
目盛
100
AcDbLine
 10
318.0812274330333
 20
252.1986404967214
 30
0.0
 11
318.4293377570591
 21
253.3991900385175
 31
0.0
  0
LINE
  5
183B
330
18
100
AcDbEntity
  8
目盛
100
AcDbLine
 10
320.1885172111111
 20
251.6938918056386
 30
0.0
 11
320.4221009167631
 21
252.9218733415153
 31
0.0
  0
LINE
  5
183C
330
18
100
AcDbEntity
  8
目盛
100
AcDbLine
 10
319.4809162731087
 20
251.8400425688735
 30
0.0
 11
319.7529565514783
 21
253.0600811284874
 31
0.0
  0
LINE
  5
183D
330
18
100
AcDbEntity
  8
目盛
100
AcDbLine
 10
316.7068171093469
 20
252.6444180029204
 30
0.0
 11
317.1296236466164
 21
253.8207405063361
 31
0.0
  0
LINE
  5
183E
330
18
100
AcDbEntity
  8
目盛
100
AcDbLine
 10
317.3905208548589
 20
252.4107337684737
 30
0.0
 11
318.0846885598834
 21
254.5509746888613
 31
0.0
  0
LINE
  5
183F
330
18
100
AcDbEntity
  8
目盛
100
AcDbLine
 10
321.6157412287191
 20
251.468607703998
 30
0.0
 11
321.771758411675
 21
252.7088329410508
 31
0.0
  0
LINE
  5
1840
330
18
100
AcDbEntity
  8
目盛
100
AcDbLine
 10
330.914816551637
 20
252.2053601488845
 30
0.0
 11
330.5654492061734
 21
253.4055444921934
 31
0.0
  0
TEXT
  5
1841
330
18
100
AcDbEntity
  8
文字
100
AcDbText
 10
328.578429349087
 20
255.6830014504874
 30
0.0
 40
2.5
  1
90
 50
0.030000000000189
  7
STYLE3
100
AcDbText
  0
LINE
  5
1842
330
18
100
AcDbEntity
  8
目盛
100
AcDbLine
 10
329.5155040018299
 20
251.8452966672018
 30
0.0
 11
329.2421862514645
 21
253.0650496779936
 31
0.0
  0
LINE
  5
1843
330
18
100
AcDbEntity
  8
目盛
100
AcDbLine
 10
328.8080565005067
 20
251.6984049862691
 30
0.0
 11
328.5731869839089
 21
252.9261412405898
 31
0.0
  0
LINE
  5
1844
330
18
100
AcDbEntity
  8
目盛
100
AcDbLine
 10
330.2179884413168
 20
252.0143373289819
 30
0.0
 11
329.9064921888055
 21
253.2249033472855
 31
0.0
  0
LINE
  5
1845
330
18
100
AcDbEntity
  8
目盛
100
AcDbLine
 10
327.3810691823782
 20
251.4716264229313
 30
0.0
 11
327.2237533243743
 21
252.7116875991725
 31
0.0
  0
LINE
  5
1846
330
18
100
AcDbEntity
  8
目盛
100
AcDbLine
 10
328.0963441026191
 20
251.5738072505381
 30
0.0
 11
327.7432030116671
 21
253.7959214172456
 31
0.0
  0
LINE
  5
1847
330
18
100
AcDbEntity
  8
目盛
100
AcDbLine
 10
335.5773435415064
 20
254.1395028368847
 30
0.0
 11
334.9745779900717
 21
255.2345707297588
 31
0.0
  0
LINE
  5
1848
330
18
100
AcDbEntity
  8
目盛
100
AcDbLine
 10
332.9645180318057
 20
252.9083290615218
 30
0.0
 11
332.5037538667678
 21
254.0703085726223
 31
0.0
  0
LINE
  5
1849
330
18
100
AcDbEntity
  8
目盛
100
AcDbLine
 10
332.2887593046912
 20
252.6525766895207
 30
0.0
 11
331.8647211574312
 21
253.8284557860559
 31
0.0
  0
LINE
  5
184A
330
18
100
AcDbEntity
  8
目盛
100
AcDbLine
 10
334.2902763839612
 20
253.4828602744069
 30
0.0
 11
333.7574601345668
 21
254.6136152630679
 31
0.0
  0
LINE
  5
184B
330
18
100
AcDbEntity
  8
目盛
100
AcDbLine
 10
333.6319099366408
 20
253.1851813297387
 30
0.0
 11
333.1348744724271
 21
254.3321145219143
 31
0.0
  0
LINE
  5
184C
330
18
100
AcDbEntity
  8
目盛
100
AcDbLine
 10
334.938967645569
 20
253.8010721223475
 30
0.0
 11
333.9164394688935
 21
255.8053016820301
 31
0.0
  0
LINE
  5
184D
330
18
100
AcDbEntity
  8
目盛
100
AcDbLine
 10
331.6053006475751
 20
252.4181766104486
 30
0.0
 11
330.9088920685294
 21
254.55768942673
 31
0.0
  0
TEXT
  5
184E
330
18
100
AcDbEntity
  8
文字
100
AcDbText
 10
310.8674319162458
 20
258.7756828786606
 30
0.0
 40
2.5
  1
80
 50
0.030000000000189
  7
STYLE3
100
AcDbText
  0
LINE
  5
184F
330
18
100
AcDbEntity
  8
目盛
100
AcDbLine
 10
339.156486264422
 20
256.5746262625136
 30
0.0
 11
338.3592020867418
 21
257.5373504909513
 31
0.0
  0
LINE
  5
1850
330
18
100
AcDbEntity
  8
目盛
100
AcDbLine
 10
338.5928333528565
 20
256.1225703717883
 30
0.0
 11
337.8261824855874
 21
257.1098628551568
 31
0.0
  0
LINE
  5
1851
330
18
100
AcDbEntity
  8
目盛
100
AcDbLine
 10
340.2398174756918
 20
257.5307197775934
 30
0.0
 11
339.3836566017469
 21
258.4414824019508
 31
0.0
  0
LINE
  5
1852
330
18
100
AcDbEntity
  8
目盛
100
AcDbLine
 10
339.7056616286278
 20
257.0441638567546
 30
0.0
 11
338.8785309637626
 21
257.9813697376793
 31
0.0
  0
LINE
  5
1853
330
18
100
AcDbEntity
  8
目盛
100
AcDbLine
 10
337.4243336557699
 20
255.272670506629
 30
0.0
 11
336.7211882068209
 21
256.3061532000605
 31
0.0
  0
LINE
  5
1854
330
18
100
AcDbEntity
  8
目盛
100
AcDbLine
 10
336.8206400383756
 20
254.8756652807525
 30
0.0
 11
336.1503040251545
 21
255.9307243451556
 31
0.0
  0
LINE
  5
1855
330
18
100
AcDbEntity
  8
目盛
100
AcDbLine
 10
338.0152591513039
 20
255.688442309165
 30
0.0
 11
336.6917894142848
 21
257.5080378288328
 31
0.0
  0
TEXT
  5
1856
330
18
100
AcDbEntity
  8
文字
100
AcDbText
 10
332.9060785136646
 20
258.2719959507496
 30
0.0
 40
2.5
  1
80
 50
0.030000000000189
  7
STYLE3
100
AcDbText
  0
LINE
  5
1857
330
18
100
AcDbEntity
  8
目盛
100
AcDbLine
 10
345.5995936535673
 20
265.1654041423478
 30
0.0
 11
344.4521405960422
 21
265.6612382686207
 31
0.0
  0
LINE
  5
1858
330
18
100
AcDbEntity
  8
目盛
100
AcDbLine
 10
345.3026043117252
 20
264.5067263274125
 30
0.0
 11
344.1712919793003
 21
265.0383581610189
 31
0.0
  0
LINE
  5
1859
330
18
100
AcDbEntity
  8
目盛
100
AcDbLine
 10
341.2609773717492
 20
258.552949590098
 30
0.0
 11
340.3493186773664
 21
259.4081562463845
 31
0.0
  0
LINE
  5
185A
330
18
100
AcDbEntity
  8
目盛
100
AcDbLine
 10
340.7584266582825
 20
258.033813853079
 30
0.0
 11
339.1666035781894
 21
259.6239708521465
 31
0.0
  0
TEXT
  5
185B
330
18
100
AcDbEntity
  8
文字
100
AcDbText
 10
336.7395735287611
 20
262.3630345023638
 30
0.0
 40
2.5
  1
70
 50
0.030000000000189
  7
STYLE3
100
AcDbText
  0
LINE
  5
185C
330
18
100
AcDbEntity
  8
目盛
100
AcDbLine
 10
343.9124498592085
 20
261.9749055186996
 30
0.0
 11
342.8566893992031
 21
262.6441363093012
 31
0.0
  0
LINE
  5
185D
330
18
100
AcDbEntity
  8
目盛
100
AcDbLine
 10
343.5160770373769
 20
261.370796489493
 30
0.0
 11
342.4818585785578
 21
262.0728592925515
 31
0.0
  0
LINE
  5
185E
330
18
100
AcDbEntity
  8
目盛
100
AcDbLine
 10
344.6473099226213
 20
263.218972241223
 30
0.0
 11
343.5516114156911
 21
263.8205907099483
 31
0.0
  0
LINE
  5
185F
330
18
100
AcDbEntity
  8
目盛
100
AcDbLine
 10
344.2896515718068
 20
262.5911668277798
 30
0.0
 11
343.2133910187254
 21
263.2269051559314
 31
0.0
  0
LINE
  5
1860
330
18
100
AcDbEntity
  8
目盛
100
AcDbLine
 10
344.9850719460403
 20
263.8577021908825
 30
0.0
 11
342.9797726964925
 21
264.8781309829909
 31
0.0
  0
LINE
  5
1861
330
18
100
AcDbEntity
  8
目盛
100
AcDbLine
 10
341.746973659211
 20
259.0876146643538
 30
0.0
 11
340.8089021231184
 21
259.9137634361698
 31
0.0
  0
LINE
  5
1862
330
18
100
AcDbEntity
  8
目盛
100
AcDbLine
 10
342.667401288025
 20
260.2014074202132
 30
0.0
 11
341.679306511236
 21
260.9670239770369
 31
0.0
  0
LINE
  5
1863
330
18
100
AcDbEntity
  8
目盛
100
AcDbLine
 10
342.2159359010078
 20
259.6372814259697
 30
0.0
 11
341.2523772865567
 21
260.4335570042195
 31
0.0
  0
LINE
  5
1864
330
18
100
AcDbEntity
  8
目盛
100
AcDbLine
 10
343.100924278432
 20
260.7794359228364
 30
0.0
 11
341.2799438224547
 21
262.100999458558
 31
0.0
  0
LINE
  5
1865
330
18
100
AcDbEntity
  8
目盛
100
AcDbLine
 10
347.2051700193071
 20
270.7026543678377
 30
0.0
 11
344.9826872625921
 21
271.0534682730701
 31
0.0
  0
LINE
  5
1866
330
18
100
AcDbEntity
  8
目盛
100
AcDbLine
 10
346.1307914579567
 20
266.509111780006
 30
0.0
 11
344.954468954541
 21
266.9319183172756
 31
0.0
  0
LINE
  5
1867
330
18
100
AcDbEntity
  8
目盛
100
AcDbLine
 10
345.8757468789422
 20
265.8330856002087
 30
0.0
 11
344.7132854939511
 21
266.2926326907283
 31
0.0
  0
LINE
  5
1868
330
18
100
AcDbEntity
  8
目盛
100
AcDbLine
 10
346.3644756924034
 20
267.1928155255181
 30
0.0
 11
344.2242347720157
 21
267.8869832305426
 31
0.0
  0
TEXT
  5
1869
330
18
100
AcDbEntity
  8
文字
100
AcDbText
 10
339.351465719885
 20
267.6054327684675
 30
0.0
 40
2.5
  1
60
 50
0.030000000000189
  7
STYLE3
100
AcDbText
  0
LINE
  5
186A
330
18
100
AcDbEntity
  8
目盛
100
AcDbLine
 10
347.3066017568791
 20
271.4180358993782
 30
0.0
 11
346.0663765198264
 21
271.5740530823341
 31
0.0
  0
LINE
  5
186B
330
18
100
AcDbEntity
  8
目盛
100
AcDbLine
 10
346.7668619627609
 20
268.5805498705264
 30
0.0
 11
345.555970410171
 21
268.8907782507026
 31
0.0
  0
LINE
  5
186C
330
18
100
AcDbEntity
  8
目盛
100
AcDbLine
 10
346.5765689641557
 20
267.8835221036925
 30
0.0
 11
345.3760194223596
 21
268.2316324277183
 31
0.0
  0
LINE
  5
186D
330
18
100
AcDbEntity
  8
目盛
100
AcDbLine
 10
347.0813176552385
 20
269.9908118817703
 30
0.0
 11
345.8533361193618
 21
270.2243955874223
 31
0.0
  0
LINE
  5
186E
330
18
100
AcDbEntity
  8
目盛
100
AcDbLine
 10
346.9351668920036
 20
269.2832109437679
 30
0.0
 11
345.7151283323898
 21
269.5552512221375
 31
0.0
  0
TEXT
  5
186F
330
18
100
AcDbEntity
  8
文字
100
AcDbText
 10
311.8939547184415
 20
288.2476251365821
 30
0.0
 40
2.5
  1
20
 50
0.030000000000189
  7
STYLE3
100
AcDbText
  0
TEXT
  5
19E5
330
18
100
AcDbEntity
  8
文字
100
AcDbText
 10
330.1910758607608
 20
242.0188370576058
 30
0.0
 40
1.0
  1
0
  7
STYLE3
100
AcDbText
  0
TEXT
  5
19E6
330
18
100
AcDbEntity
  8
文字
100
AcDbText
 10
329.0005336571434
 20
240.6070588557946
 30
0.0
 40
1.0
  1
-0.03
  7
STYLE3
100
AcDbText
  0
LINE
  5
19F7
330
18
100
AcDbEntity
  8
0
  6
ByBlock
 62
     2
100
AcDbLine
 10
387.7342955756383
 20
301.7887520657681
 30
0.0
 11
374.9313470477852
 21
301.7887520657681
 31
0.0
  0
LINE
  5
19F8
330
18
100
AcDbEntity
  8
0
  6
ByBlock
 62
     2
100
AcDbLine
 10
387.7342955756383
 20
246.7887520657681
 30
0.0
 11
374.9313470477852
 21
246.7887520657681
 31
0.0
  0
LINE
  5
19F9
330
18
100
AcDbEntity
  8
0
  6
ByBlock
 62
     2
100
AcDbLine
 10
376.1813470477852
 20
299.2887520657681
 30
0.0
 11
376.1813470477852
 21
249.2887520657681
 31
0.0
  0
INSERT
  5
19FA
330
18
100
AcDbEntity
  8
0
  6
ByBlock
 62
     2
100
AcDbBlockReference
  2
_OPEN
 10
376.1813470477852
 20
301.7887520657681
 30
0.0
 41
2.5
 42
2.5
 43
2.5
 50
90.0
  0
INSERT
  5
19FB
330
18
100
AcDbEntity
  8
0
  6
ByBlock
 62
     2
100
AcDbBlockReference
  2
_OPEN
 10
376.1813470477852
 20
246.7887520657681
 30
0.0
 41
2.5
 42
2.5
 43
2.5
 50
270.0
  0
MTEXT
  5
19FC
330
18
100
AcDbEntity
  8
0
  6
ByBlock
 62
     6
100
AcDbMText
 10
374.3063470477852
 20
274.2887520657681
 30
0.0
 40
2.5
 41
0.0
 71
     5
 72
     1
  1
\A1;φ55
  7
STYLE3
 11
0.0000000000000001
 21
1.0
 31
0.0
 73
     1
 44
1.0
  0
POINT
  5
19FD
330
18
100
AcDbEntity
  8
DEFPOINTS
  6
ByBlock
 62
     0
100
AcDbPoint
 10
387.7342955756383
 20
301.7887520657681
 30
0.0
  0
POINT
  5
19FE
330
18
100
AcDbEntity
  8
DEFPOINTS
  6
ByBlock
 62
     0
100
AcDbPoint
 10
387.7342955756383
 20
246.7887520657681
 30
0.0
  0
POINT
  5
19FF
330
18
100
AcDbEntity
  8
DEFPOINTS
  6
ByBlock
 62
     0
100
AcDbPoint
 10
376.1813470477852
 20
246.7887520657681
 30
0.0
  0
LINE
  5
1A00
330
18
100
AcDbEntity
  8
0
  6
ByBlock
 62
     2
100
AcDbLine
 10
324.4864573951089
 20
315.7887520657681
 30
0.0
 11
279.1754194167642
 21
315.7887520657681
 31
0.0
  0
LINE
  5
1A01
330
18
100
AcDbEntity
  8
0
  6
ByBlock
 62
     2
100
AcDbLine
 10
300.2181654312557
 20
211.2887520657681
 30
0.0
 11
279.1754194167642
 21
211.2887520657681
 31
0.0
  0
LINE
  5
1A02
330
18
100
AcDbEntity
  8
0
  6
ByBlock
 62
     2
100
AcDbLine
 10
280.4254194167642
 20
313.2887520657681
 30
0.0
 11
280.4254194167642
 21
213.7887520657681
 31
0.0
  0
INSERT
  5
1A03
330
18
100
AcDbEntity
  8
0
  6
ByBlock
 62
     2
100
AcDbBlockReference
  2
_OPEN
 10
280.4254194167642
 20
315.7887520657681
 30
0.0
 41
2.5
 42
2.5
 43
2.5
 50
90.0
  0
INSERT
  5
1A04
330
18
100
AcDbEntity
  8
0
  6
ByBlock
 62
     2
100
AcDbBlockReference
  2
_OPEN
 10
280.4254194167642
 20
211.2887520657681
 30
0.0
 41
2.5
 42
2.5
 43
2.5
 50
270.0
  0
MTEXT
  5
1A05
330
18
100
AcDbEntity
  8
0
  6
ByBlock
 62
     6
100
AcDbMText
 10
278.5504194167641
 20
263.5387520657681
 30
0.0
 40
2.5
 41
0.0
 71
     5
 72
     1
  1
\A1;104.5
  7
STYLE3
 11
0.0000000000000001
 21
1.0
 31
0.0
 73
     1
 44
1.0
  0
POINT
  5
1A06
330
18
100
AcDbEntity
  8
DEFPOINTS
  6
ByBlock
 62
     0
100
AcDbPoint
 10
324.4864573951089
 20
315.7887520657681
 30
0.0
  0
POINT
  5
1A07
330
18
100
AcDbEntity
  8
DEFPOINTS
  6
ByBlock
 62
     0
100
AcDbPoint
 10
300.2181654312557
 20
211.2887520657681
 30
0.0
  0
POINT
  5
1A08
330
18
100
AcDbEntity
  8
DEFPOINTS
  6
ByBlock
 62
     0
100
AcDbPoint
 10
280.4254194167642
 20
211.2887520657681
 30
0.0
  0
LINE
  5
1A09
330
18
100
AcDbEntity
  8
0
  6
ByBlock
 62
     2
100
AcDbLine
 10
301.486457395109
 20
274.2887520657681
 30
0.0
 11
301.486457395109
 21
327.1391467266382
 31
0.0
  0
LINE
  5
1A0A
330
18
100
AcDbEntity
  8
0
  6
ByBlock
 62
     2
100
AcDbLine
 10
347.486457395109
 20
274.2887520657681
 30
0.0
 11
347.486457395109
 21
327.1391467266382
 31
0.0
  0
LINE
  5
1A0B
330
18
100
AcDbEntity
  8
0
  6
ByBlock
 62
     2
100
AcDbLine
 10
303.986457395109
 20
325.8891467266382
 30
0.0
 11
344.986457395109
 21
325.8891467266382
 31
0.0
  0
INSERT
  5
1A0C
330
18
100
AcDbEntity
  8
0
  6
ByBlock
 62
     2
100
AcDbBlockReference
  2
_OPEN
 10
301.486457395109
 20
325.8891467266382
 30
0.0
 41
2.5
 42
2.5
 43
2.5
 50
180.0
  0
INSERT
  5
1A0D
330
18
100
AcDbEntity
  8
0
  6
ByBlock
 62
     2
100
AcDbBlockReference
  2
_OPEN
 10
347.486457395109
 20
325.8891467266382
 30
0.0
 41
2.5
 42
2.5
 43
2.5
  0
MTEXT
  5
1A0E
330
18
100
AcDbEntity
  8
0
  6
ByBlock
 62
     6
100
AcDbMText
 10
324.486457395109
 20
327.7641467266382
 30
0.0
 40
2.5
 41
0.0
 71
     5
 72
     1
  1
\A1;46
  7
STYLE3
 73
     1
 44
1.0
  0
POINT
  5
1A0F
330
18
100
AcDbEntity
  8
DEFPOINTS
  6
ByBlock
 62
     0
100
AcDbPoint
 10
301.486457395109
 20
274.2887520657681
 30
0.0
  0
POINT
  5
1A10
330
18
100
AcDbEntity
  8
DEFPOINTS
  6
ByBlock
 62
     0
100
AcDbPoint
 10
347.486457395109
 20
274.2887520657681
 30
0.0
  0
POINT
  5
1A11
330
18
100
AcDbEntity
  8
DEFPOINTS
  6
ByBlock
 62
     0
100
AcDbPoint
 10
347.486457395109
 20
325.8891467266382
 30
0.0
  0
LINE
  5
1A12
330
18
100
AcDbEntity
  8
0
  6
ByBlock
 62
     2
100
AcDbLine
 10
293.5814812050308
 20
274.2887520657681
 30
0.0
 11
286.4435300997347
 21
274.2887520657681
 31
0.0
  0
LINE
  5
1A13
330
18
100
AcDbEntity
  8
0
  6
ByBlock
 62
     2
100
AcDbLine
 10
324.486457395109
 20
211.2887520657681
 30
0.0
 11
286.4435300997347
 21
211.2887520657681
 31
0.0
  0
LINE
  5
1A14
330
18
100
AcDbEntity
  8
0
  6
ByBlock
 62
     2
100
AcDbLine
 10
287.6935300997347
 20
271.7887520657681
 30
0.0
 11
287.6935300997347
 21
213.7887520657681
 31
0.0
  0
INSERT
  5
1A15
330
18
100
AcDbEntity
  8
0
  6
ByBlock
 62
     2
100
AcDbBlockReference
  2
_OPEN
 10
287.6935300997347
 20
274.2887520657681
 30
0.0
 41
2.5
 42
2.5
 43
2.5
 50
90.0
  0
INSERT
  5
1A16
330
18
100
AcDbEntity
  8
0
  6
ByBlock
 62
     2
100
AcDbBlockReference
  2
_OPEN
 10
287.6935300997347
 20
211.2887520657681
 30
0.0
 41
2.5
 42
2.5
 43
2.5
 50
270.0
  0
MTEXT
  5
1A17
330
18
100
AcDbEntity
  8
0
  6
ByBlock
 62
     6
100
AcDbMText
 10
285.8185300997348
 20
242.7887520657681
 30
0.0
 40
2.5
 41
0.0
 71
     5
 72
     1
  1
\A1;63
  7
STYLE3
 11
0.0000000000000001
 21
1.0
 31
0.0
 73
     1
 44
1.0
  0
POINT
  5
1A18
330
18
100
AcDbEntity
  8
DEFPOINTS
  6
ByBlock
 62
     0
100
AcDbPoint
 10
293.5814812050308
 20
274.2887520657681
 30
0.0
  0
POINT
  5
1A19
330
18
100
AcDbEntity
  8
DEFPOINTS
  6
ByBlock
 62
     0
100
AcDbPoint
 10
324.486457395109
 20
211.2887520657681
 30
0.0
  0
POINT
  5
1A1A
330
18
100
AcDbEntity
  8
DEFPOINTS
  6
ByBlock
 62
     0
100
AcDbPoint
 10
287.6935300997347
 20
211.2887520657681
 30
0.0
  0
HATCH
  5
1A1B
330
18
100
AcDbEntity
  8
針
100
AcDbHatch
 10
0.0
 20
0.0
 30
0.0
210
0.0
220
0.0
230
1.0
  2
SOLID
 70
     1
 71
     0
 91
        2
 92
        7
 72
     1
 73
     1
 93
        5
 10
320.2373687492859
 20
263.8840042747996
 42
0.31735696877887
 10
321.2467017446179
 20
263.1154993034373
 42
0.0
 10
321.5209184399877
 20
263.4711652229601
 42
0.0
 10
321.5119867447371
 20
263.4994929411931
 42
-0.4142135623731173
 10
320.5711696820478
 20
263.9892513046261
 42
0.0
 97
        0
 92
        7
 72
     1
 73
     1
 93
        4
 10
320.2373687492859
 20
263.8840042747996
 42
0.0
 10
320.5711696820478
 20
263.9892513046261
 42
-0.4142135623730728
 10
321.0609280454807
 20
264.9300683673155
 42
0.0
 10
320.9556810156542
 20
265.2638693000773
 42
0.4142135623730844
 97
        0
 75
     0
 76
     1
 47
0.0161501285364394
 98
        2
 10
320.5764259140437
 20
263.5679615617193
 10
320.3779786342006
 20
264.251062414201
450
        0
451
        0
460
0.0
461
0.0
452
        0
462
0.0
453
        0
470

  0
HATCH
  5
1A1C
330
18
100
AcDbEntity
  8
針
100
AcDbHatch
 10
0.0
 20
0.0
 30
0.0
210
0.0
220
0.0
230
1.0
  2
SOLID
 70
     1
 71
     0
 91
        4
 92
        7
 72
     1
 73
     1
 93
        4
 10
321.4717957126305
 20
265.2990544702521
 42
0.0
 10
321.4128244297827
 20
264.954058256071
 42
-0.4142135623730951
 10
322.0257349969255
 20
264.0884136195806
 42
0.0
 10
322.3707312111067
 20
264.0294423367329
 42
0.4142135623730996
 97
        0
 92
        7
 72
     1
 73
     1
 93
        5
 10
321.4128244297827
 20
264.954058256071
 42
0.0
 10
321.4717957126305
 20
265.2990544702521
 42
0.3173569687788799
 10
320.3269107882668
 20
264.7526192074447
 42
0.0
 10
320.5179019974937
 20
264.3461522342136
 42
0.0
 10
320.5471797932923
 20
264.3411476889282
 42
-0.4142135623730839
 97
        0
 92
        7
 72
     1
 73
     1
 93
        4
 10
322.3707312111067
 20
264.0294423367329
 42
0.0
 10
322.0257349969255
 20
264.0884136195806
 42
-0.4142135623730951
 10
321.1600903604352
 20
263.4755030524376
 42
0.0
 10
321.1011190775874
 20
263.1305068382566
 42
0.4142135623730996
 97
        0
 92
        7
 72
     1
 73
     1
 93
        4
 10
321.1600903604352
 20
263.4755030524376
 42
-0.1036385141593389
 10
320.8739498692395
 20
263.588412119683
 42
0.0
 10
321.0880205838316
 20
263.1328274057588
 42
0.003023315109616
 10
321.1011190775874
 20
263.1305068382566
 42
0.0
 97
        0
 75
     0
 76
     1
 47
0.0223982890607777
 98
        4
 10
322.1485819211359
 20
264.700887792766
 10
321.0260460741713
 20
265.0518283641365
 10
322.1485196163736
 20
263.7692494236976
 10
321.0857554477634
 20
263.4055550562393
450
        0
451
        0
460
0.0
461
0.0
452
        0
462
0.0
453
        0
470

  0
CIRCLE
  5
1A1D
330
18
100
AcDbEntity
  8
針
100
AcDbCircle
 10
321.2864573951089
 20
264.2147806542543
 30
0.0
 40
1.1
  0
CIRCLE
  5
1A1E
330
18
100
AcDbEntity
  8
針
100
AcDbCircle
 10
321.2864573951089
 20
264.2147806542543
 30
0.0
 40
0.75
  0
HATCH
  5
1A1F
330
18
100
AcDbEntity
  8
針
100
AcDbHatch
 10
0.0
 20
0.0
 30
0.0
210
0.0
220
0.0
230
1.0
  2
SOLID
 70
     1
 71
     0
 91
        1
 92
        7
 72
     1
 73
     1
 93
        7
 10
325.9833323654524
 20
264.0163732124549
 42
0.0
 10
325.9854266074407
 20
264.1163512808026
 42
0.0
 10
325.9875208494291
 20
264.2163293491501
 42
0.0
 10
322.7465418469281
 20
264.3291363903402
 42
-0.2935495917910092
 10
322.3022229390952
 20
264.6369421869047
 42
-0.2104432563350663
 10
322.2836539634383
 20
263.7504542560041
 42
-0.2935491884945053
 10
322.7404723835875
 20
264.0393832366584
 42
0.0
 97
        0
 75
     0
 76
     1
 47
0.0140573597042523
 98
        1
 10
324.179155353818
 20
264.0955726988353
450
        0
451
        0
460
0.0
461
0.0
452
        0
462
0.0
453
        0
470

  0
LINE
  5
1A20
330
18
100
AcDbEntity
  8
針
100
AcDbLine
 10
322.7404723835876
 20
264.0393832366584
 30
0.0
 11
325.9833323654523
 21
264.0163732124551
 31
0.0
  0
LINE
  5
1A21
330
18
100
AcDbEntity
  8
針
100
AcDbLine
 10
322.7465418469281
 20
264.3291363903402
 30
0.0
 11
325.987520849429
 21
264.2163293491501
 31
0.0
  0
CIRCLE
  5
1A22
330
18
100
AcDbEntity
  8
針
 62
     4
100
AcDbCircle
 10
321.2864573951089
 20
264.2147806542543
 30
0.0
 40
0.4
  0
ARC
  5
1A23
330
18
100
AcDbEntity
  8
針
100
AcDbCircle
 10
322.7369246749129
 20
263.5393958230537
 30
0.0
 40
0.5
100
AcDbArc
 50
89.59345912073466
 51
155.0317787024804
  0
ARC
  5
1A24
330
18
100
AcDbEntity
  8
針
100
AcDbCircle
 10
322.7639345499977
 20
264.8288337926548
 30
0.0
 40
0.5
100
AcDbArc
 50
202.5682212975195
 51
268.0065408792652
  0
LINE
  5
1A26
330
18
100
AcDbEntity
  8
0
  6
ByBlock
 62
     2
100
AcDbLine
 10
390.9559074522903
 20
211.2887520657681
 30
0.0
 11
381.9959435051582
 21
211.2887520657681
 31
0.0
  0
LINE
  5
1A27
330
18
100
AcDbEntity
  8
0
  6
ByBlock
 62
     2
100
AcDbLine
 10
383.2459435051582
 20
220.7887520657681
 30
0.0
 11
383.2459435051582
 21
213.7887520657681
 31
0.0
  0
INSERT
  5
1A28
330
18
100
AcDbEntity
  8
0
  6
ByBlock
 62
     2
100
AcDbBlockReference
  2
_OPEN
 10
383.2459435051582
 20
223.2887520657681
 30
0.0
 41
2.5
 42
2.5
 43
2.5
 50
90.0
  0
INSERT
  5
1A29
330
18
100
AcDbEntity
  8
0
  6
ByBlock
 62
     2
100
AcDbBlockReference
  2
_OPEN
 10
383.2459435051582
 20
211.2887520657681
 30
0.0
 41
2.5
 42
2.5
 43
2.5
 50
270.0
  0
MTEXT
  5
1A2A
330
18
100
AcDbEntity
  8
0
  6
ByBlock
 62
     6
100
AcDbMText
 10
381.3709435051582
 20
217.2887520657681
 30
0.0
 40
2.5
 41
0.0
 71
     5
 72
     1
  1
\A1;12
  7
STYLE3
 11
0.0000000000000001
 21
1.0
 31
0.0
 73
     1
 44
1.0
  0
POINT
  5
1A2B
330
18
100
AcDbEntity
  8
DEFPOINTS
  6
ByBlock
 62
     0
100
AcDbPoint
 10
399.7342955756385
 20
223.2887520657681
 30
0.0
  0
POINT
  5
1A2C
330
18
100
AcDbEntity
  8
DEFPOINTS
  6
ByBlock
 62
     0
100
AcDbPoint
 10
390.9559074522903
 20
211.2887520657681
 30
0.0
  0
POINT
  5
1A2D
330
18
100
AcDbEntity
  8
DEFPOINTS
  6
ByBlock
 62
     0
100
AcDbPoint
 10
383.2459435051582
 20
211.2887520657681
 30
0.0
  0
LINE
  5
1A2E
330
18
100
AcDbEntity
  8
0
  6
ByBlock
 62
     2
100
AcDbLine
 10
401.7342955756384
 20
211.2887520657681
 30
0.0
 11
374.9313470477852
 21
211.2887520657681
 31
0.0
  0
LINE
  5
1A2F
330
18
100
AcDbEntity
  8
0
  6
ByBlock
 62
     2
100
AcDbLine
 10
376.1813470477852
 20
244.2887520657681
 30
0.0
 11
376.1813470477852
 21
213.7887520657681
 31
0.0
  0
INSERT
  5
1A30
330
18
100
AcDbEntity
  8
0
  6
ByBlock
 62
     2
100
AcDbBlockReference
  2
_OPEN
 10
376.1813470477852
 20
246.7887520657681
 30
0.0
 41
2.5
 42
2.5
 43
2.5
 50
90.0
  0
INSERT
  5
1A31
330
18
100
AcDbEntity
  8
0
  6
ByBlock
 62
     2
100
AcDbBlockReference
  2
_OPEN
 10
376.1813470477852
 20
211.2887520657681
 30
0.0
 41
2.5
 42
2.5
 43
2.5
 50
270.0
  0
MTEXT
  5
1A32
330
18
100
AcDbEntity
  8
0
  6
ByBlock
 62
     6
100
AcDbMText
 10
374.3063470477852
 20
229.0387520657681
 30
0.0
 40
2.5
 41
0.0
 71
     5
 72
     1
  1
\A1;35.5
  7
STYLE3
 11
0.0000000000000001
 21
1.0
 31
0.0
 73
     1
 44
1.0
  0
POINT
  5
1A33
330
18
100
AcDbEntity
  8
DEFPOINTS
  6
ByBlock
 62
     0
100
AcDbPoint
 10
387.7342955756383
 20
246.7887520657681
 30
0.0
  0
POINT
  5
1A34
330
18
100
AcDbEntity
  8
DEFPOINTS
  6
ByBlock
 62
     0
100
AcDbPoint
 10
401.7342955756384
 20
211.2887520657681
 30
0.0
  0
POINT
  5
1A35
330
18
100
AcDbEntity
  8
DEFPOINTS
  6
ByBlock
 62
     0
100
AcDbPoint
 10
376.1813470477852
 20
211.2887520657681
 30
0.0
  0
LINE
  5
1A36
330
18
100
AcDbEntity
  8
0
  6
ByBlock
 62
     2
100
AcDbLine
 10
383.2459435051582
 20
246.7887520657681
 30
0.0
 11
384.4959435051582
 21
246.7887520657681
 31
0.0
  0
LINE
  5
1A37
330
18
100
AcDbEntity
  8
0
  6
ByBlock
 62
     2
100
AcDbLine
 10
397.7342955756384
 20
233.7887520657681
 30
0.0
 11
381.9959435051582
 21
233.7887520657681
 31
0.0
  0
LINE
  5
1A38
330
18
100
AcDbEntity
  8
0
  6
ByBlock
 62
     2
100
AcDbLine
 10
383.2459435051582
 20
244.2887520657681
 30
0.0
 11
383.2459435051582
 21
236.2887520657681
 31
0.0
  0
INSERT
  5
1A39
330
18
100
AcDbEntity
  8
0
  6
ByBlock
 62
     2
100
AcDbBlockReference
  2
_OPEN
 10
383.2459435051582
 20
246.7887520657681
 30
0.0
 41
2.5
 42
2.5
 43
2.5
 50
90.0
  0
INSERT
  5
1A3A
330
18
100
AcDbEntity
  8
0
  6
ByBlock
 62
     2
100
AcDbBlockReference
  2
_OPEN
 10
383.2459435051582
 20
233.7887520657681
 30
0.0
 41
2.5
 42
2.5
 43
2.5
 50
270.0
  0
MTEXT
  5
1A3B
330
18
100
AcDbEntity
  8
0
  6
ByBlock
 62
     6
100
AcDbMText
 10
381.3709435051582
 20
240.2887520657681
 30
0.0
 40
2.5
 41
0.0
 71
     5
 72
     1
  1
\A1;13
  7
STYLE3
 11
0.0000000000000001
 21
1.0
 31
0.0
 73
     1
 44
1.0
  0
POINT
  5
1A3C
330
18
100
AcDbEntity
  8
DEFPOINTS
  6
ByBlock
 62
     0
100
AcDbPoint
 10
383.2459435051582
 20
246.7887520657681
 30
0.0
  0
POINT
  5
1A3D
330
18
100
AcDbEntity
  8
DEFPOINTS
  6
ByBlock
 62
     0
100
AcDbPoint
 10
397.7342955756384
 20
233.7887520657681
 30
0.0
  0
POINT
  5
1A3E
330
18
100
AcDbEntity
  8
DEFPOINTS
  6
ByBlock
 62
     0
100
AcDbPoint
 10
383.2459435051582
 20
233.7887520657681
 30
0.0
  0
LINE
  5
1A3F
330
18
100
AcDbEntity
  8
ﾊｯﾁﾝｸ
  6
Continuous
100
AcDbLine
 10
320.486457395109
 20
308.0552458620658
 30
0.0
 11
320.7199635988112
 21
308.288752065768
 31
0.0
  0
LINE
  5
1A40
330
18
100
AcDbEntity
  8
ﾊｯﾁﾝｸ
  6
Continuous
100
AcDbLine
 10
320.486457395109
 20
306.2874789090994
 30
0.0
 11
322.4877305517775
 21
308.288752065768
 31
0.0
  0
LINE
  5
1A41
330
18
100
AcDbEntity
  8
ﾊｯﾁﾝｸ
  6
Continuous
100
AcDbLine
 10
320.486457395109
 20
304.5197119561331
 30
0.0
 11
324.2554975047439
 21
308.288752065768
 31
0.0
  0
LINE
  5
1A42
330
18
100
AcDbEntity
  8
ﾊｯﾁﾝｸ
  6
Continuous
100
AcDbLine
 10
320.486457395109
 20
302.7519450031667
 30
0.0
 11
324.486457395109
 21
306.7519450031667
 31
0.0
  0
LINE
  5
1A43
330
18
100
AcDbEntity
  8
ﾊｯﾁﾝｸ
  6
Continuous
100
AcDbLine
 10
321.7910314106766
 20
302.288752065768
 30
0.0
 11
324.486457395109
 21
304.9841780502004
 31
0.0
  0
LINE
  5
1A44
330
18
100
AcDbEntity
  8
ﾊｯﾁﾝｸ
  6
Continuous
100
AcDbLine
 10
323.5587983636431
 20
302.288752065768
 30
0.0
 11
324.486457395109
 21
303.216411097234
 31
0.0
  0
LINE
  5
1A45
330
18
100
AcDbEntity
  8
ﾊｯﾁﾝｸ
  6
Continuous
100
AcDbLine
 10
320.538003041428
 20
302.2887520657679
 30
0.0
 11
320.486457395109
 21
302.3402977120869
 31
0.0
  0
LINE
  5
1A46
330
18
100
AcDbEntity
  8
ﾊｯﾁﾝｸ
  6
Continuous
100
AcDbLine
 10
322.3057699943943
 20
302.288752065768
 30
0.0
 11
320.486457395109
 21
304.1080646650534
 31
0.0
  0
LINE
  5
1A47
330
18
100
AcDbEntity
  8
ﾊｯﾁﾝｸ
  6
Continuous
100
AcDbLine
 10
324.0735369473607
 20
302.288752065768
 30
0.0
 11
320.486457395109
 21
305.8758316180197
 31
0.0
  0
LINE
  5
1A48
330
18
100
AcDbEntity
  8
ﾊｯﾁﾝｸ
  6
Continuous
100
AcDbLine
 10
324.486457395109
 20
303.643598570986
 30
0.0
 11
320.486457395109
 21
307.643598570986
 31
0.0
  0
LINE
  5
1A49
330
18
100
AcDbEntity
  8
ﾊｯﾁﾝｸ
  6
Continuous
100
AcDbLine
 10
324.486457395109
 20
305.4113655239524
 30
0.0
 11
321.6090708532934
 21
308.288752065768
 31
0.0
  0
LINE
  5
1A4A
330
18
100
AcDbEntity
  8
ﾊｯﾁﾝｸ
  6
Continuous
100
AcDbLine
 10
324.486457395109
 20
307.1791324769188
 30
0.0
 11
323.3768378062598
 21
308.288752065768
 31
0.0
  0
LINE
  5
1A4B
330
18
100
AcDbEntity
  8
0
  6
ByBlock
 62
     2
100
AcDbLine
 10
386.7342955756383
 20
300.7887520657681
 30
0.0
 11
386.7342955756383
 21
327.3075575945213
 31
0.0
  0
LINE
  5
1A4C
330
18
100
AcDbEntity
  8
0
  6
ByBlock
 62
     2
100
AcDbLine
 10
401.7342955756382
 20
318.2373708344575
 30
0.0
 11
401.7342955756382
 21
327.3075575945213
 31
0.0
  0
LINE
  5
1A4D
330
18
100
AcDbEntity
  8
0
  6
ByBlock
 62
     2
100
AcDbLine
 10
389.2342955756383
 20
326.0575575945213
 30
0.0
 11
399.2342955756383
 21
326.0575575945213
 31
0.0
  0
INSERT
  5
1A4E
330
18
100
AcDbEntity
  8
0
  6
ByBlock
 62
     2
100
AcDbBlockReference
  2
_OPEN
 10
386.7342955756383
 20
326.0575575945213
 30
0.0
 41
2.5
 42
2.5
 43
2.5
 50
180.0
  0
INSERT
  5
1A4F
330
18
100
AcDbEntity
  8
0
  6
ByBlock
 62
     2
100
AcDbBlockReference
  2
_OPEN
 10
401.7342955756382
 20
326.0575575945213
 30
0.0
 41
2.5
 42
2.5
 43
2.5
  0
MTEXT
  5
1A50
330
18
100
AcDbEntity
  8
0
  6
ByBlock
 62
     6
100
AcDbMText
 10
394.2342955756383
 20
327.9325575945212
 30
0.0
 40
2.5
 41
0.0
 71
     5
 72
     1
  1
\A1;15
  7
STYLE3
 73
     1
 44
1.0
  0
POINT
  5
1A51
330
18
100
AcDbEntity
  8
DEFPOINTS
  6
ByBlock
 62
     0
100
AcDbPoint
 10
386.7342955756383
 20
300.7887520657681
 30
0.0
  0
POINT
  5
1A52
330
18
100
AcDbEntity
  8
DEFPOINTS
  6
ByBlock
 62
     0
100
AcDbPoint
 10
401.7342955756382
 20
318.2373708344575
 30
0.0
  0
POINT
  5
1A53
330
18
100
AcDbEntity
  8
DEFPOINTS
  6
ByBlock
 62
     0
100
AcDbPoint
 10
401.7342955756382
 20
326.0575575945213
 30
0.0
  0
LINE
  5
1A54
330
18
100
AcDbEntity
  8
ﾊｯﾁﾝｸ
  6
Continuous
100
AcDbLine
 10
397.7342955756382
 20
308.0552458620659
 30
0.0
 11
397.9678017793404
 21
308.288752065768
 31
0.0
  0
LINE
  5
1A55
330
18
100
AcDbEntity
  8
ﾊｯﾁﾝｸ
  6
Continuous
100
AcDbLine
 10
397.7342955756382
 20
306.2874789090995
 30
0.0
 11
399.7355687323068
 21
308.288752065768
 31
0.0
  0
LINE
  5
1A56
330
18
100
AcDbEntity
  8
ﾊｯﾁﾝｸ
  6
Continuous
100
AcDbLine
 10
397.7342955756382
 20
304.5197119561331
 30
0.0
 11
401.5033356852732
 21
308.288752065768
 31
0.0
  0
LINE
  5
1A57
330
18
100
AcDbEntity
  8
ﾊｯﾁﾝｸ
  6
Continuous
100
AcDbLine
 10
397.7342955756382
 20
302.7519450031667
 30
0.0
 11
401.7342955756381
 21
306.7519450031667
 31
0.0
  0
LINE
  5
1A58
330
18
100
AcDbEntity
  8
ﾊｯﾁﾝｸ
  6
Continuous
100
AcDbLine
 10
399.0388695912059
 20
302.288752065768
 30
0.0
 11
401.7342955756382
 21
304.9841780502004
 31
0.0
  0
LINE
  5
1A59
330
18
100
AcDbEntity
  8
ﾊｯﾁﾝｸ
  6
Continuous
100
AcDbLine
 10
400.8066365441723
 20
302.288752065768
 30
0.0
 11
401.7342955756382
 21
303.216411097234
 31
0.0
  0
LINE
  5
1A5A
330
18
100
AcDbEntity
  8
ﾊｯﾁﾝｸ
  6
Continuous
100
AcDbLine
 10
397.7858412219572
 20
302.2887520657681
 30
0.0
 11
397.7342955756382
 21
302.340297712087
 31
0.0
  0
LINE
  5
1A5B
330
18
100
AcDbEntity
  8
ﾊｯﾁﾝｸ
  6
Continuous
100
AcDbLine
 10
399.5536081749236
 20
302.288752065768
 30
0.0
 11
397.7342955756382
 21
304.1080646650534
 31
0.0
  0
LINE
  5
1A5C
330
18
100
AcDbEntity
  8
ﾊｯﾁﾝｸ
  6
Continuous
100
AcDbLine
 10
401.3213751278899
 20
302.288752065768
 30
0.0
 11
397.7342955756382
 21
305.8758316180198
 31
0.0
  0
LINE
  5
1A5D
330
18
100
AcDbEntity
  8
ﾊｯﾁﾝｸ
  6
Continuous
100
AcDbLine
 10
401.7342955756382
 20
303.6435985709862
 30
0.0
 11
397.7342955756382
 21
307.6435985709862
 31
0.0
  0
LINE
  5
1A5E
330
18
100
AcDbEntity
  8
ﾊｯﾁﾝｸ
  6
Continuous
100
AcDbLine
 10
401.7342955756382
 20
305.4113655239524
 30
0.0
 11
398.8569090338227
 21
308.288752065768
 31
0.0
  0
LINE
  5
1A5F
330
18
100
AcDbEntity
  8
ﾊｯﾁﾝｸ
  6
Continuous
100
AcDbLine
 10
401.7342955756382
 20
307.1791324769189
 30
0.0
 11
400.6246759867891
 21
308.288752065768
 31
0.0
  0
LINE
  5
1A60
330
18
100
AcDbEntity
  8
外形線
 62
     2
100
AcDbLine
 10
424.1852732213081
 20
279.6497717588823
 30
0.0
 11
428.0165132251479
 21
289.3040422529439
 31
0.0
  0
LINE
  5
1A61
330
18
100
AcDbEntity
  8
外形線
 62
     2
100
AcDbLine
 10
428.0165132251479
 20
289.3040422529439
 30
0.0
 11
437.5528162021995
 21
289.3040422529439
 31
0.0
  0
LINE
  5
1A66
330
18
100
AcDbEntity
  8
外形線
 62
     2
100
AcDbLine
 10
424.5842300768482
 20
279.5295863249533
 30
0.0
 11
423.4641606177338
 21
277.2560306256421
 31
0.0
  0
LINE
  5
1A67
330
18
100
AcDbEntity
  8
外形線
 62
     2
100
AcDbLine
 10
423.4641606177338
 20
277.2560306256421
 30
0.0
 11
423.7863163657681
 21
279.7699571928114
 31
0.0
  0
LINE
  5
1A68
330
18
100
AcDbEntity
  8
外形線
 62
     2
100
AcDbLine
 10
423.4641606177338
 20
277.2560306256421
 30
0.0
 11
424.1852732213082
 21
279.6497717588823
 31
0.0
  0
LINE
  5
1A69
330
18
100
AcDbEntity
  8
0
  6
ByBlock
 62
     2
100
AcDbLine
 10
412.2342955756383
 20
282.290337809221
 30
0.0
 11
412.2342955756383
 21
290.5540422529439
 31
0.0
  0
LINE
  5
1A6A
330
18
100
AcDbEntity
  8
0
  6
ByBlock
 62
     2
100
AcDbLine
 10
417.2342955756382
 20
282.2887520657681
 30
0.0
 11
417.2342955756382
 21
290.5540422529439
 31
0.0
  0
LINE
  5
1A6B
330
18
100
AcDbEntity
  8
0
  6
ByBlock
 62
     2
100
AcDbLine
 10
409.7342955756382
 20
289.3040422529439
 30
0.0
 11
407.2342955756382
 21
289.3040422529439
 31
0.0
  0
LINE
  5
1A6C
330
18
100
AcDbEntity
  8
0
  6
ByBlock
 62
     2
100
AcDbLine
 10
419.7342955756383
 20
289.3040422529439
 30
0.0
 11
422.2342955756383
 21
289.3040422529439
 31
0.0
  0
LINE
  5
1A6D
330
18
100
AcDbEntity
  8
0
  6
ByBlock
 62
     2
100
AcDbLine
 10
412.2342955756383
 20
289.3040422529439
 30
0.0
 11
417.2342955756382
 21
289.3040422529439
 31
0.0
  0
INSERT
  5
1A6E
330
18
100
AcDbEntity
  8
0
  6
ByBlock
 62
     2
100
AcDbBlockReference
  2
_OPEN
 10
412.2342955756383
 20
289.3040422529439
 30
0.0
 41
2.5
 42
2.5
 43
2.5
  0
INSERT
  5
1A6F
330
18
100
AcDbEntity
  8
0
  6
ByBlock
 62
     2
100
AcDbBlockReference
  2
_OPEN
 10
417.2342955756382
 20
289.3040422529439
 30
0.0
 41
2.5
 42
2.5
 43
2.5
 50
180.0
  0
MTEXT
  5
1A70
330
18
100
AcDbEntity
  8
0
  6
ByBlock
 62
     6
100
AcDbMText
 10
414.7342955756382
 20
291.1790422529439
 30
0.0
 40
2.5
 41
0.0
 71
     5
 72
     1
  1
\A1;5
  7
STYLE3
 73
     1
 44
1.0
  0
POINT
  5
1A71
330
18
100
AcDbEntity
  8
DEFPOINTS
  6
ByBlock
 62
     0
100
AcDbPoint
 10
412.2342955756383
 20
282.290337809221
 30
0.0
  0
POINT
  5
1A72
330
18
100
AcDbEntity
  8
DEFPOINTS
  6
ByBlock
 62
     0
100
AcDbPoint
 10
417.2342955756382
 20
282.2887520657681
 30
0.0
  0
POINT
  5
1A73
330
18
100
AcDbEntity
  8
DEFPOINTS
  6
ByBlock
 62
     0
100
AcDbPoint
 10
417.2342955756382
 20
289.3040422529439
 30
0.0
  0
TEXT
  5
1A74
330
18
100
AcDbEntity
  8
目盛
 62
     6
100
AcDbText
 10
427.6480834225059
 20
289.7038458384495
 30
0.0
 40
2.5
  1
φ6.5
  7
STYLE3
100
AcDbText
  0
LINE
  5
1C47
330
18
100
AcDbEntity
  8
外形線
100
AcDbLine
 10
325.3284475893634
 20
265.5281028803476
 30
0.0
 11
325.803975847511
 21
265.6826113775352
 31
0.0
  0
ARC
  5
1C48
330
18
100
AcDbEntity
  8
外形線
100
AcDbCircle
 10
321.2864573951089
 20
264.2147806542541
 30
0.0
 40
4.75
100
AcDbArc
 50
0.0
 51
180.0
  0
TEXT
  5
1C56
330
18
100
AcDbEntity
  8
文字
100
AcDbText
 10
317.0527484860324
 20
263.7585550024593
 30
0.0
 40
1.0
  1
1.0
  7
STYLE3
100
AcDbText
  0
TEXT
  5
1C57
330
18
100
AcDbEntity
  8
文字
100
AcDbText
 10
324.3294339961753
 20
263.5345546348144
 30
0.0
 40
1.0
  1
0
  7
STYLE3
100
AcDbText
  0
TEXT
  5
1C69
330
18
100
AcDbEntity
  8
文字
100
AcDbText
 10
324.4963804388924
 20
259.8342328365555
 30
0.0
 40
1.0
  1
S
  7
STYLE3
100
AcDbText
  0
TEXT
  5
1C6F
330
18
100
AcDbEntity
  8
文字
100
AcDbText
 10
319.71994117272
 20
266.9134286951296
 30
0.0
 40
1.0
  1
.6
  7
STYLE3
100
AcDbText
  0
LINE
  5
1C70
330
18
100
AcDbEntity
  8
外形線
100
AcDbLine
 10
318.7883700728659
 20
267.6531028803477
 30
0.0
 11
318.4944774467197
 21
268.0576113775352
 31
0.0
  0
LINE
  5
1C71
330
18
100
AcDbEntity
  8
外形線
100
AcDbLine
 10
317.0364573951089
 20
264.2147806542541
 30
0.0
 11
316.5364573951089
 21
264.2147806542541
 31
0.0
  0
LINE
  5
1C72
330
18
100
AcDbEntity
  8
外形線
100
AcDbLine
 10
317.2444672008546
 20
265.5281028803476
 30
0.0
 11
316.7689389427071
 21
265.6826113775352
 31
0.0
  0
LINE
  5
1C73
330
18
100
AcDbEntity
  8
外形線
100
AcDbLine
 10
317.8481351690154
 20
266.7128679764971
 30
0.0
 11
317.443626671828
 21
267.0067606026434
 31
0.0
  0
TEXT
  5
1C74
330
18
100
AcDbEntity
  8
文字
100
AcDbText
 10
318.067724876747
 20
265.861411573466
 30
0.0
 40
1.0
  1
.8
  7
STYLE3
100
AcDbText
  0
LINE
  5
1C76
330
18
100
AcDbEntity
  8
外形線
100
AcDbLine
 10
319.9731351690154
 20
268.2567708485086
 30
0.0
 11
319.818626671828
 21
268.7322991066561
 31
0.0
  0
POINT
  5
1C77
330
18
100
AcDbEntity
  8
DEFPOINTS
  6
ByBlock
 62
     0
100
AcDbPoint
 10
319.818626671828
 20
268.7322991066561
 30
0.0
  0
TEXT
  5
1C78
330
18
100
AcDbEntity
  8
文字
100
AcDbText
 10
321.5878974093575
 20
266.8888631743992
 30
0.0
 40
1.0
  1
.4
  7
STYLE3
100
AcDbText
  0
LINE
  5
1C79
330
18
100
AcDbEntity
  8
外形線
100
AcDbLine
 10
323.784544717352
 20
267.6531028803477
 30
0.0
 11
324.0784373434983
 21
268.0576113775352
 31
0.0
  0
TEXT
  5
1C7D
330
18
100
AcDbEntity
  8
文字
100
AcDbText
 10
323.1371233047079
 20
265.6512309080586
 30
0.0
 40
1.0
  1
.2
  7
STYLE3
100
AcDbText
  0
LINE
  5
1C7E
330
18
100
AcDbEntity
  8
外形線
100
AcDbLine
 10
324.7247796212024
 20
266.7128679764971
 30
0.0
 11
325.12928811839
 21
267.0067606026434
 31
0.0
  0
POINT
  5
1C80
330
18
100
AcDbEntity
  8
DEFPOINTS
  6
ByBlock
 62
     0
100
AcDbPoint
 10
322.75428811839
 20
268.7322991066561
 30
0.0
  0
LINE
  5
1C81
330
18
100
AcDbEntity
  8
外形線
100
AcDbLine
 10
322.5997796212025
 20
268.2567708485086
 30
0.0
 11
322.75428811839
 21
268.7322991066561
 31
0.0
  0
LINE
  5
1C82
330
18
100
AcDbEntity
  8
外形線
100
AcDbLine
 10
321.2864573951089
 20
268.4647806542541
 30
0.0
 11
321.2864573951089
 21
268.9647806542541
 31
0.0
  0
TEXT
  5
1C9A
330
18
100
AcDbEntity
  8
文字
100
AcDbText
 10
333.7722609827439
 20
263.1799985054311
 30
0.0
 40
1.0
  1
F
 50
39.72416055040988
  7
STYLE3
100
AcDbText
  0
TEXT
  5
1C9D
330
18
100
AcDbEntity
  8
文字
100
AcDbText
 10
330.0048207312785
 20
260.8715931580716
 30
0.0
 40
1.0
  1
P
 50
23.24053280085741
  7
STYLE3
100
AcDbText
  0
TEXT
  5
1C9E
330
18
100
AcDbEntity
  8
文字
100
AcDbText
 10
325.3891590502453
 20
259.881261470204
 30
0.0
 40
1.0
  1
H
 50
3.041391095489256
  7
STYLE3
100
AcDbText
  0
TEXT
  5
1C9F
330
18
100
AcDbEntity
  8
文字
100
AcDbText
 10
326.3506094277631
 20
259.9871460125203
 30
0.0
 40
1.0
  1
O
 50
1.760930144340787
  7
STYLE3
100
AcDbText
  0
TEXT
  5
1CA0
330
18
100
AcDbEntity
  8
文字
100
AcDbText
 10
327.3728721010561
 20
260.1497526089195
 30
0.0
 40
1.0
  1
C
 50
5.687207778684769
  7
STYLE3
100
AcDbText
  0
TEXT
  5
1CA1
330
18
100
AcDbEntity
  8
文字
100
AcDbText
 10
328.470127991963
 20
260.366258310268
 30
0.0
 40
1.0
  1
K
 50
16.11080334047189
  7
STYLE3
100
AcDbText
  0
TEXT
  5
1CA2
330
18
100
AcDbEntity
  8
文字
100
AcDbText
 10
332.737864217132
 20
262.510203954592
 30
0.0
 40
1.0
  1
O
 50
27.6495577688412
  7
STYLE3
100
AcDbText
  0
TEXT
  5
1CA3
330
18
100
AcDbEntity
  8
文字
100
AcDbText
 10
331.7860053102028
 20
261.8635435157312
 30
0.0
 40
1.0
  1
O
 50
27.73777743938884
  7
STYLE3
100
AcDbText
  0
TEXT
  5
1CA4
330
18
100
AcDbEntity
  8
文字
100
AcDbText
 10
330.8617034105366
 20
261.2938344068047
 30
0.0
 40
1.0
  1
R
 50
26.06198672177309
  7
STYLE3
100
AcDbText
  0
LINE
  5
1CA6
102
{ACAD_REACTORS
330
1CA8
102
}
330
18
100
AcDbEntity
  8
外形線
100
AcDbLine
 10
334.1585796659099
 20
275.7387520657681
 30
0.0
 11
335.3252463325767
 21
275.3141201257908
 31
0.0
  0
LINE
  5
1CA7
102
{ACAD_REACTORS
330
1CA8
102
}
330
18
100
AcDbEntity
  8
外形線
100
AcDbLine
 10
334.1585796659099
 20
275.7387520657681
 30
0.0
 11
335.3252463325767
 21
276.1633840057453
 31
0.0
  0
HATCH
  5
1CA8
330
18
100
AcDbEntity
  8
外形線
100
AcDbHatch
 10
0.0
 20
0.0
 30
0.0
210
0.0
220
0.0
230
1.0
  2
SOLID
 70
     1
 71
     1
 91
        2
 92
        1
 93
        7
 72
     1
 10
334.1585796659099
 20
275.7387520657681
 11
335.3252463325767
 21
275.3141201257908
 72
     1
 10
335.3252463325766
 20
275.3141201257908
 11
335.3252463325766
 21
275.6491687324348
 72
     1
 10
335.3252463325766
 20
275.6491687324348
 11
336.3252463325766
 21
275.6491687324347
 72
     1
 10
336.3252463325766
 20
275.6491687324347
 11
336.3252463325767
 21
275.8283353991013
 72
     1
 10
336.3252463325767
 20
275.8283353991013
 11
335.3252463325766
 21
275.8283353991013
 72
     1
 10
335.3252463325766
 20
275.8283353991013
 11
335.3252463325766
 21
276.1633840057453
 72
     1
 10
335.3252463325767
 20
276.1633840057453
 11
334.1585796659099
 21
275.7387520657681
 97
        7
330
1CA6
330
1CD6
330
1CD7
330
1CD8
330
1CD3
330
1CD2
330
1CA7
 92
        1
 93
        4
 72
     1
 10
334.1585796659099
 20
276.488752065768
 11
334.1585796659099
 21
274.988752065768
 72
     1
 10
334.1585796659099
 20
274.988752065768
 11
333.9919129992433
 21
274.988752065768
 72
     1
 10
333.9919129992433
 20
274.988752065768
 11
333.9919129992433
 21
276.488752065768
 72
     1
 10
333.9919129992433
 20
276.488752065768
 11
334.1585796659099
 21
276.488752065768
 97
        4
330
1CC5
330
1CBF
330
1CC4
330
1CBE
 75
     0
 76
     1
 98
        1
 10
241.8290229594296
 20
207.076601258587
450
        0
451
        0
460
0.0
461
0.0
452
        0
462
0.0
453
        0
470

  0
TEXT
  5
1CAA
330
18
100
AcDbEntity
  8
文字
100
AcDbText
 10
329.9055480597592
 20
273.2524618313555
 30
0.0
 40
1.0
  1
0.001mm
  7
STYLE3
100
AcDbText
  0
LINE
  5
1CAD
330
18
100
AcDbEntity
  8
外形線
100
AcDbLine
 10
325.5364573951089
 20
264.2147806542541
 30
0.0
 11
326.0364573951089
 21
264.2147806542541
 31
0.0
  0
LINE
  5
1CB2
102
{ACAD_REACTORS
330
1CB4
102
}
330
18
100
AcDbEntity
  8
外形線
100
AcDbLine
 10
332.9919129992433
 20
275.7387520657681
 30
0.0
 11
331.8252463325766
 21
275.3141201257908
 31
0.0
  0
LINE
  5
1CB3
102
{ACAD_REACTORS
330
1CB4
102
}
330
18
100
AcDbEntity
  8
外形線
100
AcDbLine
 10
332.9919129992433
 20
275.7387520657681
 30
0.0
 11
331.8252463325766
 21
276.1633840057453
 31
0.0
  0
HATCH
  5
1CB4
330
18
100
AcDbEntity
  8
外形線
100
AcDbHatch
 10
0.0
 20
0.0
 30
0.0
210
0.0
220
0.0
230
1.0
  2
SOLID
 70
     1
 71
     1
 91
        2
 92
        1
 93
        7
 72
     1
 10
332.9919129992433
 20
275.7387520657681
 11
331.8252463325766
 21
275.3141201257908
 72
     1
 10
331.8252463325767
 20
275.3141201257908
 11
331.8252463325767
 21
275.6491687324348
 72
     1
 10
331.8252463325767
 20
275.6491687324348
 11
330.8252463325767
 21
275.6491687324347
 72
     1
 10
330.8252463325767
 20
275.6491687324347
 11
330.8252463325767
 21
275.8283353991013
 72
     1
 10
330.8252463325767
 20
275.8283353991013
 11
331.8252463325767
 21
275.8283353991013
 72
     1
 10
331.8252463325767
 20
275.8283353991013
 11
331.8252463325767
 21
276.1633840057453
 72
     1
 10
331.8252463325766
 20
276.1633840057453
 11
332.9919129992433
 21
275.7387520657681
 97
        7
330
1CB2
330
1CBA
330
1CB9
330
1CBD
330
1CB5
330
1CB6
330
1CB3
 92
        1
 93
        4
 72
     1
 10
332.9919129992433
 20
276.488752065768
 11
332.9919129992433
 21
274.988752065768
 72
     1
 10
332.9919129992433
 20
274.988752065768
 11
333.15857966591
 21
274.988752065768
 72
     1
 10
333.15857966591
 20
274.988752065768
 11
333.15857966591
 21
276.488752065768
 72
     1
 10
333.15857966591
 20
276.488752065768
 11
332.9919129992433
 21
276.488752065768
 97
        4
330
1CCC
330
1CCB
330
1CCD
330
1CC6
 75
     0
 76
     1
 98
        1
 10
425.3214697057236
 20
207.076601258587
450
        0
451
        0
460
0.0
461
0.0
452
        0
462
0.0
453
        0
470

  0
LINE
  5
1CB5
102
{ACAD_REACTORS
330
1CB4
102
}
330
18
100
AcDbEntity
  8
外形線
100
AcDbLine
 10
330.8252463325767
 20
275.8283353991013
 30
0.0
 11
331.8252463325767
 21
275.8283353991013
 31
0.0
  0
LINE
  5
1CB6
102
{ACAD_REACTORS
330
1CB4
102
}
330
18
100
AcDbEntity
  8
外形線
100
AcDbLine
 10
331.8252463325767
 20
276.1633840057453
 30
0.0
 11
331.8252463325767
 21
275.8283353991013
 31
0.0
  0
POINT
  5
1CB7
330
18
100
AcDbEntity
  8
DEFPOINTS
  6
ByBlock
 62
     0
100
AcDbPoint
 10
331.8252463325766
 20
276.1633840057453
 30
0.0
  0
POINT
  5
1CB8
330
18
100
AcDbEntity
  8
DEFPOINTS
  6
ByBlock
 62
     0
100
AcDbPoint
 10
331.8252463325767
 20
276.1633840057453
 30
0.0
  0
LINE
  5
1CB9
102
{ACAD_REACTORS
330
1CB4
102
}
330
18
100
AcDbEntity
  8
外形線
100
AcDbLine
 10
330.8252463325767
 20
275.6491687324347
 30
0.0
 11
331.8252463325767
 21
275.6491687324348
 31
0.0
  0
LINE
  5
1CBA
102
{ACAD_REACTORS
330
1CB4
102
}
330
18
100
AcDbEntity
  8
外形線
100
AcDbLine
 10
331.8252463325767
 20
275.6491687324348
 30
0.0
 11
331.8252463325767
 21
275.3141201257908
 31
0.0
  0
POINT
  5
1CBB
330
18
100
AcDbEntity
  8
DEFPOINTS
  6
ByBlock
 62
     0
100
AcDbPoint
 10
331.8252463325766
 20
275.3141201257908
 30
0.0
  0
POINT
  5
1CBC
330
18
100
AcDbEntity
  8
DEFPOINTS
  6
ByBlock
 62
     0
100
AcDbPoint
 10
331.8252463325766
 20
275.3141201257908
 30
0.0
  0
LINE
  5
1CBD
102
{ACAD_REACTORS
330
1CB4
102
}
330
18
100
AcDbEntity
  8
外形線
100
AcDbLine
 10
330.8252463325767
 20
275.8283353991013
 30
0.0
 11
330.8252463325767
 21
275.6491687324347
 31
0.0
  0
LINE
  5
1CBE
102
{ACAD_REACTORS
330
1CA8
102
}
330
18
100
AcDbEntity
  8
外形線
100
AcDbLine
 10
333.9919129992433
 20
276.488752065768
 30
0.0
 11
334.1585796659099
 21
276.488752065768
 31
0.0
  0
LINE
  5
1CBF
102
{ACAD_REACTORS
330
1CA8
102
}
330
18
100
AcDbEntity
  8
外形線
100
AcDbLine
 10
333.9919129992433
 20
274.988752065768
 30
0.0
 11
334.1585796659099
 21
274.988752065768
 31
0.0
  0
POINT
  5
1CC0
330
18
100
AcDbEntity
  8
DEFPOINTS
  6
ByBlock
 62
     0
100
AcDbPoint
 10
334.1585796659099
 20
274.988752065768
 30
0.0
  0
POINT
  5
1CC1
330
18
100
AcDbEntity
  8
DEFPOINTS
  6
ByBlock
 62
     0
100
AcDbPoint
 10
333.9919129992433
 20
274.988752065768
 30
0.0
  0
POINT
  5
1CC2
330
18
100
AcDbEntity
  8
DEFPOINTS
  6
ByBlock
 62
     0
100
AcDbPoint
 10
334.1585796659099
 20
274.988752065768
 30
0.0
  0
POINT
  5
1CC3
330
18
100
AcDbEntity
  8
DEFPOINTS
  6
ByBlock
 62
     0
100
AcDbPoint
 10
333.9919129992433
 20
274.988752065768
 30
0.0
  0
LINE
  5
1CC4
102
{ACAD_REACTORS
330
1CA8
102
}
330
18
100
AcDbEntity
  8
外形線
100
AcDbLine
 10
333.9919129992433
 20
276.488752065768
 30
0.0
 11
333.9919129992433
 21
274.988752065768
 31
0.0
  0
LINE
  5
1CC5
102
{ACAD_REACTORS
330
1CA8
102
}
330
18
100
AcDbEntity
  8
外形線
100
AcDbLine
 10
334.1585796659099
 20
276.488752065768
 30
0.0
 11
334.1585796659099
 21
274.988752065768
 31
0.0
  0
LINE
  5
1CC6
102
{ACAD_REACTORS
330
1CB4
102
}
330
18
100
AcDbEntity
  8
外形線
100
AcDbLine
 10
333.15857966591
 20
276.488752065768
 30
0.0
 11
332.9919129992433
 21
276.488752065768
 31
0.0
  0
POINT
  5
1CC7
330
18
100
AcDbEntity
  8
DEFPOINTS
  6
ByBlock
 62
     0
100
AcDbPoint
 10
333.15857966591
 20
274.988752065768
 30
0.0
  0
POINT
  5
1CC8
330
18
100
AcDbEntity
  8
DEFPOINTS
  6
ByBlock
 62
     0
100
AcDbPoint
 10
332.9919129992433
 20
274.988752065768
 30
0.0
  0
POINT
  5
1CC9
330
18
100
AcDbEntity
  8
DEFPOINTS
  6
ByBlock
 62
     0
100
AcDbPoint
 10
333.15857966591
 20
274.988752065768
 30
0.0
  0
POINT
  5
1CCA
330
18
100
AcDbEntity
  8
DEFPOINTS
  6
ByBlock
 62
     0
100
AcDbPoint
 10
332.9919129992433
 20
274.988752065768
 30
0.0
  0
LINE
  5
1CCB
102
{ACAD_REACTORS
330
1CB4
102
}
330
18
100
AcDbEntity
  8
外形線
100
AcDbLine
 10
333.15857966591
 20
274.988752065768
 30
0.0
 11
332.9919129992433
 21
274.988752065768
 31
0.0
  0
LINE
  5
1CCC
102
{ACAD_REACTORS
330
1CB4
102
}
330
18
100
AcDbEntity
  8
外形線
100
AcDbLine
 10
332.9919129992433
 20
276.488752065768
 30
0.0
 11
332.9919129992433
 21
274.988752065768
 31
0.0
  0
LINE
  5
1CCD
102
{ACAD_REACTORS
330
1CB4
102
}
330
18
100
AcDbEntity
  8
外形線
100
AcDbLine
 10
333.15857966591
 20
276.488752065768
 30
0.0
 11
333.15857966591
 21
274.988752065768
 31
0.0
  0
POINT
  5
1CD0
330
18
100
AcDbEntity
  8
DEFPOINTS
  6
ByBlock
 62
     0
100
AcDbPoint
 10
335.3252463325766
 20
276.1633840057453
 30
0.0
  0
POINT
  5
1CD1
330
18
100
AcDbEntity
  8
DEFPOINTS
  6
ByBlock
 62
     0
100
AcDbPoint
 10
335.3252463325767
 20
276.1633840057453
 30
0.0
  0
LINE
  5
1CD2
102
{ACAD_REACTORS
330
1CA8
102
}
330
18
100
AcDbEntity
  8
外形線
100
AcDbLine
 10
335.3252463325766
 20
276.1633840057453
 30
0.0
 11
335.3252463325766
 21
275.8283353991013
 31
0.0
  0
LINE
  5
1CD3
102
{ACAD_REACTORS
330
1CA8
102
}
330
18
100
AcDbEntity
  8
外形線
100
AcDbLine
 10
336.3252463325767
 20
275.8283353991013
 30
0.0
 11
335.3252463325766
 21
275.8283353991013
 31
0.0
  0
POINT
  5
1CD4
330
18
100
AcDbEntity
  8
DEFPOINTS
  6
ByBlock
 62
     0
100
AcDbPoint
 10
335.3252463325767
 20
275.3141201257908
 30
0.0
  0
POINT
  5
1CD5
330
18
100
AcDbEntity
  8
DEFPOINTS
  6
ByBlock
 62
     0
100
AcDbPoint
 10
335.3252463325767
 20
275.3141201257908
 30
0.0
  0
LINE
  5
1CD6
102
{ACAD_REACTORS
330
1CA8
102
}
330
18
100
AcDbEntity
  8
外形線
100
AcDbLine
 10
335.3252463325766
 20
275.6491687324348
 30
0.0
 11
335.3252463325766
 21
275.3141201257908
 31
0.0
  0
LINE
  5
1CD7
102
{ACAD_REACTORS
330
1CA8
102
}
330
18
100
AcDbEntity
  8
外形線
100
AcDbLine
 10
336.3252463325766
 20
275.6491687324347
 30
0.0
 11
335.3252463325766
 21
275.6491687324348
 31
0.0
  0
LINE
  5
1CD8
102
{ACAD_REACTORS
330
1CA8
102
}
330
18
100
AcDbEntity
  8
外形線
100
AcDbLine
 10
336.3252463325767
 20
275.8283353991013
 30
0.0
 11
336.3252463325766
 21
275.6491687324347
 31
0.0
  0
INSERT
  5
1CFA
330
18
100
AcDbEntity
  8
寸法線
100
AcDbBlockReference
  2
A$C5260192C
 10
317.0284249511898
 20
283.1292112114993
 30
0.0
 41
0.395465
 42
0.5
 43
0.5
  0
TEXT
  5
1CFB
330
18
100
AcDbEntity
  8
文字
100
AcDbText
 10
318.3494724154058
 20
281.0975271354244
 30
0.0
 40
1.0
  1
MADE  IN  JAPAN
  7
STYLE3
100
AcDbText
  0
TEXT
  5
1CFC
330
18
100
AcDbEntity
  8
文字
100
AcDbText
 10
319.4340354372406
 20
278.7452974095215
 30
0.0
 40
1.35
  1
NO.5-SWF
  7
STYLE3
100
AcDbText
  0
CIRCLE
  5
1D7B
330
18
100
AcDbEntity
  8
外形線
100
AcDbCircle
 10
324.486457395109
 20
274.2887520657681
 30
0.0
 40
15.5
  0
LINE
  5
1D92
330
18
100
AcDbEntity
  8
寸法線
100
AcDbLine
 10
396.3564997526546
 20
225.8326527577653
 30
0.0
 11
395.2367756302399
 21
225.8326527577653
 31
0.0
  0
ARC
  5
1DAB
330
18
100
AcDbEntity
  8
外形線
100
AcDbCircle
 10
324.486457395109
 20
212.4887520657681
 30
0.0
 40
1.199999999999999
100
AcDbArc
 50
189.59406822686
 51
350.40593177314
  0
ARC
  5
1DAC
330
18
100
AcDbEntity
  8
外形線
100
AcDbCircle
 10
401.7342955756384
 20
212.4887520657681
 30
0.0
 40
1.199999999999999
100
AcDbArc
 50
189.59406822686
 51
350.40593177314
  0
INSERT
  5
1DD7
330
18
100
AcDbEntity
  8
目盛
100
AcDbBlockReference
  2
A$C3F87409A
 10
323.6807998051154
 20
348.8074195735355
 30
0.0
  0
TEXT
  5
1DD8
330
18
100
AcDbEntity
  8
0
100
AcDbText
 10
323.8908598051154
 20
351.2024115735355
 30
0.0
 40
4.0
  1
Model No.5-SWF Dial Gauge
  7
STYLE3
100
AcDbText
  0
LINE
  5
1DD9
330
18
100
AcDbEntity
  8
外形線
100
AcDbLine
 10
323.7075898051154
 20
347.8118695735355
 30
0.0
 11
407.9742448051153
 21
347.8118695735355
 31
0.0
  0
LINE
  5
1DDA
330
18
100
AcDbEntity
  8
外形線
100
AcDbLine
 10
349.7914168051154
 20
167.2725645735354
 30
0.0
 11
349.7914168051154
 21
187.6675475735354
 31
0.0
  0
TEXT
  5
1DDB
330
18
100
AcDbEntity
  8
0
  6
Continuous
100
AcDbText
 10
351.2488838051154
 20
178.7853325735355
 30
0.0
 40
2.1
  1
Design and specifications are subject to change without notice for future improvement.
  7
STYLE3
100
AcDbText
  0
TEXT
  5
1DDC
330
18
100
AcDbEntity
  8
0
  6
Continuous
100
AcDbText
 10
394.5616618051154
 20
170.7688475735355
 30
0.0
 40
2.399999999999999
  1
mm
  7
STYLE3
100
AcDbText
  0
LINE
  5
1DDD
330
18
100
AcDbEntity
  8
外形線
100
AcDbLine
 10
349.7914168051154
 20
176.8873425735355
 30
0.0
 11
490.5828348051153
 21
176.8873425735355
 31
0.0
  0
TEXT
  5
1DDE
330
18
100
AcDbEntity
  8
0
  6
Continuous
100
AcDbText
 10
353.5808358051154
 20
172.5169875735355
 30
0.0
 40
3.0
  1
三　　角　　法
  7
STYLE3
100
AcDbText
  0
TEXT
  5
1DDF
330
18
100
AcDbEntity
  8
0
  6
Continuous
100
AcDbText
 10
350.9573928051154
 20
169.0207045735355
 30
0.0
 40
2.1
  1
3RD Angle Projection
  7
STYLE3
100
AcDbText
  0
TEXT
  5
1DE0
330
18
100
AcDbEntity
  8
0
  6
Continuous
100
AcDbText
 10
386.6913348051154
 20
169.0207055735355
 30
0.0
 40
2.1
  1
Unit
  7
STYLE3
100
AcDbText
  0
TEXT
  5
1DE1
330
18
100
AcDbEntity
  8
0
  6
Continuous
100
AcDbText
 10
386.5196138051154
 20
172.5229415735354
 30
0.0
 40
3.0
  1
単位
  7
STYLE3
100
AcDbText
  0
LINE
  5
1DE2
330
18
100
AcDbEntity
  8
外形線
100
AcDbLine
 10
385.0621448051154
 20
176.8873425735355
 30
0.0
 11
385.0621448051154
 21
167.2725645735354
 31
0.0
  0
TEXT
  5
1DE3
330
18
100
AcDbEntity
  8
0
  6
Continuous
100
AcDbText
 10
454.0376258051153
 20
169.0207055735355
 30
0.0
 40
2.1
  1
OZAKI MFG. CO., LTD.
  7
STYLE3
100
AcDbText
  0
TEXT
  5
1DE4
330
18
100
AcDbEntity
  8
0
  6
Continuous
100
AcDbText
 10
453.1631468051153
 20
172.8083445735354
 30
0.0
 40
3.0
  1
株式会社　尾崎製作所
  7
STYLE3
100
AcDbText
  0
TEXT
  5
1DE5
330
18
100
AcDbEntity
  8
0
  6
Continuous
100
AcDbText
 10
432.7585928051153
 20
170.7688465735354
 30
0.0
 40
2.1
  1
2010.06.08
  7
STYLE3
100
AcDbText
  0
TEXT
  5
1DE6
330
18
100
AcDbEntity
  8
0
  6
Continuous
100
AcDbText
 10
413.9200138051154
 20
171.0602045735354
 30
0.0
 40
2.399999999999999
  1
1/1
  7
STYLE3
100
AcDbText
  0
TEXT
  5
1DE7
330
18
100
AcDbEntity
  8
0
  6
Continuous
100
AcDbText
 10
404.3007248051153
 20
169.3120625735355
 30
0.0
 40
2.1
  1
Scale
  7
STYLE3
100
AcDbText
  0
TEXT
  5
1DE8
330
18
100
AcDbEntity
  8
0
  6
Continuous
100
AcDbText
 10
403.8375098051153
 20
172.2315845735355
 30
0.0
 40
3.0
  1
尺 度
  7
STYLE3
100
AcDbText
  0
LINE
  5
1DE9
330
18
100
AcDbEntity
  8
外形線
100
AcDbLine
 10
402.5517618051153
 20
176.8873425735355
 30
0.0
 11
402.5517618051153
 21
167.2725645735354
 31
0.0
  0
TEXT
  5
1DEA
330
18
100
AcDbEntity
  8
0
  6
Continuous
100
AcDbText
 10
423.6304238051153
 20
172.3537895735355
 30
0.0
 40
3.0
  1
日 付
  7
STYLE3
100
AcDbText
  0
TEXT
  5
1DEB
330
18
100
AcDbEntity
  8
0
  6
Continuous
100
AcDbText
 10
424.0137848051153
 20
169.0207065735354
 30
0.0
 40
2.1
  1
Date
  7
STYLE3
100
AcDbText
  0
LINE
  5
1DEC
330
18
100
AcDbEntity
  8
外形線
100
AcDbLine
 10
422.0818338051153
 20
176.8873425735355
 30
0.0
 11
422.0818338051153
 21
167.2725645735354
 31
0.0
  0
LINE
  5
1DED
330
18
100
AcDbEntity
  8
外形線
100
AcDbLine
 10
451.8141838051153
 20
176.8873425735355
 30
0.0
 11
451.8141838051153
 21
167.2725645735354
 31
0.0
  0
TEXT
  5
1DEE
330
18
100
AcDbEntity
  8
0
  6
Continuous
100
AcDbText
 10
351.5403778051154
 20
182.7144805735354
 30
0.0
 40
3.5
  1
仕様及び外観は予告なく変更される場合がございますのでご了承下さい。
  7
STYLE3
100
AcDbText
  0
LINE
  5
1DEF
330
18
100
AcDbEntity
  8
外形線
100
AcDbLine
 10
349.7914168051154
 20
187.6675475735354
 30
0.0
 11
490.5828348051153
 21
187.6675475735354
 31
0.0
  0
ENDSEC
  0
SECTION
  2
OBJECTS
  0
DICTIONARY
  5
C
330
0
100
AcDbDictionary
281
     1
  3
ACAD_COLOR
350
1DA0
  3
ACAD_GROUP
350
D
  3
ACAD_IMAGE_DICT
350
E58
  3
ACAD_LAYOUT
350
1DA3
  3
ACAD_MATERIAL
350
1D9F
  3
ACAD_MLINESTYLE
350
1B
  3
ACAD_PLOTSETTINGS
350
1DA4
  3
ACAD_PLOTSTYLENAME
350
1D9D
  3
ACAD_TABLESTYLE
350
1DA1
  3
ACDBVARIABLEDICTIONARY
350
1025
  0
DICTIONARY
  5
1DA0
102
{ACAD_REACTORS
330
C
102
}
330
C
100
AcDbDictionary
281
     1
  0
DICTIONARY
  5
D
102
{ACAD_REACTORS
330
C
102
}
330
C
100
AcDbDictionary
281
     1
  0
DICTIONARY
  5
E58
102
{ACAD_REACTORS
330
C
102
}
330
C
100
AcDbDictionary
281
     1
  3
ROGO01
350
E59
  0
DICTIONARY
  5
1DA3
102
{ACAD_REACTORS
330
C
102
}
330
C
100
AcDbDictionary
281
     1
  3
Model
350
1DA5
  3
レイアウト1
350
1DA6
  0
DICTIONARY
  5
1D9F
102
{ACAD_REACTORS
330
C
102
}
330
C
100
AcDbDictionary
281
     1
  0
DICTIONARY
  5
1B
102
{ACAD_REACTORS
330
C
102
}
330
C
100
AcDbDictionary
281
     1
  3
STANDARD
350
1C
  0
DICTIONARY
  5
1DA4
102
{ACAD_REACTORS
330
C
102
}
330
C
100
AcDbDictionary
281
     1
  0
ACDBDICTIONARYWDFLT
  5
1D9D
102
{ACAD_REACTORS
330
C
102
}
330
C
100
AcDbDictionary
281
     1
  3
Normal
350
1D9E
100
AcDbDictionaryWithDefault
340
1D9E
  0
DICTIONARY
  5
1DA1
102
{ACAD_REACTORS
330
C
102
}
330
C
100
AcDbDictionary
281
     1
  3
Standard
350
1DA2
  0
DICTIONARY
  5
1025
102
{ACAD_REACTORS
330
C
102
}
330
C
100
AcDbDictionary
281
     1
  3
CTABLESTYLE
350
1DAE
  3
SORTENTS
350
1026
  0
IMAGEDEF
  5
E59
102
{ACAD_REACTORS
330
E58
102
}
330
E58
100
AcDbRasterImageDef
 90
        0
  1
D:\ﾃｽﾄ\rogo01.TIF
 10
3388.0
 20
4668.0
 11
0.0635
 21
0.0635
280
     1
281
     5
  0
LAYOUT
  5
1DA5
102
{ACAD_REACTORS
330
1DA3
102
}
330
1DA3
100
AcDbPlotSettings
  1

  2
WIDR Printer
  4

  6

 40
0.0
 41
0.0
 42
0.0
 43
0.0
 44
0.0
 45
0.0
 46
0.0
 47
0.0
 48
0.0
 49
0.0
140
0.0
141
0.0
142
1.0
143
1.0
 70
  1712
 72
     0
 73
     0
 74
     0
  7
AutoCad LT 98.ctb
 75
     0
147
1.0
 76
     0
 77
     2
 78
   300
148
0.0
149
0.0
100
AcDbLayout
  1
Model
 70
     1
 71
     0
 10
0.0
 20
0.0
 11
12.0
 21
9.0
 12
0.0
 22
0.0
 32
0.0
 14
0.0
 24
0.0
 34
0.0
 15
0.0
 25
0.0
 35
0.0
146
0.0
 13
0.0
 23
0.0
 33
0.0
 16
1.0
 26
0.0
 36
0.0
 17
0.0
 27
1.0
 37
0.0
 76
     0
330
18
  0
LAYOUT
  5
1DA6
102
{ACAD_REACTORS
330
1DA3
102
}
330
1DA3
100
AcDbPlotSettings
  1

  2
WIDR Printer
  4

  6

 40
0.0
 41
0.0
 42
0.0
 43
0.0
 44
0.0
 45
0.0
 46
0.0
 47
0.0
 48
0.0
 49
0.0
140
0.0
141
0.0
142
1.0
143
1.0
 70
   688
 72
     0
 73
     0
 74
     5
  7
AutoCad LT 98.ctb
 75
    16
147
1.0
 76
     0
 77
     2
 78
   300
148
0.0
149
0.0
100
AcDbLayout
  1
レイアウト1
 70
     1
 71
     1
 10
0.0
 20
0.0
 11
420.0
 21
297.0
 12
0.0
 22
0.0
 32
0.0
 14
1.000000000000000E+20
 24
1.000000000000000E+20
 34
1.000000000000000E+20
 15
-1.000000000000000E+20
 25
-1.000000000000000E+20
 35
-1.000000000000000E+20
146
0.0
 13
0.0
 23
0.0
 33
0.0
 16
1.0
 26
0.0
 36
0.0
 17
0.0
 27
1.0
 37
0.0
 76
     0
330
15
  0
MLINESTYLE
  5
1C
102
{ACAD_REACTORS
330
1B
102
}
330
1B
100
AcDbMlineStyle
  2
STANDARD
 70
     0
  3

 62
   256
 51
90.0
 52
90.0
 71
     2
 49
0.5
 62
   256
  6
BYLAYER
 49
-0.5
 62
   256
  6
BYLAYER
  0
ACDBPLACEHOLDER
  5
1D9E
102
{ACAD_REACTORS
330
1D9D
102
}
330
1D9D
  0
ACAD_PROXY_OBJECT
  5
1DA2
102
{ACAD_REACTORS
330
1DA1
102
}
330
1DA1
100
AcDbProxyObject
 90
      499
 91
      505
 95
  2555929
 70
     0
 93
     1849
310
4214DD185B99185C992420000000000000F83F0000000000003E0FC00000000000004901028000000C1008070000C3001FDFF8000000C1003FBFF000000182007F7FE00000030400FEFFC00000060801FDFF8000000C1003FBFF000000182000000000000000C2020B0000001820100E000186003FBFF000000182007F7FE0
310
0000030400FEFFC00000060801FDFF8000000C1003FBFF000000182007F7FE0000003040000000000000012404160000003040201C00030C007F7FE00000030400FEFFC00000060801FDFF8000000C1003FBFF000000182007F7FE00000030400FEFFC000000608000
340
F
340
F
340
F
 94
        0
  0
DICTIONARYVAR
  5
1DAE
102
{ACAD_REACTORS
330
1025
102
}
330
1025
100
DictionaryVariables
280
     0
  1
STANDARD
  0
DICTIONARYVAR
  5
1026
102
{ACAD_REACTORS
330
1025
102
}
330
1025
100
DictionaryVariables
280
     0
  1
96
  0
ENDSEC
  0
EOF
