  0
SECTION
  2
HEADER
  9
$ACADVER
  1
AC1018
  9
$ACADMAINTVER
 70
     0
  9
$DWGCODEPAGE
  3
ANSI_932
  9
$INSBASE
 10
0.0
 20
0.0
 30
0.0
  9
$EXTMIN
 10
249.3346787845944
 20
176.0635400423978
 30
-0.0000457728747811
  9
$EXTMAX
 10
634.1546142674312
 20
459.3857883045838
 30
0.000030519906467
  9
$LIMMIN
 10
0.0
 20
0.0
  9
$LIMMAX
 10
420.0
 20
297.0
  9
$ORTHOMODE
 70
     0
  9
$REGENMODE
 70
     1
  9
$FILLMODE
 70
     1
  9
$QTEXTMODE
 70
     0
  9
$MIRRTEXT
 70
     1
  9
$LTSCALE
 40
1.0
  9
$ATTMODE
 70
     1
  9
$TEXTSIZE
 40
3.0
  9
$TRACEWID
 40
1.0
  9
$TEXTSTYLE
  7
STYLE3
  9
$CLAYER
  8
文字
  9
$CELTYPE
  6
BYLAYER
  9
$CECOLOR
 62
   256
  9
$CELTSCALE
 40
1.0
  9
$DISPSILH
 70
     0
  9
$DIMSCALE
 40
1.0
  9
$DIMASZ
 40
2.5
  9
$DIMEXO
 40
0.0
  9
$DIMDLI
 40
3.75
  9
$DIMRND
 40
0.0
  9
$DIMDLE
 40
0.0
  9
$DIMEXE
 40
1.25
  9
$DIMTP
 40
0.0
  9
$DIMTM
 40
0.0
  9
$DIMTXT
 40
2.5
  9
$DIMCEN
 40
2.5
  9
$DIMTSZ
 40
0.0
  9
$DIMTOL
 70
     0
  9
$DIMLIM
 70
     0
  9
$DIMTIH
 70
     0
  9
$DIMTOH
 70
     0
  9
$DIMSE1
 70
     0
  9
$DIMSE2
 70
     0
  9
$DIMTAD
 70
     1
  9
$DIMZIN
 70
     8
  9
$DIMBLK
  1

  9
$DIMASO
 70
     1
  9
$DIMSHO
 70
     1
  9
$DIMPOST
  1

  9
$DIMAPOST
  1

  9
$DIMALT
 70
     0
  9
$DIMALTD
 70
     4
  9
$DIMALTF
 40
0.0394
  9
$DIMLFAC
 40
1.0
  9
$DIMTOFL
 70
     1
  9
$DIMTVP
 40
0.0
  9
$DIMTIX
 70
     0
  9
$DIMSOXD
 70
     0
  9
$DIMSAH
 70
     1
  9
$DIMBLK1
  1
OPEN
  9
$DIMBLK2
  1
OPEN
  9
$DIMSTYLE
  2
STYLE3
  9
$DIMCLRD
 70
     2
  9
$DIMCLRE
 70
     2
  9
$DIMCLRT
 70
     6
  9
$DIMTFAC
 40
1.0
  9
$DIMGAP
 40
0.625
  9
$DIMJUST
 70
     0
  9
$DIMSD1
 70
     0
  9
$DIMSD2
 70
     0
  9
$DIMTOLJ
 70
     1
  9
$DIMTZIN
 70
     0
  9
$DIMALTZ
 70
     0
  9
$DIMALTTZ
 70
     0
  9
$DIMUPT
 70
     0
  9
$DIMDEC
 70
     2
  9
$DIMTDEC
 70
     4
  9
$DIMALTU
 70
     8
  9
$DIMALTTD
 70
     4
  9
$DIMTXSTY
  7
STYLE3
  9
$DIMAUNIT
 70
     0
  9
$DIMADEC
 70
     0
  9
$DIMALTRND
 40
0.0
  9
$DIMAZIN
 70
     0
  9
$DIMDSEP
 70
    46
  9
$DIMATFIT
 70
     3
  9
$DIMFRAC
 70
     0
  9
$DIMLDRBLK
  1

  9
$DIMLUNIT
 70
     2
  9
$DIMLWD
 70
    -2
  9
$DIMLWE
 70
    -2
  9
$DIMTMOVE
 70
     0
  9
$LUNITS
 70
     2
  9
$LUPREC
 70
     4
  9
$SKETCHINC
 40
1.0
  9
$FILLETRAD
 40
1.5
  9
$AUNITS
 70
     0
  9
$AUPREC
 70
     0
  9
$MENU
  1
.
  9
$ELEVATION
 40
0.0
  9
$PELEVATION
 40
0.0
  9
$THICKNESS
 40
0.0
  9
$LIMCHECK
 70
     0
  9
$CHAMFERA
 40
10.0
  9
$CHAMFERB
 40
10.0
  9
$CHAMFERC
 40
20.0
  9
$CHAMFERD
 40
0.0
  9
$SKPOLY
 70
     0
  9
$TDCREATE
 40
2450903.569233333
  9
$TDUCREATE
 40
2450903.194233333
  9
$TDUPDATE
 40
2455377.448286852
  9
$TDUUPDATE
 40
2455377.073286852
  9
$TDINDWG
 40
0.7091004977
  9
$TDUSRTIMER
 40
0.7091004977
  9
$USRTIMER
 70
     1
  9
$ANGBASE
 50
0.0
  9
$ANGDIR
 70
     0
  9
$PDMODE
 70
     0
  9
$PDSIZE
 40
0.0
  9
$PLINEWID
 40
0.0
  9
$SPLFRAME
 70
     0
  9
$SPLINETYPE
 70
     6
  9
$SPLINESEGS
 70
     8
  9
$HANDSEED
  5
B45
  9
$SURFTAB1
 70
     6
  9
$SURFTAB2
 70
     6
  9
$SURFTYPE
 70
     6
  9
$SURFU
 70
     6
  9
$SURFV
 70
     6
  9
$UCSBASE
  2

  9
$UCSNAME
  2

  9
$UCSORG
 10
0.0
 20
0.0
 30
0.0
  9
$UCSXDIR
 10
1.0
 20
0.0
 30
0.0
  9
$UCSYDIR
 10
0.0
 20
1.0
 30
0.0
  9
$UCSORTHOREF
  2

  9
$UCSORTHOVIEW
 70
     0
  9
$UCSORGTOP
 10
0.0
 20
0.0
 30
0.0
  9
$UCSORGBOTTOM
 10
0.0
 20
0.0
 30
0.0
  9
$UCSORGLEFT
 10
0.0
 20
0.0
 30
0.0
  9
$UCSORGRIGHT
 10
0.0
 20
0.0
 30
0.0
  9
$UCSORGFRONT
 10
0.0
 20
0.0
 30
0.0
  9
$UCSORGBACK
 10
0.0
 20
0.0
 30
0.0
  9
$PUCSBASE
  2

  9
$PUCSNAME
  2

  9
$PUCSORG
 10
0.0
 20
0.0
 30
0.0
  9
$PUCSXDIR
 10
1.0
 20
0.0
 30
0.0
  9
$PUCSYDIR
 10
0.0
 20
1.0
 30
0.0
  9
$PUCSORTHOREF
  2

  9
$PUCSORTHOVIEW
 70
     0
  9
$PUCSORGTOP
 10
0.0
 20
0.0
 30
0.0
  9
$PUCSORGBOTTOM
 10
0.0
 20
0.0
 30
0.0
  9
$PUCSORGLEFT
 10
0.0
 20
0.0
 30
0.0
  9
$PUCSORGRIGHT
 10
0.0
 20
0.0
 30
0.0
  9
$PUCSORGFRONT
 10
0.0
 20
0.0
 30
0.0
  9
$PUCSORGBACK
 10
0.0
 20
0.0
 30
0.0
  9
$USERI1
 70
     0
  9
$USERI2
 70
     0
  9
$USERI3
 70
     0
  9
$USERI4
 70
     0
  9
$USERI5
 70
     0
  9
$USERR1
 40
0.0
  9
$USERR2
 40
0.0
  9
$USERR3
 40
0.0
  9
$USERR4
 40
0.0
  9
$USERR5
 40
0.0
  9
$WORLDVIEW
 70
     1
  9
$SHADEDGE
 70
     3
  9
$SHADEDIF
 70
    70
  9
$TILEMODE
 70
     1
  9
$MAXACTVP
 70
    48
  9
$PINSBASE
 10
0.0
 20
0.0
 30
0.0
  9
$PLIMCHECK
 70
     0
  9
$PEXTMIN
 10
1.000000000000000E+20
 20
1.000000000000000E+20
 30
1.000000000000000E+20
  9
$PEXTMAX
 10
-1.000000000000000E+20
 20
-1.000000000000000E+20
 30
-1.000000000000000E+20
  9
$PLIMMIN
 10
0.0
 20
0.0
  9
$PLIMMAX
 10
420.0
 20
297.0
  9
$UNITMODE
 70
     0
  9
$VISRETAIN
 70
     1
  9
$PLINEGEN
 70
     0
  9
$PSLTSCALE
 70
     1
  9
$TREEDEPTH
 70
  3020
  9
$CMLSTYLE
  2
STANDARD
  9
$CMLJUST
 70
     0
  9
$CMLSCALE
 40
20.0
  9
$PROXYGRAPHICS
 70
     1
  9
$MEASUREMENT
 70
     1
  9
$CELWEIGHT
370
    -1
  9
$ENDCAPS
280
     0
  9
$JOINSTYLE
280
     0
  9
$LWDISPLAY
290
     0
  9
$INSUNITS
 70
     0
  9
$HYPERLINKBASE
  1

  9
$STYLESHEET
  1

  9
$XEDIT
290
     1
  9
$CEPSNTYPE
380
     0
  9
$PSTYLEMODE
290
     1
  9
$FINGERPRINTGUID
  2
{3E8BC0C1-A954-4014-9E06-40B1AB99DD36}
  9
$VERSIONGUID
  2
{10310BBB-AE44-42E0-B368-19333B011C2F}
  9
$EXTNAMES
290
     1
  9
$PSVPSCALE
 40
0.0
  9
$OLESTARTUP
290
     0
  9
$SORTENTS
280
   127
  9
$INDEXCTL
280
     0
  9
$HIDETEXT
280
     0
  9
$XCLIPFRAME
290
     0
  9
$HALOGAP
280
     0
  9
$OBSCOLOR
 70
   257
  9
$OBSLTYPE
280
     0
  9
$INTERSECTIONDISPLAY
280
     0
  9
$INTERSECTIONCOLOR
 70
   257
  9
$DIMASSOC
280
     1
  9
$PROJECTNAME
  1

  0
ENDSEC
  0
SECTION
  2
CLASSES
  0
CLASS
  1
HATCH
  2
AcDbHatch
  3
ObjectDBX Classes
 90
        0
 91
       18
280
     0
281
     1
  0
CLASS
  1
LWPOLYLINE
  2
AcDbPolyline
  3
ObjectDBX Classes
 90
        0
 91
        7
280
     0
281
     1
  0
CLASS
  1
ACDBDICTIONARYWDFLT
  2
AcDbDictionaryWithDefault
  3
ObjectDBX Classes
 90
        0
 91
        1
280
     0
281
     0
  0
CLASS
  1
TABLESTYLE
  2
AcDbTableStyle
  3
ObjectDBX Classes
 90
     2047
 91
        1
280
     0
281
     0
  0
CLASS
  1
SORTENTSTABLE
  2
AcDbSortentsTable
  3
ObjectDBX Classes
 90
        0
 91
        1
280
     0
281
     0
  0
CLASS
  1
DICTIONARYVAR
  2
AcDbDictionaryVar
  3
ObjectDBX Classes
 90
        0
 91
        1
280
     0
281
     0
  0
ENDSEC
  0
SECTION
  2
TABLES
  0
TABLE
  2
VPORT
  5
8
330
0
100
AcDbSymbolTable
 70
     2
  0
VPORT
  5
B44
330
8
100
AcDbSymbolTableRecord
100
AcDbViewportTableRecord
  2
*Active
 70
     0
 10
0.0
 20
0.0
 11
1.0
 21
1.0
 12
441.7446465260128
 22
317.7246641734909
 13
0.0
 23
0.0
 14
10.0
 24
10.0
 15
10.0
 25
10.0
 16
0.0
 26
0.0
 36
1.0
 17
0.0
 27
0.0
 37
0.0
 40
285.4767900740659
 41
1.530456852791878
 42
50.0
 43
0.0
 44
0.0
 50
0.0
 51
0.0
 71
     0
 72
   100
 73
     1
 74
     1
 75
     0
 76
     0
 77
     0
 78
     0
281
     0
 65
     1
110
0.0
120
0.0
130
0.0
111
1.0
121
0.0
131
0.0
112
0.0
122
1.0
132
0.0
 79
     0
146
0.0
  0
ENDTAB
  0
TABLE
  2
LTYPE
  5
5
330
0
100
AcDbSymbolTable
 70
     4
  0
LTYPE
  5
12
330
5
100
AcDbSymbolTableRecord
100
AcDbLinetypeTableRecord
  2
BYBLOCK
 70
     0
  3

 72
    65
 73
     0
 40
0.0
  0
LTYPE
  5
13
330
5
100
AcDbSymbolTableRecord
100
AcDbLinetypeTableRecord
  2
BYLAYER
 70
     0
  3

 72
    65
 73
     0
 40
0.0
  0
LTYPE
  5
14
330
5
100
AcDbSymbolTableRecord
100
AcDbLinetypeTableRecord
  2
CONTINUOUS
 70
     0
  3
Solid line
 72
    65
 73
     0
 40
0.0
  0
LTYPE
  5
22
330
5
100
AcDbSymbolTableRecord
100
AcDbLinetypeTableRecord
  2
CENTER2
 70
     0
  3
Center (.5x) ___ _ ___ _ ___ _ ___ _ ___ _ ___
 72
    65
 73
     4
 40
28.575
 49
19.05
 74
     0
 49
-3.174999999999999
 74
     0
 49
3.174999999999999
 74
     0
 49
-3.174999999999999
 74
     0
  0
LTYPE
  5
23
330
5
100
AcDbSymbolTableRecord
100
AcDbLinetypeTableRecord
  2
HIDDEN2
 70
     0
  3
Hidden (.5x) _ _ _ _ _ _ _ _ _ _ _ _ _ _ _ _ _
 72
    65
 73
     2
 40
4.762499999999999
 49
3.174999999999999
 74
     0
 49
-1.587499999999999
 74
     0
  0
LTYPE
  5
24
330
5
100
AcDbSymbolTableRecord
100
AcDbLinetypeTableRecord
  2
PHANTOM2
 70
     0
  3
Phantom (.5x) ___ _ _ ___ _ _ ___ _ _ ___ _ _
 72
    65
 73
     6
 40
31.75
 49
15.875
 74
     0
 49
-3.174999999999999
 74
     0
 49
3.174999999999999
 74
     0
 49
-3.174999999999999
 74
     0
 49
3.174999999999999
 74
     0
 49
-3.174999999999999
 74
     0
  0
ENDTAB
  0
TABLE
  2
LAYER
  5
2
330
0
100
AcDbSymbolTable
 70
    16
  0
LAYER
  5
E
330
2
100
AcDbSymbolTableRecord
100
AcDbLayerTableRecord
  2
0
 70
     0
 62
     7
  6
CONTINUOUS
370
    -3
390
AC4
  0
LAYER
  5
25
330
2
100
AcDbSymbolTableRecord
100
AcDbLayerTableRecord
  2
外形線
 70
     0
 62
     7
  6
CONTINUOUS
370
    -3
390
AC4
  0
LAYER
  5
26
330
2
100
AcDbSymbolTableRecord
100
AcDbLayerTableRecord
  2
寸法線
 70
     0
 62
     2
  6
CONTINUOUS
370
    -3
390
AC4
  0
LAYER
  5
27
330
2
100
AcDbSymbolTableRecord
100
AcDbLayerTableRecord
  2
中心線
 70
     0
 62
     4
  6
CENTER2
370
    -3
390
AC4
  0
LAYER
  5
28
330
2
100
AcDbSymbolTableRecord
100
AcDbLayerTableRecord
  2
隠れ線
 70
     0
 62
     6
  6
HIDDEN2
370
    -3
390
AC4
  0
LAYER
  5
29
330
2
100
AcDbSymbolTableRecord
100
AcDbLayerTableRecord
  2
想像線
 70
     0
 62
     1
  6
PHANTOM2
370
    -3
390
AC4
  0
LAYER
  5
2A
330
2
100
AcDbSymbolTableRecord
100
AcDbLayerTableRecord
  2
ﾊｯﾁﾝｸ
 70
     0
 62
     6
  6
CONTINUOUS
370
    -3
390
AC4
  0
LAYER
  5
2B
330
2
100
AcDbSymbolTableRecord
100
AcDbLayerTableRecord
  2
文字
 70
     0
 62
     6
  6
CONTINUOUS
370
    -3
390
AC4
  0
LAYER
  5
2C
330
2
100
AcDbSymbolTableRecord
100
AcDbLayerTableRecord
  2
目盛
 70
     0
 62
    72
  6
CONTINUOUS
370
    -3
390
AC4
  0
LAYER
  5
2D
330
2
100
AcDbSymbolTableRecord
100
AcDbLayerTableRecord
  2
針
 70
     0
 62
     5
  6
CONTINUOUS
370
    -3
390
AC4
  0
LAYER
  5
53
330
2
100
AcDbSymbolTableRecord
100
AcDbLayerTableRecord
  2
DEFPOINTS
 70
     0
 62
     7
  6
CONTINUOUS
290
     0
370
    -3
390
AC4
  0
LAYER
  5
A5
330
2
100
AcDbSymbolTableRecord
100
AcDbLayerTableRecord
  2
C
 70
     0
 62
     7
  6
CONTINUOUS
370
    -3
390
AC4
  0
LAYER
  5
37E
330
2
100
AcDbSymbolTableRecord
100
AcDbLayerTableRecord
  2
握り
 70
     0
 62
     3
  6
CONTINUOUS
370
    -3
390
AC4
  0
LAYER
  5
37F
330
2
100
AcDbSymbolTableRecord
100
AcDbLayerTableRecord
  2
ROGO
 70
     0
 62
     6
  6
CONTINUOUS
370
    -3
390
AC4
  0
LAYER
  5
AD2
330
2
100
AcDbSymbolTableRecord
100
AcDbLayerTableRecord
  2
隠れ線2
 70
     0
 62
     1
  6
HIDDEN2
370
    -3
390
AC4
  0
ENDTAB
  0
TABLE
  2
STYLE
  5
3
330
0
100
AcDbSymbolTable
 70
     3
  0
STYLE
  5
F
330
3
100
AcDbSymbolTableRecord
100
AcDbTextStyleTableRecord
  2
STANDARD
 70
     0
 40
0.0
 41
1.0
 50
0.0
 71
     0
 42
2.5
  3
txt
  4

  0
STYLE
  5
3F
330
3
100
AcDbSymbolTableRecord
100
AcDbTextStyleTableRecord
  2
STYLE3
 70
     0
 40
0.0
 41
1.0
 50
0.0
 71
     0
 42
3.0
  3
romans.shx
  4
bigfont.shx
  0
ENDTAB
  0
TABLE
  2
VIEW
  5
6
330
0
100
AcDbSymbolTable
 70
     0
  0
ENDTAB
  0
TABLE
  2
UCS
  5
7
330
0
100
AcDbSymbolTable
 70
     0
  0
ENDTAB
  0
TABLE
  2
APPID
  5
9
330
0
100
AcDbSymbolTable
 70
     2
  0
APPID
  5
10
330
9
100
AcDbSymbolTableRecord
100
AcDbRegAppTableRecord
  2
ACAD
 70
     0
  0
APPID
  5
AD7
330
9
100
AcDbSymbolTableRecord
100
AcDbRegAppTableRecord
  2
ACAD_PSEXT
 70
     0
  0
ENDTAB
  0
TABLE
  2
DIMSTYLE
  5
A
330
0
100
AcDbSymbolTable
 70
     6
100
AcDbDimStyleTable
 71
     0
  0
DIMSTYLE
105
1D
330
A
100
AcDbSymbolTableRecord
100
AcDbDimStyleTableRecord
  2
STANDARD
 70
     0
 41
2.5
 42
0.625
 43
3.75
 44
1.25
 73
     0
 74
     0
 77
     1
 78
     8
140
2.5
141
2.5
143
0.0394
147
0.625
171
     4
172
     1
273
     8
274
     4
277
     6
340
F
  0
DIMSTYLE
105
8F
330
A
100
AcDbSymbolTableRecord
100
AcDbDimStyleTableRecord
  2
STYLE3
 70
     0
 41
2.5
 42
0.0
 43
3.75
 44
1.25
 73
     0
 74
     0
 77
     1
 78
     8
140
2.5
141
2.5
143
0.0394
147
0.625
171
     4
172
     1
173
     1
176
     2
177
     2
178
     6
271
     1
273
     8
274
     4
340
3F
341
45
343
45
344
45
  0
ENDTAB
  0
TABLE
  2
BLOCK_RECORD
  5
1
330
0
100
AcDbSymbolTable
 70
     4
  0
BLOCK_RECORD
  5
18
330
1
100
AcDbSymbolTableRecord
100
AcDbBlockTableRecord
  2
*MODEL_SPACE
340
ACB
  0
BLOCK_RECORD
  5
15
330
1
100
AcDbSymbolTableRecord
100
AcDbBlockTableRecord
  2
*PAPER_SPACE
340
ACC
  0
BLOCK_RECORD
  5
45
330
1
100
AcDbSymbolTableRecord
100
AcDbBlockTableRecord
  2
_OPEN
340
0
102
{BLKREFS
331
7B4
331
8B1
331
8B2
331
8BA
331
8BB
331
8C5
331
8C6
331
8DA
331
A5E
331
A5F
331
A69
331
A6A
331
A72
331
A73
331
A80
331
A81
331
A8B
331
A8C
331
A98
331
A99
331
AA1
331
AA2
331
AB9
331
ABA
102
}
  0
ENDTAB
  0
ENDSEC
  0
SECTION
  2
BLOCKS
  0
BLOCK
  5
19
330
18
100
AcDbEntity
  8
0
100
AcDbBlockBegin
  2
*MODEL_SPACE
 70
     0
 10
0.0
 20
0.0
 30
0.0
  3
*MODEL_SPACE
  1

  0
ENDBLK
  5
1A
330
18
100
AcDbEntity
  8
0
100
AcDbBlockEnd
  0
BLOCK
  5
16
330
15
100
AcDbEntity
 67
     1
  8
0
100
AcDbBlockBegin
  2
*PAPER_SPACE
 70
     0
 10
0.0
 20
0.0
 30
0.0
  3
*PAPER_SPACE
  1

  0
ENDBLK
  5
17
330
15
100
AcDbEntity
 67
     1
  8
0
100
AcDbBlockEnd
  0
BLOCK
  5
46
330
45
100
AcDbEntity
  8
0
100
AcDbBlockBegin
  2
_OPEN
 70
     0
 10
0.0
 20
0.0
 30
0.0
  3
_OPEN
  1

  0
LINE
  5
47
330
45
100
AcDbEntity
  8
0
  6
ByBlock
 62
     0
100
AcDbLine
 10
-1.0
 20
0.1666666666666666
 30
0.0
 11
0.0
 21
0.0
 31
0.0
  0
LINE
  5
48
330
45
100
AcDbEntity
  8
0
  6
ByBlock
 62
     0
100
AcDbLine
 10
0.0
 20
0.0
 30
0.0
 11
-1.0
 21
-0.1666666666666666
 31
0.0
  0
LINE
  5
49
330
45
100
AcDbEntity
  8
0
  6
ByBlock
 62
     0
100
AcDbLine
 10
0.0
 20
0.0
 30
0.0
 11
-1.0
 21
0.0
 31
0.0
  0
ENDBLK
  5
4A
330
45
100
AcDbEntity
  8
0
100
AcDbBlockEnd
  0
ENDSEC
  0
SECTION
  2
ENTITIES
  0
LWPOLYLINE
  5
1A0
330
18
100
AcDbEntity
  8
C
100
AcDbPolyline
 90
        5
 70
     0
 43
0.8
 10
249.7355658755851
 20
458.9717683211813
 10
633.7352605185929
 20
458.9717683211813
 10
633.7352605185929
 20
176.4717683211813
 10
249.7355658755851
 20
176.4717683211813
 10
249.7355658755851
 20
458.9717683211813
  0
LINE
  5
1F6
330
18
100
AcDbEntity
  8
中心線
 48
0.5
100
AcDbLine
 10
449.8783693910418
 20
328.6078076312743
 30
0.0
 11
618.7597665261611
 21
328.6078076312743
 31
0.0
  0
LINE
  5
1F7
330
18
100
AcDbEntity
  8
中心線
 48
0.5
100
AcDbLine
 10
475.1297636690861
 20
346.0021746657751
 30
0.0
 11
475.1297636690862
 21
302.5003286480911
 31
0.0
  0
ARC
  5
1FB
330
18
100
AcDbEntity
  8
隠れ線2
100
AcDbCircle
 10
475.1297636690862
 20
328.6078076312743
 30
0.0
 40
14.5
100
AcDbArc
 50
252.2439637109787
 51
277.8657925444609
  0
ARC
  5
231
330
18
100
AcDbEntity
  8
外形線
100
AcDbCircle
 10
538.1297636690862
 20
345.1078076312743
 30
0.0
 40
24.0
100
AcDbArc
 50
154.5156008420425
 51
191.4151577427304
  0
ARC
  5
233
330
18
100
AcDbEntity
  8
隠れ線2
100
AcDbCircle
 10
499.7749388068191
 20
375.8891270537154
 30
0.0
 40
25.0
100
AcDbArc
 50
325.8994432529306
 51
186.9269927148183
  0
LINE
  5
235
330
18
100
AcDbEntity
  8
外形線
100
AcDbLine
 10
514.6045112793668
 20
340.3578076312743
 30
0.0
 11
515.1297636690864
 21
340.3578076312743
 31
0.0
  0
LINE
  5
239
330
18
100
AcDbEntity
  8
外形線
100
AcDbLine
 10
515.1297636690863
 20
316.8578076312743
 30
0.0
 11
502.5768171648103
 21
315.9947925591053
 31
0.0
  0
ARC
  5
23F
330
18
100
AcDbEntity
  8
外形線
100
AcDbCircle
 10
429.5297636690862
 20
380.1078076312743
 30
0.0
 40
46.0
100
AcDbArc
 50
297.3180159752951
 51
346.3303387100927
  0
ARC
  5
242
330
18
100
AcDbEntity
  8
隠れ線2
100
AcDbCircle
 10
453.1297636690863
 20
257.4298076312743
 30
0.0
 40
60.0
100
AcDbArc
 50
72.99899034267777
 51
102.138044865515
  0
LINE
  5
2B1
330
18
100
AcDbEntity
  8
外形線
100
AcDbLine
 10
470.7077764586424
 20
314.7985343299499
 30
0.0
 11
470.6730770609534
 21
314.8077838524232
 31
0.0
  0
LINE
  5
2B2
330
18
100
AcDbEntity
  8
隠れ線
100
AcDbLine
 10
519.2272804468944
 20
359.8961857720563
 30
0.0
 11
520.4763109772017
 21
361.8729510322997
 31
0.0
  0
CIRCLE
  5
2B7
330
18
100
AcDbEntity
  8
隠れ線
 62
     4
 48
0.5
100
AcDbCircle
 10
460.1377636690862
 20
328.1078076312743
 30
0.0
 40
4.5
  0
ARC
  5
2C5
330
18
100
AcDbEntity
  8
外形線
100
AcDbCircle
 10
475.1297636690862
 20
328.6078076312743
 30
0.0
 40
14.5
100
AcDbArc
 50
59.07331659428917
 51
111.3979877929371
  0
ARC
  5
2D1
330
18
100
AcDbEntity
  8
外形線
100
AcDbCircle
 10
488.4297636690862
 20
350.3648076312743
 30
0.0
 40
11.0
100
AcDbArc
 50
238.0885036785344
 51
276.8171258516775
  0
ARC
  5
2F9
330
18
100
AcDbEntity
  8
外形線
100
AcDbCircle
 10
439.1297636690863
 20
421.3668076312742
 30
0.0
 40
85.0
100
AcDbArc
 50
269.9999999999998
 51
291.2431943305709
  0
LINE
  5
2FB
330
18
100
AcDbEntity
  8
外形線
100
AcDbLine
 10
482.5819053934858
 20
341.0462795518706
 30
0.0
 11
482.6150683088053
 21
341.0272855902225
 31
0.0
  0
ARC
  5
2FF
330
18
100
AcDbEntity
  8
外形線
100
AcDbCircle
 10
518.1297636690863
 20
328.5688076312743
 30
0.0
 40
20.0
100
AcDbArc
 50
189.6403956254484
 51
263.2079352493994
  0
ARC
  5
303
330
18
100
AcDbEntity
  8
外形線
100
AcDbCircle
 10
551.1297636690862
 20
285.1078076312743
 30
0.0
 40
2.799999999999999
100
AcDbArc
 50
222.9852313638581
 51
32.53244206904836
  0
ARC
  5
306
330
18
100
AcDbEntity
  8
外形線
100
AcDbCircle
 10
509.1297636690861
 20
254.1108076312743
 30
0.0
 40
55.0
100
AcDbArc
 50
36.44332373231291
 51
83.14427235394409
  0
ARC
  5
309
330
18
100
AcDbEntity
  8
外形線
100
AcDbCircle
 10
513.1297636690862
 20
248.4498076312743
 30
0.0
 40
50.0
100
AcDbArc
 50
44.02536391057514
 51
92.18298294927596
  0
ARC
  5
30E
330
18
100
AcDbEntity
  8
外形線
100
AcDbCircle
 10
499.6297636690862
 20
368.0728076312743
 30
0.0
 40
70.0
100
AcDbArc
 50
237.7985750441514
 51
274.6497499457153
  0
LINE
  5
310
330
18
100
AcDbEntity
  8
外形線
100
AcDbLine
 10
505.3042714900079
 20
298.3031870146312
 30
0.0
 11
511.225212531531
 21
298.4135213139504
 31
0.0
  0
ARC
  5
313
330
18
100
AcDbEntity
  8
外形線
100
AcDbCircle
 10
441.6297636690862
 20
286.1078076312743
 30
0.0
 40
30.0
100
AcDbArc
 50
59.74548288029602
 51
91.98860890731589
  0
LINE
  5
314
330
18
100
AcDbEntity
  8
外形線
100
AcDbLine
 10
462.3269512078441
 20
308.8402137113607
 30
0.0
 11
456.7450260412365
 21
312.0216812016431
 31
0.0
  0
LINE
  5
324
330
18
100
AcDbEntity
  8
外形線
100
AcDbLine
 10
273.4571990220767
 20
317.1109963908593
 30
0.0
 11
439.1297636690863
 21
336.3668076312743
 31
0.0
  0
LINE
  5
329
330
18
100
AcDbEntity
  8
外形線
100
AcDbLine
 10
325.8223286754818
 20
314.0978967798956
 30
0.0
 11
441.6297636690862
 21
316.1078076312743
 31
0.0
  0
LINE
  5
333
330
18
100
AcDbEntity
  8
外形線
100
AcDbLine
 10
553.4904074940713
 20
286.6135834218753
 30
0.0
 11
553.3742308860582
 21
286.7823108211534
 31
0.0
  0
ARC
  5
363
330
18
100
AcDbEntity
  8
寸法線
100
AcDbCircle
 10
475.1297636690862
 20
328.6078076312743
 30
0.0
 40
200.0
100
AcDbArc
 50
155.1764872893118
 51
194.4146696941236
  0
LINE
  5
369
330
18
100
AcDbEntity
  8
外形線
100
AcDbLine
 10
305.5397873414303
 20
317.0015266186842
 30
0.0
 11
325.8223286754814
 21
314.0978967798957
 31
0.0
  0
LINE
  5
36B
330
18
100
AcDbEntity
  8
隠れ線2
100
AcDbLine
 10
325.1387498899047
 20
322.9817959397819
 30
0.0
 11
305.5397873414304
 21
317.0015266186841
 31
0.0
  0
LINE
  5
36D
330
18
100
AcDbEntity
  8
外形線
100
AcDbLine
 10
305.5397873414303
 20
317.0015266186842
 30
0.0
 11
273.628360864539
 21
314.423849516573
 31
0.0
  0
LINE
  5
371
330
18
100
AcDbEntity
  8
外形線
100
AcDbLine
 10
444.6677056659301
 20
337.2661093374584
 30
0.0
 11
439.1297636690859
 21
336.3668076312743
 31
0.0
  0
ARC
  5
373
330
18
100
AcDbEntity
  8
外形線
100
AcDbCircle
 10
441.4619162887112
 20
357.0075103634473
 30
0.0
 40
20.0
100
AcDbArc
 50
279.2236984223147
 51
297.3180159752951
  0
LINE
  5
375
330
18
100
AcDbEntity
  8
中心線
 48
0.5
100
AcDbLine
 10
475.1297636690862
 20
328.6078076312743
 30
0.0
 11
305.5397873414303
 21
317.0015266186841
 31
0.0
  0
ARC
  5
376
330
18
100
AcDbEntity
  8
外形線
100
AcDbCircle
 10
475.1297636690862
 20
328.6078076312743
 30
0.0
 40
202.0
100
AcDbArc
 50
183.2627470957823
 51
184.7952064064603
  0
LINE
  5
42C
330
18
100
AcDbEntity
  8
握り
100
AcDbLine
 10
611.4564135852284
 20
342.8078076312743
 30
0.0
 11
614.6297636690863
 21
342.8078076312743
 31
0.0
  0
LINE
  5
42D
330
18
100
AcDbEntity
  8
握り
100
AcDbLine
 10
591.4564135852283
 20
342.8078076312743
 30
0.0
 11
598.8031137529442
 21
342.8078076312743
 31
0.0
  0
LINE
  5
42E
330
18
100
AcDbEntity
  8
握り
100
AcDbLine
 10
588.803113752944
 20
342.8078076312743
 30
0.0
 11
588.803113752944
 21
335.2611076312744
 31
0.0
  0
LINE
  5
42F
330
18
100
AcDbEntity
  8
握り
100
AcDbLine
 10
601.4564135852285
 20
342.8078076312743
 30
0.0
 11
608.8031137529441
 21
342.8078076312743
 31
0.0
  0
LINE
  5
430
330
18
100
AcDbEntity
  8
握り
100
AcDbLine
 10
588.8031137529442
 20
332.6078076312743
 30
0.0
 11
588.803113752944
 21
324.6078076312743
 31
0.0
  0
LINE
  5
431
330
18
100
AcDbEntity
  8
握り
100
AcDbLine
 10
571.4564135852284
 20
342.8078076312743
 30
0.0
 11
578.8031137529441
 21
342.8078076312743
 31
0.0
  0
LINE
  5
432
330
18
100
AcDbEntity
  8
握り
100
AcDbLine
 10
571.4564135852286
 20
335.2611076312743
 30
0.0
 11
578.8031137529441
 21
335.2611076312743
 31
0.0
  0
LINE
  5
433
330
18
100
AcDbEntity
  8
握り
100
AcDbLine
 10
571.4564135852284
 20
342.8078076312743
 30
0.0
 11
571.4564135852286
 21
335.2611076312743
 31
0.0
  0
LINE
  5
434
330
18
100
AcDbEntity
  8
握り
100
AcDbLine
 10
578.8031137529441
 20
342.8078076312743
 30
0.0
 11
578.8031137529442
 21
335.2611076312743
 31
0.0
  0
LINE
  5
435
330
18
100
AcDbEntity
  8
握り
100
AcDbLine
 10
581.4564135852284
 20
342.8078076312743
 30
0.0
 11
581.4564135852285
 21
335.2611076312743
 31
0.0
  0
LINE
  5
436
330
18
100
AcDbEntity
  8
握り
100
AcDbLine
 10
561.4564135852285
 20
342.8078076312743
 30
0.0
 11
568.8031137529441
 21
342.8078076312743
 31
0.0
  0
LINE
  5
437
330
18
100
AcDbEntity
  8
握り
100
AcDbLine
 10
561.4564135852284
 20
335.2611076312743
 30
0.0
 11
568.8031137529442
 21
335.2611076312743
 31
0.0
  0
LINE
  5
438
330
18
100
AcDbEntity
  8
握り
100
AcDbLine
 10
558.8031137529441
 20
342.8078076312743
 30
0.0
 11
558.8031137529442
 21
335.2611076312743
 31
0.0
  0
LINE
  5
439
330
18
100
AcDbEntity
  8
握り
100
AcDbLine
 10
561.4564135852284
 20
342.8078076312743
 30
0.0
 11
561.4564135852285
 21
335.2611076312743
 31
0.0
  0
LINE
  5
43A
330
18
100
AcDbEntity
  8
握り
100
AcDbLine
 10
568.8031137529441
 20
342.8078076312743
 30
0.0
 11
568.8031137529442
 21
335.2611076312743
 31
0.0
  0
LINE
  5
43B
330
18
100
AcDbEntity
  8
握り
100
AcDbLine
 10
571.4564135852284
 20
321.9545076312743
 30
0.0
 11
578.8031137529441
 21
321.9545076312743
 31
0.0
  0
LINE
  5
43C
330
18
100
AcDbEntity
  8
握り
100
AcDbLine
 10
561.4564135852282
 20
321.9545076312743
 30
0.0
 11
568.8031137529441
 21
321.9545076312743
 31
0.0
  0
LINE
  5
43D
330
18
100
AcDbEntity
  8
握り
100
AcDbLine
 10
581.4564135852285
 20
342.8078076312743
 30
0.0
 11
588.803113752944
 21
342.8078076312743
 31
0.0
  0
LINE
  5
43E
330
18
100
AcDbEntity
  8
握り
100
AcDbLine
 10
581.4564135852285
 20
335.2611076312743
 30
0.0
 11
588.803113752944
 21
335.2611076312743
 31
0.0
  0
LINE
  5
43F
330
18
100
AcDbEntity
  8
握り
100
AcDbLine
 10
581.4564135852284
 20
321.9545076312743
 30
0.0
 11
588.803113752944
 21
321.9545076312743
 31
0.0
  0
ARC
  5
440
330
18
100
AcDbEntity
  8
握り
100
AcDbCircle
 10
614.6297636690863
 20
314.9078076312743
 30
0.0
 40
0.5
100
AcDbArc
 50
270.0
 51
0.0
  0
ARC
  5
441
330
18
100
AcDbEntity
  8
握り
100
AcDbCircle
 10
610.1297636690863
 20
315.1078076312743
 30
0.0
 40
1.5
100
AcDbArc
 50
207.8181392846543
 51
332.1818607153458
  0
LINE
  5
442
330
18
100
AcDbEntity
  8
握り
100
AcDbLine
 10
611.4564135852284
 20
314.4078076312742
 30
0.0
 11
614.6297636690863
 21
314.4078076312743
 31
0.0
  0
ARC
  5
443
330
18
100
AcDbEntity
  8
握り
100
AcDbCircle
 10
600.1297636690862
 20
315.1078076312743
 30
0.0
 40
1.5
100
AcDbArc
 50
207.8181392846543
 51
332.1818607153458
  0
ARC
  5
444
330
18
100
AcDbEntity
  8
握り
100
AcDbCircle
 10
590.1297636690863
 20
315.1078076312743
 30
0.0
 40
1.5
100
AcDbArc
 50
207.8181392846543
 51
332.1818607153458
  0
LINE
  5
445
330
18
100
AcDbEntity
  8
握り
100
AcDbLine
 10
591.4564135852283
 20
314.4078076312743
 30
0.0
 11
598.8031137529442
 21
314.4078076312743
 31
0.0
  0
LINE
  5
446
330
18
100
AcDbEntity
  8
握り
100
AcDbLine
 10
601.4564135852285
 20
314.4078076312743
 30
0.0
 11
608.8031137529441
 21
314.4078076312742
 31
0.0
  0
ARC
  5
447
330
18
100
AcDbEntity
  8
握り
100
AcDbCircle
 10
580.1297636690862
 20
315.1078076312743
 30
0.0
 40
1.5
100
AcDbArc
 50
207.8181392846543
 51
332.1818607153458
  0
LINE
  5
448
330
18
100
AcDbEntity
  8
握り
100
AcDbLine
 10
571.4564135852284
 20
314.4078076312743
 30
0.0
 11
578.8031137529441
 21
314.4078076312743
 31
0.0
  0
LINE
  5
449
330
18
100
AcDbEntity
  8
握り
100
AcDbLine
 10
561.4564135852285
 20
314.4078076312743
 30
0.0
 11
568.8031137529441
 21
314.4078076312743
 31
0.0
  0
ARC
  5
44A
330
18
100
AcDbEntity
  8
握り
100
AcDbCircle
 10
560.1297636690863
 20
315.1078076312743
 30
0.0
 40
1.5
100
AcDbArc
 50
207.8181392846543
 51
332.1818607153458
  0
ARC
  5
44B
330
18
100
AcDbEntity
  8
握り
100
AcDbCircle
 10
570.1297636690862
 20
315.1078076312743
 30
0.0
 40
1.5
100
AcDbArc
 50
207.8181392846543
 51
332.1818607153458
  0
LINE
  5
44C
330
18
100
AcDbEntity
  8
握り
100
AcDbLine
 10
581.4564135852285
 20
314.4078076312743
 30
0.0
 11
588.803113752944
 21
314.4078076312743
 31
0.0
  0
LINE
  5
44D
330
18
100
AcDbEntity
  8
握り
100
AcDbLine
 10
615.1297636690863
 20
342.3078076312743
 30
0.0
 11
615.1297636690863
 21
314.9078076312743
 31
0.0
  0
LINE
  5
44E
330
18
100
AcDbEntity
  8
握り
100
AcDbLine
 10
591.4564135852284
 20
342.8078076312743
 30
0.0
 11
591.4564135852284
 21
314.4078076312743
 31
0.0
  0
LINE
  5
44F
330
18
100
AcDbEntity
  8
握り
100
AcDbLine
 10
598.8031137529441
 20
342.8078076312743
 30
0.0
 11
598.8031137529441
 21
314.4078076312743
 31
0.0
  0
LINE
  5
450
330
18
100
AcDbEntity
  8
握り
100
AcDbLine
 10
601.4564135852284
 20
342.8078076312743
 30
0.0
 11
601.4564135852284
 21
314.4078076312743
 31
0.0
  0
LINE
  5
451
330
18
100
AcDbEntity
  8
握り
100
AcDbLine
 10
608.8031137529441
 20
342.8078076312743
 30
0.0
 11
608.8031137529441
 21
314.4078076312743
 31
0.0
  0
LINE
  5
452
330
18
100
AcDbEntity
  8
握り
100
AcDbLine
 10
611.4564135852284
 20
342.8078076312743
 30
0.0
 11
611.4564135852284
 21
314.4078076312743
 31
0.0
  0
LINE
  5
453
330
18
100
AcDbEntity
  8
握り
100
AcDbLine
 10
588.803113752944
 20
321.9545076312743
 30
0.0
 11
588.803113752944
 21
314.4078076312743
 31
0.0
  0
LINE
  5
454
330
18
100
AcDbEntity
  8
握り
100
AcDbLine
 10
558.803113752944
 20
321.9545076312743
 30
0.0
 11
558.8031137529441
 21
314.4078076312743
 31
0.0
  0
LINE
  5
455
330
18
100
AcDbEntity
  8
握り
100
AcDbLine
 10
561.4564135852283
 20
321.9545076312743
 30
0.0
 11
561.4564135852284
 21
314.4078076312743
 31
0.0
  0
LINE
  5
456
330
18
100
AcDbEntity
  8
握り
100
AcDbLine
 10
568.8031137529441
 20
321.9545076312743
 30
0.0
 11
568.8031137529441
 21
314.4078076312743
 31
0.0
  0
LINE
  5
457
330
18
100
AcDbEntity
  8
握り
100
AcDbLine
 10
571.4564135852284
 20
321.9545076312743
 30
0.0
 11
571.4564135852284
 21
314.4078076312743
 31
0.0
  0
LINE
  5
458
330
18
100
AcDbEntity
  8
握り
100
AcDbLine
 10
578.8031137529442
 20
321.9545076312743
 30
0.0
 11
578.8031137529441
 21
314.4078076312743
 31
0.0
  0
LINE
  5
459
330
18
100
AcDbEntity
  8
握り
100
AcDbLine
 10
581.4564135852284
 20
321.9545076312743
 30
0.0
 11
581.4564135852284
 21
314.4078076312743
 31
0.0
  0
LINE
  5
45A
330
18
100
AcDbEntity
  8
握り
100
AcDbLine
 10
541.4564135852284
 20
342.8078076312743
 30
0.0
 11
548.8031137529441
 21
342.8078076312743
 31
0.0
  0
LINE
  5
45B
330
18
100
AcDbEntity
  8
握り
100
AcDbLine
 10
541.4564135852286
 20
335.2611076312743
 30
0.0
 11
548.8031137529443
 21
335.2611076312743
 31
0.0
  0
LINE
  5
45C
330
18
100
AcDbEntity
  8
握り
100
AcDbLine
 10
541.4564135852284
 20
342.8078076312743
 30
0.0
 11
541.4564135852284
 21
335.2611076312743
 31
0.0
  0
LINE
  5
45D
330
18
100
AcDbEntity
  8
握り
100
AcDbLine
 10
548.8031137529441
 20
342.8078076312743
 30
0.0
 11
548.8031137529442
 21
335.2611076312743
 31
0.0
  0
LINE
  5
45E
330
18
100
AcDbEntity
  8
握り
100
AcDbLine
 10
551.4564135852284
 20
342.8078076312743
 30
0.0
 11
551.4564135852285
 21
335.2611076312743
 31
0.0
  0
LINE
  5
45F
330
18
100
AcDbEntity
  8
握り
100
AcDbLine
 10
521.4564135852284
 20
342.8078076312743
 30
0.0
 11
528.8031137529442
 21
342.8078076312743
 31
0.0
  0
LINE
  5
460
330
18
100
AcDbEntity
  8
握り
100
AcDbLine
 10
531.4564135852284
 20
342.8078076312743
 30
0.0
 11
538.803113752944
 21
342.8078076312743
 31
0.0
  0
LINE
  5
461
330
18
100
AcDbEntity
  8
握り
100
AcDbLine
 10
541.4564135852284
 20
321.9545076312743
 30
0.0
 11
548.8031137529442
 21
321.9545076312743
 31
0.0
  0
LINE
  5
462
330
18
100
AcDbEntity
  8
握り
100
AcDbLine
 10
541.4564135852284
 20
332.6078076312743
 30
0.0
 11
541.4564135852284
 21
324.6078076312743
 31
0.0
  0
LINE
  5
463
330
18
100
AcDbEntity
  8
握り
100
AcDbLine
 10
515.6297636690863
 20
342.8078076312743
 30
0.0
 11
518.8031137529441
 21
342.8078076312743
 31
0.0
  0
ARC
  5
464
330
18
100
AcDbEntity
  8
握り
100
AcDbCircle
 10
550.1297636690862
 20
315.1078076312743
 30
0.0
 40
1.5
100
AcDbArc
 50
207.8181392846543
 51
332.1818607153458
  0
ARC
  5
465
330
18
100
AcDbEntity
  8
握り
100
AcDbCircle
 10
540.1297636690863
 20
315.1078076312743
 30
0.0
 40
1.5
100
AcDbArc
 50
207.8181392846543
 51
332.1818607153458
  0
LINE
  5
466
330
18
100
AcDbEntity
  8
握り
100
AcDbLine
 10
541.4564135852284
 20
314.4078076312743
 30
0.0
 11
548.8031137529441
 21
314.4078076312743
 31
0.0
  0
ARC
  5
467
330
18
100
AcDbEntity
  8
握り
100
AcDbCircle
 10
530.1297636690862
 20
315.1078076312743
 30
0.0
 40
1.5
100
AcDbArc
 50
207.8181392846543
 51
332.1818607153458
  0
ARC
  5
468
330
18
100
AcDbEntity
  8
握り
100
AcDbCircle
 10
520.1297636690862
 20
315.1078076312743
 30
0.0
 40
1.5
100
AcDbArc
 50
207.8181392846543
 51
332.1818607153458
  0
LINE
  5
469
330
18
100
AcDbEntity
  8
握り
100
AcDbLine
 10
521.4564135852284
 20
314.4078076312744
 30
0.0
 11
528.8031137529442
 21
314.4078076312743
 31
0.0
  0
LINE
  5
46A
330
18
100
AcDbEntity
  8
握り
100
AcDbLine
 10
531.4564135852284
 20
314.4078076312743
 30
0.0
 11
538.803113752944
 21
314.4078076312743
 31
0.0
  0
ARC
  5
46B
330
18
100
AcDbEntity
  8
握り
100
AcDbCircle
 10
515.6297636690863
 20
314.9078076312743
 30
0.0
 40
0.5
100
AcDbArc
 50
180.0
 51
270.0
  0
LINE
  5
46C
330
18
100
AcDbEntity
  8
握り
100
AcDbLine
 10
515.6297636690863
 20
314.4078076312743
 30
0.0
 11
518.8031137529442
 21
314.4078076312744
 31
0.0
  0
LINE
  5
46D
330
18
100
AcDbEntity
  8
握り
100
AcDbLine
 10
515.1297636690863
 20
342.3078076312743
 30
0.0
 11
515.1297636690863
 21
314.9078076312743
 31
0.0
  0
LINE
  5
46E
330
18
100
AcDbEntity
  8
握り
100
AcDbLine
 10
521.4564135852284
 20
342.8078076312743
 30
0.0
 11
521.4564135852284
 21
314.4078076312743
 31
0.0
  0
LINE
  5
46F
330
18
100
AcDbEntity
  8
握り
100
AcDbLine
 10
518.8031137529441
 20
342.8078076312743
 30
0.0
 11
518.8031137529441
 21
314.4078076312743
 31
0.0
  0
LINE
  5
470
330
18
100
AcDbEntity
  8
握り
100
AcDbLine
 10
528.8031137529441
 20
342.8078076312743
 30
0.0
 11
528.8031137529441
 21
314.4078076312743
 31
0.0
  0
LINE
  5
471
330
18
100
AcDbEntity
  8
握り
100
AcDbLine
 10
531.4564135852284
 20
342.8078076312743
 30
0.0
 11
531.4564135852284
 21
314.4078076312743
 31
0.0
  0
LINE
  5
472
330
18
100
AcDbEntity
  8
握り
100
AcDbLine
 10
538.803113752944
 20
342.8078076312743
 30
0.0
 11
538.803113752944
 21
314.4078076312743
 31
0.0
  0
LINE
  5
473
330
18
100
AcDbEntity
  8
握り
100
AcDbLine
 10
541.4564135852284
 20
321.9545076312743
 30
0.0
 11
541.4564135852284
 21
314.4078076312743
 31
0.0
  0
LINE
  5
474
330
18
100
AcDbEntity
  8
握り
100
AcDbLine
 10
548.8031137529441
 20
321.9545076312743
 30
0.0
 11
548.8031137529441
 21
314.4078076312743
 31
0.0
  0
LINE
  5
475
330
18
100
AcDbEntity
  8
握り
100
AcDbLine
 10
551.4564135852283
 20
321.9545076312743
 30
0.0
 11
551.4564135852284
 21
314.4078076312743
 31
0.0
  0
LINE
  5
476
330
18
100
AcDbEntity
  8
握り
100
AcDbLine
 10
551.4564135852284
 20
342.8078076312743
 30
0.0
 11
558.8031137529441
 21
342.8078076312743
 31
0.0
  0
LINE
  5
477
330
18
100
AcDbEntity
  8
握り
100
AcDbLine
 10
551.4564135852284
 20
314.4078076312743
 30
0.0
 11
558.8031137529441
 21
314.4078076312743
 31
0.0
  0
LINE
  5
478
330
18
100
AcDbEntity
  8
握り
100
AcDbLine
 10
541.4564135852284
 20
332.6078076312743
 30
0.0
 11
588.8031137529442
 21
332.6078076312743
 31
0.0
  0
LINE
  5
479
330
18
100
AcDbEntity
  8
握り
100
AcDbLine
 10
541.4564135852284
 20
324.6078076312743
 30
0.0
 11
588.803113752944
 21
324.6078076312743
 31
0.0
  0
LINE
  5
47A
330
18
100
AcDbEntity
  8
握り
100
AcDbLine
 10
551.4564135852285
 20
335.2611076312743
 30
0.0
 11
558.8031137529443
 21
335.2611076312743
 31
0.0
  0
LINE
  5
47B
330
18
100
AcDbEntity
  8
握り
100
AcDbLine
 10
551.4564135852284
 20
321.9545076312743
 30
0.0
 11
558.8031137529439
 21
321.9545076312743
 31
0.0
  0
ARC
  5
47C
330
18
100
AcDbEntity
  8
握り
100
AcDbCircle
 10
614.6297636690863
 20
342.3078076312743
 30
0.0
 40
0.5
100
AcDbArc
 50
0.0
 51
90.0
  0
ARC
  5
47D
330
18
100
AcDbEntity
  8
握り
100
AcDbCircle
 10
515.6297636690863
 20
342.3078076312743
 30
0.0
 40
0.5
100
AcDbArc
 50
90.0
 51
180.0
  0
ARC
  5
47E
330
18
100
AcDbEntity
  8
握り
100
AcDbCircle
 10
520.1297636690862
 20
342.1078076312743
 30
0.0
 40
1.5
100
AcDbArc
 50
27.81813928465427
 51
152.1818607153457
  0
ARC
  5
47F
330
18
100
AcDbEntity
  8
握り
100
AcDbCircle
 10
530.1297636690862
 20
342.1078076312743
 30
0.0
 40
1.5
100
AcDbArc
 50
27.81813928465427
 51
152.1818607153457
  0
ARC
  5
480
330
18
100
AcDbEntity
  8
握り
100
AcDbCircle
 10
540.1297636690863
 20
342.1078076312743
 30
0.0
 40
1.5
100
AcDbArc
 50
27.81813928465427
 51
152.1818607153457
  0
ARC
  5
481
330
18
100
AcDbEntity
  8
握り
100
AcDbCircle
 10
550.1297636690862
 20
342.1078076312743
 30
0.0
 40
1.5
100
AcDbArc
 50
27.81813928465427
 51
152.1818607153457
  0
ARC
  5
482
330
18
100
AcDbEntity
  8
握り
100
AcDbCircle
 10
560.1297636690863
 20
342.1078076312743
 30
0.0
 40
1.5
100
AcDbArc
 50
27.81813928465427
 51
152.1818607153457
  0
ARC
  5
483
330
18
100
AcDbEntity
  8
握り
100
AcDbCircle
 10
570.1297636690862
 20
342.1078076312743
 30
0.0
 40
1.5
100
AcDbArc
 50
27.81813928465427
 51
152.1818607153457
  0
ARC
  5
484
330
18
100
AcDbEntity
  8
握り
100
AcDbCircle
 10
580.1297636690862
 20
342.1078076312743
 30
0.0
 40
1.5
100
AcDbArc
 50
27.81813928465427
 51
152.1818607153457
  0
ARC
  5
485
330
18
100
AcDbEntity
  8
握り
100
AcDbCircle
 10
590.1297636690863
 20
342.1078076312743
 30
0.0
 40
1.5
100
AcDbArc
 50
27.81813928465427
 51
152.1818607153457
  0
ARC
  5
486
330
18
100
AcDbEntity
  8
握り
100
AcDbCircle
 10
600.1297636690862
 20
342.1078076312743
 30
0.0
 40
1.5
100
AcDbArc
 50
27.81813928465427
 51
152.1818607153457
  0
ARC
  5
487
330
18
100
AcDbEntity
  8
握り
100
AcDbCircle
 10
610.1297636690863
 20
342.1078076312743
 30
0.0
 40
1.5
100
AcDbArc
 50
27.81813928465427
 51
152.1818607153457
  0
HATCH
  5
488
330
18
100
AcDbEntity
  8
ROGO
 62
     4
100
AcDbHatch
 10
0.0
 20
0.0
 30
0.0
210
0.0
220
0.0
230
1.0
  2
SOLID
 70
     1
 71
     1
 91
        2
 92
        5
 93
        6
 72
     4
 94
        3
 73
     0
 74
     0
 95
       38
 96
       34
 40
0.0
 40
0.0
 40
0.0
 40
0.0
 40
0.2582400211805774
 40
0.3393418442955424
 40
0.443552172800835
 40
0.530394283206717
 40
0.6036667919818254
 40
0.7009894053152177
 40
0.7507174249931042
 40
0.8067242281503032
 40
0.8892677166883521
 40
0.9827715778106668
 40
1.043426616793024
 40
1.109318337455068
 40
1.182564491755753
 40
1.293719242428883
 40
1.399327847180614
 40
1.448424760475743
 40
1.50441322219426
 40
1.570741059842362
 40
1.617957956886697
 40
1.657539314700464
 40
1.714052551848318
 40
1.776150918813051
 40
1.838248940024221
 40
1.892584795022379
 40
2.017023561310864
 40
2.066120474605993
 40
2.164314359515976
 40
2.251113385583432
 40
2.417283613623161
 40
2.622320469312984
 40
2.918423525691272
 40
2.918423525691272
 40
2.918423525691272
 40
2.918423525691272
 10
559.4348523600861
 20
329.3277218584778
 10
559.3487732206208
 20
329.321640974048
 10
559.2356604125907
 20
329.313650351495
 10
559.0920335947198
 20
329.2743008854878
 10
559.0137410883756
 20
329.227423000548
 10
558.9322620864939
 20
329.1929655081187
 10
558.862793648801
 20
329.1419407949055
 10
558.7925277906641
 20
329.1156482517721
 10
558.7433254858414
 20
329.068238096954
 10
558.6863778313658
 20
329.0392779281327
 10
558.6410294030297
 20
328.9744566509693
 10
558.59034272227
 20
328.9138511057429
 10
558.5315397959741
 20
328.8696117606322
 10
558.4832794451749
 20
328.8231475049717
 10
558.4390072838544
 20
328.7514391975661
 10
558.4128050373244
 20
328.6561600908723
 10
558.3389453024539
 20
328.5960042990364
 10
558.3278243389066
 20
328.5236790880706
 10
558.2869702671985
 20
328.4810084306553
 10
558.2692054879756
 20
328.4259267421053
 10
558.2624398049416
 20
328.3754621859328
 10
558.2543193720239
 20
328.3283317838924
 10
558.233077857406
 20
328.2787526828383
 10
558.2400111610652
 20
328.217509427217
 10
558.2380360710049
 20
328.1582055500362
 10
558.2391984138239
 20
328.0781434691627
 10
558.2350033576152
 20
328.0001931878492
 10
558.2684572869225
 20
327.9153647933228
 10
558.2882542120694
 20
327.8397520152278
 10
558.3424713119889
 20
327.7350569548685
 10
558.4359946731573
 20
327.6142614924272
 10
558.6138371674679
 20
327.4676386877232
 10
558.78483792541
 20
327.4527644866985
 10
558.8858752721673
 20
327.4439759302924
 72
     1
 10
558.8858752721673
 20
327.4439759302924
 11
559.9579521624323
 21
327.4439759302924
 72
     4
 94
        3
 73
     0
 74
     0
 95
       11
 96
        7
 40
0.1647869275458135
 40
0.1647869275458135
 40
0.1647869275458135
 40
0.1647869275458135
 40
0.2545010798212315
 40
0.5111620267764023
 40
0.7602998271033902
 40
0.8850764140209603
 40
0.8850764140209603
 40
0.8850764140209603
 40
0.8850764140209603
 10
559.9579521624321
 20
327.4439759302924
 10
559.972912020032
 20
327.443687622231
 10
560.0306701555013
 20
327.4425745009356
 10
560.1293795013533
 20
327.4567552589136
 10
560.2332348829793
 20
327.4703443937327
 10
560.2951506135995
 20
327.4802409505669
 10
560.3151199604578
 20
327.4857994258761
 72
     4
 94
        3
 73
     0
 74
     0
 95
        9
 96
        5
 40
0.0
 40
0.0
 40
0.0
 40
0.0
 40
0.1622561919360204
 40
0.3804197703110171
 40
0.3804197703110171
 40
0.3804197703110171
 40
0.3804197703110171
 10
560.3151199604578
 20
327.4857994258761
 10
560.3672413437692
 20
327.5017456254807
 10
560.4894431804512
 20
327.5391324858436
 10
560.5904098907895
 20
327.6181500826642
 10
560.6483123988693
 20
327.6634651872468
 72
     4
 94
        3
 73
     0
 74
     0
 95
       25
 96
       21
 40
0.0
 40
0.0
 40
0.0
 40
0.0
 40
0.165525918914855
 40
0.3412380755365305
 40
0.5940540902285263
 40
0.7697671103696209
 40
0.9377330196075423
 40
1.11479469302833
 40
1.274661249598185
 40
1.574522170874768
 40
1.815540668866877
 40
2.15849091873445
 40
2.536227739636605
 40
2.738070817316548
 40
2.925680654369045
 40
3.162706124480894
 40
3.395643218188267
 40
3.648478129958861
 40
3.928509979727306
 40
4.337226830236035
 40
4.337226830236035
 40
4.337226830236035
 40
4.337226830236035
 10
560.6483123988693
 20
327.6634651872468
 10
560.6695876237177
 20
327.6810462500264
 10
560.7099409084375
 20
327.7228607117717
 10
560.781514103637
 20
327.7906326379697
 10
560.8445857605036
 20
327.8695923100469
 10
560.9223891900996
 20
327.9335863570089
 10
560.9628934122983
 20
328.0118238232197
 10
561.0212770513042
 20
328.0733559239326
 10
561.0702513640433
 20
328.1683861839192
 10
561.1118036479004
 20
328.2775458484108
 10
561.1514180128968
 20
328.4198333965586
 10
561.1665986462348
 20
328.5803549009094
 10
561.1441294210245
 20
328.7356593758108
 10
561.0898494529177
 20
328.851744369435
 10
561.0499435089617
 20
328.9484892475293
 10
560.9893812394725
 20
329.0401236813539
 10
560.9202878753859
 20
329.1397862618312
 10
560.8229475600154
 20
329.2222233508527
 10
560.6957337619853
 20
329.3216557642462
 10
560.5772436081016
 20
329.3254627306834
 10
560.5069292503509
 20
329.3277218584778
 72
     1
 10
560.506929250351
 20
329.3277218584779
 11
559.4348523600862
 21
329.3277218584779
 97
        6
330
48E
330
48D
330
48F
330
48C
330
48B
330
48A
 92
       20
 93
        1
 72
     3
 10
559.6812214952729
 20
328.3595847267364
 11
0.2546924415247531
 21
0.2239701316915159
 40
0.6788083417438792
 50
0.0
 51
360.0
 73
     1
 97
        1
330
489
 75
     0
 76
     1
 47
0.088756267210375
 98
        2
 10
559.7561233177994
 20
328.8074236843422
 10
559.7561233177994
 20
328.8074236843422
450
        0
451
        0
460
0.0
461
0.0
452
        0
462
0.0
453
        0
470

  0
ELLIPSE
  5
489
102
{ACAD_REACTORS
330
488
102
}
330
18
100
AcDbEntity
  8
ROGO
 62
     4
100
AcDbEllipse
 10
559.6812214952729
 20
328.3595847267364
 30
0.0
 11
0.2546924415247531
 21
0.2239701316915159
 31
0.0
210
0.0
220
0.0
230
1.0
 40
0.6788083417438792
 41
0.0
 42
6.283185307179586
  0
SPLINE
  5
48A
102
{ACAD_REACTORS
330
488
102
}
330
18
100
AcDbEntity
  8
ROGO
 62
     4
100
AcDbSpline
210
0.0
220
0.0
230
1.0
 70
     8
 71
     3
 72
     9
 73
     5
 74
     3
 42
0.0000000001
 43
0.0000000001
 44
0.0000000001
 40
0.0
 40
0.0
 40
0.0
 40
0.0
 40
0.1622561919360204
 40
0.3804197703110171
 40
0.3804197703110171
 40
0.3804197703110171
 40
0.3804197703110171
 10
560.3151199604578
 20
327.4857994258761
 30
0.0
 10
560.3672413437692
 20
327.5017456254807
 30
0.0
 10
560.4894431804511
 20
327.5391324858434
 30
0.0
 10
560.5904098907895
 20
327.6181500826641
 30
0.0
 10
560.6483123988693
 20
327.6634651872468
 30
0.0
 11
560.3151199604578
 21
327.4857994258761
 31
0.0
 11
560.4676210522073
 21
327.54121141769
 31
0.0
 11
560.6483123988693
 21
327.6634651872468
 31
0.0
  0
SPLINE
  5
48B
102
{ACAD_REACTORS
330
488
102
}
330
18
100
AcDbEntity
  8
ROGO
 62
     4
100
AcDbSpline
210
0.0
220
0.0
230
1.0
 70
     8
 71
     3
 72
    11
 73
     7
 74
     0
 42
0.0000000001
 43
0.0000000001
 40
0.1647869275458134
 40
0.1647869275458134
 40
0.1647869275458134
 40
0.1647869275458134
 40
0.2895635144633836
 40
0.5387013147903714
 40
0.7953622617455423
 40
0.8850764140209602
 40
0.8850764140209602
 40
0.8850764140209602
 40
0.8850764140209602
 10
560.3151199604578
 20
327.4857994258761
 30
0.0
 10
560.2951506135995
 20
327.4802409505669
 30
0.0
 10
560.2332348829793
 20
327.4703443937327
 30
0.0
 10
560.1293795013533
 20
327.4567552589136
 30
0.0
 10
560.0306701555013
 20
327.4425745009356
 30
0.0
 10
559.972912020032
 20
327.443687622231
 30
0.0
 10
559.9579521624321
 20
327.4439759302924
 30
0.0
  0
LINE
  5
48C
102
{ACAD_REACTORS
330
488
102
}
330
18
100
AcDbEntity
  8
ROGO
 62
     4
100
AcDbLine
 10
558.8858752721673
 20
327.4439759302924
 30
0.0
 11
559.957952162432
 21
327.4439759302924
 31
0.0
  0
LINE
  5
48D
102
{ACAD_REACTORS
330
488
102
}
330
18
100
AcDbEntity
  8
ROGO
 62
     4
100
AcDbLine
 10
559.4348523600861
 20
329.3277218584778
 30
0.0
 11
560.5069292503509
 21
329.3277218584778
 31
0.0
  0
SPLINE
  5
48E
102
{ACAD_REACTORS
330
488
102
}
330
18
100
AcDbEntity
  8
ROGO
 62
     4
100
AcDbSpline
210
0.0
220
0.0
230
1.0
 70
     8
 71
     3
 72
    25
 73
    21
 74
     0
 42
0.0000000001
 43
0.0000000001
 40
0.0
 40
0.0
 40
0.0
 40
0.0
 40
0.4087168505087288
 40
0.6887487002771746
 40
0.9415836120477687
 40
1.17452070575514
 40
1.41154617586699
 40
1.599156012919487
 40
1.80099909059943
 40
2.178735911501585
 40
2.521686161369157
 40
2.762704659361267
 40
3.06256558063785
 40
3.222432137207705
 40
3.399493810628493
 40
3.567459719866414
 40
3.743172740007509
 40
3.995988754699505
 40
4.17170091132118
 40
4.337226830236035
 40
4.337226830236035
 40
4.337226830236035
 40
4.337226830236035
 10
560.5069292503509
 20
329.3277218584778
 30
0.0
 10
560.5772436081016
 20
329.3254627306834
 30
0.0
 10
560.6957337619853
 20
329.3216557642462
 30
0.0
 10
560.8229475600154
 20
329.2222233508527
 30
0.0
 10
560.9202878753859
 20
329.1397862618312
 30
0.0
 10
560.9893812394725
 20
329.0401236813539
 30
0.0
 10
561.0499435089617
 20
328.9484892475293
 30
0.0
 10
561.0898494529177
 20
328.851744369435
 30
0.0
 10
561.1441294210245
 20
328.7356593758108
 30
0.0
 10
561.1665986462348
 20
328.5803549009094
 30
0.0
 10
561.1514180128968
 20
328.4198333965586
 30
0.0
 10
561.1118036479004
 20
328.2775458484108
 30
0.0
 10
561.0702513640433
 20
328.1683861839192
 30
0.0
 10
561.0212770513042
 20
328.0733559239326
 30
0.0
 10
560.9628934122983
 20
328.0118238232197
 30
0.0
 10
560.9223891900996
 20
327.9335863570089
 30
0.0
 10
560.8445857605036
 20
327.8695923100469
 30
0.0
 10
560.781514103637
 20
327.7906326379697
 30
0.0
 10
560.7099409084375
 20
327.7228607117717
 30
0.0
 10
560.6695876237177
 20
327.6810462500264
 30
0.0
 10
560.6483123988693
 20
327.6634651872468
 30
0.0
  0
SPLINE
  5
48F
102
{ACAD_REACTORS
330
488
102
}
330
18
100
AcDbEntity
  8
ROGO
 62
     4
100
AcDbSpline
210
0.0
220
0.0
230
1.0
 70
     8
 71
     3
 72
    38
 73
    34
 74
    32
 42
0.0000000001
 43
0.0000000001
 44
0.0000000001
 40
0.0
 40
0.0
 40
0.0
 40
0.0
 40
0.2582400211805774
 40
0.3393418442955424
 40
0.443552172800835
 40
0.530394283206717
 40
0.6036667919818254
 40
0.7009894053152177
 40
0.7507174249931042
 40
0.8067242281503032
 40
0.8892677166883521
 40
0.9827715778106668
 40
1.043426616793024
 40
1.109318337455068
 40
1.182564491755753
 40
1.293719242428883
 40
1.399327847180614
 40
1.448424760475743
 40
1.50441322219426
 40
1.570741059842362
 40
1.617957956886697
 40
1.657539314700464
 40
1.714052551848318
 40
1.776150918813051
 40
1.838248940024221
 40
1.892584795022379
 40
2.017023561310864
 40
2.066120474605993
 40
2.164314359515976
 40
2.251113385583432
 40
2.417283613623161
 40
2.622320469312984
 40
2.918423525691272
 40
2.918423525691272
 40
2.918423525691272
 40
2.918423525691272
 10
559.4348523600861
 20
329.3277218584778
 30
0.0
 10
559.3487732206207
 20
329.321640974048
 30
0.0
 10
559.2356604125905
 20
329.3136503514948
 30
0.0
 10
559.0920335947199
 20
329.2743008854878
 30
0.0
 10
559.0137410883755
 20
329.227423000548
 30
0.0
 10
558.9322620864939
 20
329.1929655081187
 30
0.0
 10
558.8627936488011
 20
329.1419407949056
 30
0.0
 10
558.7925277906638
 20
329.115648251772
 30
0.0
 10
558.7433254858415
 20
329.0682380969541
 30
0.0
 10
558.6863778313658
 20
329.0392779281326
 30
0.0
 10
558.6410294030295
 20
328.9744566509693
 30
0.0
 10
558.5903427222701
 20
328.9138511057429
 30
0.0
 10
558.5315397959741
 20
328.8696117606322
 30
0.0
 10
558.4832794451751
 20
328.8231475049717
 30
0.0
 10
558.4390072838544
 20
328.7514391975661
 30
0.0
 10
558.4128050373244
 20
328.6561600908723
 30
0.0
 10
558.3389453024538
 20
328.5960042990364
 30
0.0
 10
558.3278243389067
 20
328.5236790880706
 30
0.0
 10
558.2869702671983
 20
328.4810084306552
 30
0.0
 10
558.2692054879758
 20
328.4259267421053
 30
0.0
 10
558.2624398049415
 20
328.3754621859328
 30
0.0
 10
558.254319372024
 20
328.3283317838924
 30
0.0
 10
558.233077857406
 20
328.2787526828383
 30
0.0
 10
558.2400111610651
 20
328.2175094272169
 30
0.0
 10
558.2380360710049
 20
328.1582055500363
 30
0.0
 10
558.2391984138238
 20
328.0781434691626
 30
0.0
 10
558.2350033576151
 20
328.0001931878491
 30
0.0
 10
558.2684572869225
 20
327.9153647933228
 30
0.0
 10
558.2882542120692
 20
327.8397520152278
 30
0.0
 10
558.342471311989
 20
327.7350569548686
 30
0.0
 10
558.4359946731573
 20
327.6142614924272
 30
0.0
 10
558.6138371674679
 20
327.4676386877233
 30
0.0
 10
558.7848379254098
 20
327.4527644866985
 30
0.0
 10
558.8858752721673
 20
327.4439759302924
 30
0.0
 11
559.4348523600861
 21
329.3277218584778
 31
0.0
 11
559.1784857358756
 21
329.2966725021187
 31
0.0
 11
559.1007988985498
 21
329.2733860034797
 31
0.0
 11
559.0075750599669
 21
329.2268123146945
 31
0.0
 11
558.929888222641
 21
329.1880011378759
 31
0.0
 11
558.867738996919
 21
329.1491896153038
 31
0.0
 11
558.7822836589647
 21
329.1026162722721
 31
0.0
 11
558.743439935128
 21
329.0715672616665
 31
0.0
 11
558.6968277106631
 21
329.0405179053074
 31
0.0
 11
558.6424469855696
 21
328.9784198840962
 31
0.0
 11
558.5802977598477
 21
328.908559696672
 31
0.0
 11
558.5336855353826
 21
328.8697481740999
 31
0.0
 11
558.4870739212649
 21
328.8231748310682
 31
0.0
 11
558.4482301974283
 21
328.761076809857
 31
0.0
 11
558.4016185833106
 21
328.6601672660737
 31
0.0
 11
558.3394687472414
 21
328.57478240047
 31
0.0
 11
558.3239317459846
 21
328.5282087116848
 31
0.0
 11
558.2928571331236
 21
328.4816353686531
 31
0.0
 11
558.2695510208911
 21
328.4195370016885
 31
0.0
 11
558.2617819099154
 21
328.3729636586568
 31
0.0
 11
558.254013409287
 21
328.3341521360847
 31
0.0
 11
558.2384764080302
 21
328.27981662684
 31
0.0
 11
558.2384764080302
 21
328.2177182598753
 31
0.0
 11
558.2384764080302
 21
328.1556202386641
 31
0.0
 11
558.2384764080302
 21
328.101284383666
 31
0.0
 11
558.2462449086587
 21
327.9770883412436
 31
0.0
 11
558.2617819099154
 21
327.9305146524584
 31
0.0
 11
558.2928571331236
 21
327.8373676206417
 31
0.0
 11
558.331700246613
 21
327.7597449212509
 31
0.0
 11
558.4326931961714
 21
327.6277867126155
 31
0.0
 11
558.5958353714519
 21
327.5035903244396
 31
0.0
 11
558.8858752721673
 21
327.4439759302924
 31
0.0
  0
HATCH
  5
490
330
18
100
AcDbEntity
  8
ROGO
 62
     4
100
AcDbHatch
 10
0.0
 20
0.0
 30
0.0
210
0.0
220
0.0
230
1.0
  2
SOLID
 70
     1
 71
     1
 91
        2
 92
        7
 72
     0
 73
     1
 93
        8
 10
554.4948505980207
 20
329.3198972596603
 10
552.9942741940616
 20
329.3198972596603
 10
551.6415108653485
 20
327.4439759302924
 10
552.6804355106222
 20
327.4439759302924
 10
552.9379932785949
 20
327.8011397447078
 10
554.1235318340011
 20
327.8011397447079
 10
554.282198152671
 20
327.4439759302925
 10
555.3282091842826
 20
327.4439759302925
 97
        8
330
4B7
330
4BD
330
4B8
330
4B9
330
4BB
330
491
330
4B6
330
493
 92
       22
 72
     0
 73
     1
 93
        3
 10
553.9561816831431
 20
328.1778511899879
 10
553.2096472230879
 20
328.1778511899879
 10
553.6715997035355
 20
328.8184558640149
 97
        3
330
4BA
330
4BC
330
492
 75
     0
 76
     1
 47
0.0128389261915577
 98
        2
 10
554.3773436087412
 20
328.8698373785045
 10
554.3773436087412
 20
328.8698373785045
450
        0
451
        0
460
0.0
461
0.0
452
        0
462
0.0
453
        0
470

  0
LINE
  5
491
102
{ACAD_REACTORS
330
490
102
}
330
18
100
AcDbEntity
  8
ROGO
 62
     4
100
AcDbLine
 10
554.1235318340011
 20
327.8011397447078
 30
0.0
 11
554.282198152671
 21
327.4439759302924
 31
0.0
  0
LINE
  5
492
102
{ACAD_REACTORS
330
490
102
}
330
18
100
AcDbEntity
  8
ROGO
 62
     4
100
AcDbLine
 10
553.6715997035355
 20
328.8184558640149
 30
0.0
 11
553.9561816831431
 21
328.1778511899879
 31
0.0
  0
LINE
  5
493
102
{ACAD_REACTORS
330
490
102
}
330
18
100
AcDbEntity
  8
ROGO
 62
     4
100
AcDbLine
 10
554.4948505980207
 20
329.3198972596603
 30
0.0
 11
555.3282091842827
 21
327.4439759302924
 31
0.0
  0
HATCH
  5
494
330
18
100
AcDbEntity
  8
ROGO
 62
     4
100
AcDbHatch
 10
0.0
 20
0.0
 30
0.0
210
0.0
220
0.0
230
1.0
  2
SOLID
 70
     1
 71
     1
 91
        2
 92
        5
 93
        6
 72
     1
 10
544.6072023941115
 20
326.3886418526517
 11
545.9697751883064
 21
326.3886418526516
 72
     1
 10
545.9697751883064
 20
326.3886418526516
 11
546.4472382609186
 21
327.4439759302924
 72
     1
 10
546.4472382609186
 20
327.4439759302924
 11
547.7209643583075
 21
327.4439759302924
 72
     4
 94
        3
 73
     0
 74
     0
 95
       18
 96
       14
 40
0.108740278791501
 40
0.108740278791501
 40
0.108740278791501
 40
0.108740278791501
 40
0.6623149649549278
 40
1.384304701649787
 40
2.097394834876493
 40
2.774073369849618
 40
3.428974823686337
 40
4.005208313035923
 40
4.455173659284313
 40
4.720999734343524
 40
5.086034088486724
 40
5.569973738255373
 40
6.060470601257719
 40
6.060470601257719
 40
6.060470601257719
 40
6.060470601257719
 10
547.7209643583075
 20
327.4439759302924
 10
547.8106070967283
 20
327.4446434726226
 10
548.0171647496621
 20
327.4461816449206
 10
548.3061372898154
 20
327.6005571256283
 10
548.5801658228053
 20
327.7972202404021
 10
548.8008771643501
 20
328.0429302844047
 10
548.9383869798874
 20
328.3238576237201
 10
548.9596868156691
 20
328.5931006745368
 10
548.9466837892249
 20
328.8060685804746
 10
548.8537706341634
 20
328.9545124980501
 10
548.7571760714138
 20
329.1051678940112
 10
548.5800543063464
 20
329.2356711937132
 10
548.4349286665599
 20
329.2928510384493
 10
548.3611293270798
 20
329.3198972596603
 72
     1
 10
548.3611293270797
 20
329.3198972596603
 11
546.0575603085295
 21
329.3198972596602
 72
     1
 10
546.0575603085295
 20
329.3198972596602
 11
544.6072023941115
 21
326.3886418526517
 97
        6
330
4CF
330
4D2
330
4D0
330
4D1
330
4C9
330
4CE
 92
       20
 93
        4
 72
     1
 10
546.7420446785045
 20
328.0955849795192
 11
546.9677558161579
 21
328.5944731007841
 72
     1
 10
546.9677558161579
 20
328.5944731007841
 11
547.54773724344
 21
328.5944731007841
 72
     4
 94
        3
 73
     0
 74
     0
 95
       15
 96
       11
 40
0.0
 40
0.0
 40
0.0
 40
0.0
 40
0.2199578613106558
 40
0.3202465475123651
 40
0.4340808827708152
 40
0.5116301246390283
 40
0.634275054953107
 40
0.7077360179240892
 40
0.8337709579493377
 40
0.875782631437913
 40
0.875782631437913
 40
0.875782631437913
 40
0.875782631437913
 10
547.5477372434401
 20
328.5944731007839
 10
547.6303491506675
 20
328.594851507416
 10
547.7506275436076
 20
328.5954024466585
 10
547.8164000526999
 20
328.4466177267593
 10
547.7869176780806
 20
328.3508235772772
 10
547.7498559303319
 20
328.2524728426375
 10
547.6843594281286
 20
328.1856420351099
 10
547.5964535287069
 20
328.1212727013427
 10
547.513378252913
 20
328.1134805052578
 10
547.4593471115236
 20
328.0991640860374
 10
547.4458393197103
 20
328.0955849795191
 72
     1
 10
547.4458393197104
 20
328.0955849795191
 11
546.7420446785045
 21
328.0955849795192
 97
        4
330
4CD
330
4CB
330
4CC
330
4CA
 75
     0
 76
     1
 47
0.0514683685270805
 98
        2
 10
546.0698725275396
 20
328.4081990355331
 10
546.0698725275396
 20
328.4081990355331
450
        0
451
        0
460
0.0
461
0.0
452
        0
462
0.0
453
        0
470

  0
HATCH
  5
495
330
18
100
AcDbEntity
  8
ROGO
 62
     4
100
AcDbHatch
 10
0.0
 20
0.0
 30
0.0
210
0.0
220
0.0
230
1.0
  2
SOLID
 70
     1
 71
     1
 91
        1
 92
        7
 72
     0
 73
     1
 93
       11
 10
563.3687645719966
 20
326.3886418526516
 10
564.4488842041455
 20
326.3886418526517
 10
564.8303831886679
 20
327.1537326556797
 10
565.2118821731901
 20
326.3886418526517
 10
566.2919781731902
 20
326.3886418526517
 10
565.5611688648547
 20
327.8542695561559
 10
567.3367527867566
 20
329.3198972596603
 10
566.2566567867567
 20
329.3198972596603
 10
565.7509238109296
 20
328.9998638184865
 10
565.9105028208167
 20
329.3198972596603
 10
564.8303831886679
 20
329.3198972596603
 97
       11
330
49D
330
4A2
330
4A3
330
4A5
330
4A4
330
4D1
330
49F
330
4A1
330
49C
330
4A0
330
49E
 75
     0
 76
     1
 47
0.0514683685270805
 98
        1
 10
564.7374242652338
 20
328.0623315690295
450
        0
451
        0
460
0.0
461
0.0
452
        0
462
0.0
453
        0
470

  0
HATCH
  5
496
330
18
100
AcDbEntity
  8
ROGO
 62
     4
100
AcDbHatch
 10
0.0
 20
0.0
 30
0.0
210
0.0
220
0.0
230
1.0
  2
SOLID
 70
     1
 71
     1
 91
        1
 92
        7
 72
     0
 73
     1
 93
        4
 10
546.1027052389095
 20
326.6824564330678
 10
545.9697751883066
 20
326.3886418526517
 10
563.3687645719967
 20
326.3886418526517
 10
563.5152700111198
 20
326.6824564330678
 97
        4
330
49A
330
4C9
330
4D1
330
4A4
 75
     0
 76
     1
 47
0.0514683685270805
 98
        1
 10
557.0973270401784
 20
326.6047471984895
450
        0
451
        0
460
0.0
461
0.0
452
        0
462
0.0
453
        0
470

  0
HATCH
  5
497
330
18
100
AcDbEntity
  8
ROGO
 62
     4
100
AcDbHatch
 10
0.0
 20
0.0
 30
0.0
210
0.0
220
0.0
230
1.0
  2
SOLID
 70
     1
 71
     1
 91
        1
 92
        5
 93
        8
 72
     4
 94
        3
 73
     0
 74
     0
 95
       26
 96
       22
 40
0.0
 40
0.0
 40
0.0
 40
0.0
 40
0.3403136209416859
 40
0.5681272389515052
 40
0.7323994099695983
 40
0.8550561247335963
 40
1.014148321321381
 40
1.13027011535639
 40
1.339959009792003
 40
1.510642755247356
 40
1.626735051276114
 40
1.740569491433573
 40
1.94419717410045
 40
2.088186249714629
 40
2.165735491582895
 40
2.275891898886364
 40
2.355438312276665
 40
2.470674802864995
 40
2.535888688806186
 40
2.677801419664424
 40
2.74260000535881
 40
2.74260000535881
 40
2.74260000535881
 40
2.74260000535881
 10
562.5588639440557
 20
329.3198972596603
 10
562.4433562429721
 20
329.3130058721386
 10
562.2505250800206
 20
329.3015012342862
 10
562.0387976361467
 20
329.1728790859172
 10
561.8836737155608
 20
329.0981038211423
 10
561.7730395235261
 20
328.9964532191143
 10
561.6919442122868
 20
328.8914555726551
 10
561.5897083484331
 20
328.7663516467618
 10
561.5063379228534
 20
328.6206731875266
 10
561.4638824335202
 20
328.4601101288648
 10
561.4262757640148
 20
328.3321404394949
 10
561.3983860283394
 20
328.1895349210771
 10
561.4054819666434
 20
328.0354707951882
 10
561.4156436750497
 20
327.8923839223256
 10
561.461013232084
 20
327.7902413181446
 10
561.5126811212127
 20
327.7175228225313
 10
561.5759477438626
 20
327.6374314615332
 10
561.6451752643159
 20
327.5843872124899
 10
561.7024320744741
 20
327.4882939908605
 10
561.8026581891347
 20
327.4760318027516
 10
561.8663658949572
 20
327.4516263886417
 10
561.8863365927593
 20
327.4439759302924
 72
     1
 10
561.8863365927592
 20
327.4439759302924
 11
563.5020923284802
 21
327.4439759302924
 72
     1
 10
563.5020923284802
 20
327.4439759302924
 11
563.8501162151643
 21
328.1419328993504
 72
     1
 10
563.8501162151643
 20
328.1419328993504
 11
562.6505718996325
 21
328.1419328993504
 72
     4
 94
        3
 73
     0
 74
     0
 95
       16
 96
       12
 40
0.0
 40
0.0
 40
0.0
 40
0.0
 40
0.1027738093187964
 40
0.2066076558227444
 40
0.268539878558716
 40
0.3279201337292112
 40
0.3931337605654557
 40
0.4386740937218511
 40
0.4818879174817272
 40
0.569519347887583
 40
0.7489346372632488
 40
0.7489346372632488
 40
0.7489346372632488
 40
0.7489346372632488
 10
562.6505718996326
 20
328.1419328993504
 10
562.6143894158158
 20
328.1525783166198
 10
562.5416512521458
 20
328.1739789509046
 10
562.5355636552204
 20
328.2777213639578
 10
562.5438571253089
 20
328.3516463224709
 10
562.578590196562
 20
328.4054680092082
 10
562.620727436363
 20
328.4446303678306
 10
562.6364169995794
 20
328.4956332166623
 10
562.6825350411855
 20
328.5341467485429
 10
562.7643146860297
 20
328.5988826156512
 10
562.8547488163317
 20
328.6126699089162
 10
562.9155069700766
 20
328.6219328993504
 72
     1
 10
562.9155069700766
 20
328.6219328993505
 11
564.0894597177211
 21
328.6219328993505
 72
     1
 10
564.0894597177211
 20
328.6219328993505
 11
564.437487289922
 21
329.3198972596603
 72
     1
 10
564.437487289922
 20
329.3198972596603
 11
562.5588639440557
 21
329.3198972596603
 97
        8
330
4AC
330
4AA
330
4AD
330
4A9
330
4A8
330
4AB
330
4A7
330
4A6
 75
     0
 76
     1
 47
0.0514683685270805
 98
        1
 10
562.8830317007484
 20
328.9764096836901
450
        0
451
        0
460
0.0
461
0.0
452
        0
462
0.0
453
        0
470

  0
HATCH
  5
498
330
18
100
AcDbEntity
  8
ROGO
 62
     4
100
AcDbHatch
 10
0.0
 20
0.0
 30
0.0
210
0.0
220
0.0
230
1.0
  2
SOLID
 70
     1
 71
     1
 91
        1
 92
        5
 93
        8
 72
     1
 10
558.0450743306812
 20
328.6219328993505
 11
558.3931019028822
 21
329.3198972596603
 72
     1
 10
558.3931019028822
 20
329.3198972596603
 11
556.5144785570161
 21
329.3198972596603
 72
     4
 94
        3
 73
     0
 74
     0
 95
       26
 96
       22
 40
0.0
 40
0.0
 40
0.0
 40
0.0
 40
0.3403136209417982
 40
0.5681272389515159
 40
0.7323994099697078
 40
0.8550561247337057
 40
1.014148321321447
 40
1.13027011535643
 40
1.339959009791999
 40
1.510642755247373
 40
1.626735051276186
 40
1.740569491433665
 40
1.944197174100541
 40
2.088186249714737
 40
2.16573549158295
 40
2.275891898886404
 40
2.355438312276705
 40
2.470674802865115
 40
2.535888688806235
 40
2.677801419664453
 40
2.742600005358966
 40
2.742600005358966
 40
2.742600005358966
 40
2.742600005358966
 10
556.5144785570161
 20
329.3198972596603
 10
556.3989708559322
 20
329.3130058721386
 10
556.2061396929809
 20
329.3015012342863
 10
555.9944122491069
 20
329.1728790859171
 10
555.8392883285209
 20
329.0981038211423
 10
555.7286541364864
 20
328.9964532191143
 10
555.6475588252469
 20
328.8914555726552
 10
555.5453229613935
 20
328.7663516467617
 10
555.4619525358134
 20
328.6206731875267
 10
555.4194970464805
 20
328.4601101288648
 10
555.3818903769751
 20
328.3321404394949
 10
555.3540006412994
 20
328.1895349210771
 10
555.3610965796036
 20
328.0354707951881
 10
555.37125828801
 20
327.8923839223256
 10
555.4166278450443
 20
327.7902413181447
 10
555.4682957341729
 20
327.7175228225313
 10
555.5315623568227
 20
327.6374314615332
 10
555.6007898772763
 20
327.5843872124899
 10
555.6580466874343
 20
327.4882939908605
 10
555.758272802095
 20
327.4760318027517
 10
555.8219805079175
 20
327.4516263886417
 10
555.8419512057196
 20
327.4439759302924
 72
     1
 10
555.8419512057195
 20
327.4439759302924
 11
557.4577069414403
 21
327.4439759302924
 72
     1
 10
557.4577069414403
 20
327.4439759302924
 11
557.8057308281244
 21
328.1419328993505
 72
     1
 10
557.8057308281244
 20
328.1419328993505
 11
556.6061865125929
 21
328.1419328993504
 72
     4
 94
        3
 73
     0
 74
     0
 95
       16
 96
       12
 40
0.0
 40
0.0
 40
0.0
 40
0.0
 40
0.1027738093189234
 40
0.2066076558227377
 40
0.2685398785587465
 40
0.3279201337292418
 40
0.3931337605655129
 40
0.4386740937218573
 40
0.4818879174818138
 40
0.5695193478876036
 40
0.7489346372632694
 40
0.7489346372632694
 40
0.7489346372632694
 40
0.7489346372632694
 10
556.6061865125929
 20
328.1419328993504
 10
556.5700040287761
 20
328.1525783166198
 10
556.4972658651059
 20
328.1739789509046
 10
556.4911782681808
 20
328.2777213639578
 10
556.4994717382691
 20
328.3516463224709
 10
556.5342048095223
 20
328.4054680092082
 10
556.5763420493233
 20
328.4446303678306
 10
556.5920316125396
 20
328.4956332166623
 10
556.6381496541456
 20
328.534146748543
 10
556.71992929899
 20
328.5988826156511
 10
556.8103634292919
 20
328.6126699089161
 10
556.8711215830368
 20
328.6219328993504
 72
     1
 10
556.8711215830368
 20
328.6219328993504
 11
558.0450743306812
 21
328.6219328993505
 97
        8
330
4AE
330
4B1
330
4B5
330
4AF
330
4B2
330
4B0
330
4B3
330
4B4
 75
     0
 76
     1
 47
0.0514683685270805
 98
        1
 10
557.171502695883
 20
328.9022951791646
450
        0
451
        0
460
0.0
461
0.0
452
        0
462
0.0
453
        0
470

  0
HATCH
  5
499
330
18
100
AcDbEntity
  8
ROGO
 62
     4
100
AcDbHatch
 10
0.0
 20
0.0
 30
0.0
210
0.0
220
0.0
230
1.0
  2
SOLID
 70
     1
 71
     1
 91
        1
 92
        1
 93
       12
 72
     1
 10
549.722020745945
 20
329.3198972596603
 11
552.2592823866363
 21
329.3198972596603
 72
     1
 10
552.2592823866363
 20
329.3198972596603
 11
552.0466621070155
 21
328.8901796443858
 72
     1
 10
552.0466621070155
 20
328.8901796443858
 11
550.713141503847
 21
328.8901796443858
 72
     1
 10
550.713141503847
 20
328.8901796443858
 11
550.5468988665947
 21
328.5541938684084
 72
     1
 10
550.5468988665947
 20
328.5541938684084
 11
551.8804194697634
 21
328.5541938684084
 72
     1
 10
551.8804194697634
 20
328.5541938684084
 11
551.7099532188722
 21
328.2096719302924
 72
     1
 10
551.7099532188722
 20
328.2096719302925
 11
550.3764326157037
 21
328.2096719302924
 72
     1
 10
550.3764326157037
 20
328.2096719302924
 11
550.2101829405374
 21
327.8736719302924
 72
     1
 10
550.2101829405374
 20
327.8736719302924
 11
551.5437035437059
 21
327.8736719302924
 72
     1
 10
551.5437035437059
 20
327.8736719302924
 11
551.3310939591219
 21
327.4439759302924
 72
     1
 10
551.3310939591219
 20
327.4439759302924
 11
548.7938323184305
 21
327.4439759302924
 72
     1
 10
548.7938323184306
 20
327.4439759302924
 11
549.722020745945
 21
329.3198972596603
 97
       12
330
49B
330
4C7
330
4C4
330
4C5
330
4C3
330
4C0
330
4C1
330
4BE
330
4C2
330
4BF
330
4C6
330
4C8
 75
     0
 76
     1
 98
        1
 10
445.9361222049322
 20
199.6083314766441
450
        0
451
        0
460
0.0
461
0.0
452
        0
462
0.0
453
        0
470

  0
LINE
  5
49A
102
{ACAD_REACTORS
330
496
102
}
330
18
100
AcDbEntity
  8
ROGO
 62
     4
100
AcDbLine
 10
546.0823288861713
 20
326.6824564330678
 30
0.0
 11
563.5152700111197
 21
326.6824564330678
 31
0.0
  0
LINE
  5
49B
102
{ACAD_REACTORS
330
499
102
}
330
18
100
AcDbEntity
  8
ROGO
 62
     4
100
AcDbLine
 10
549.722020745945
 20
329.3198972596603
 30
0.0
 11
552.2592823866363
 21
329.3198972596603
 31
0.0
  0
LINE
  5
49C
102
{ACAD_REACTORS
330
495
102
}
330
18
100
AcDbEntity
  8
ROGO
 62
     4
100
AcDbLine
 10
565.2118821731903
 20
326.3886418526517
 30
0.0
 11
566.2919781731902
 21
326.3886418526517
 31
0.0
  0
LINE
  5
49D
102
{ACAD_REACTORS
330
495
102
}
330
18
100
AcDbEntity
  8
ROGO
 62
     4
100
AcDbLine
 10
566.2566567867566
 20
329.3198972596603
 30
0.0
 11
567.3367527867565
 21
329.3198972596603
 31
0.0
  0
LINE
  5
49E
102
{ACAD_REACTORS
330
495
102
}
330
18
100
AcDbEntity
  8
ROGO
 62
     4
100
AcDbLine
 10
565.5611688648547
 20
327.8542695561559
 30
0.0
 11
567.3367527867565
 21
329.3198972596603
 31
0.0
  0
LINE
  5
49F
102
{ACAD_REACTORS
330
495
102
}
330
18
100
AcDbEntity
  8
ROGO
 62
     4
100
AcDbLine
 10
564.8303831886679
 20
327.1537326556796
 30
0.0
 11
564.4488842041455
 21
326.3886418526517
 31
0.0
  0
LINE
  5
4A0
102
{ACAD_REACTORS
330
495
102
}
330
18
100
AcDbEntity
  8
ROGO
 62
     4
100
AcDbLine
 10
565.5611688648547
 20
327.8542695561559
 30
0.0
 11
566.2919781731902
 21
326.3886418526517
 31
0.0
  0
LINE
  5
4A1
102
{ACAD_REACTORS
330
495
102
}
330
18
100
AcDbEntity
  8
ROGO
 62
     4
100
AcDbLine
 10
564.8303831886679
 20
327.1537326556796
 30
0.0
 11
565.2118821731903
 21
326.3886418526517
 31
0.0
  0
LINE
  5
4A2
102
{ACAD_REACTORS
330
495
102
}
330
18
100
AcDbEntity
  8
ROGO
 62
     4
100
AcDbLine
 10
565.7509238109296
 20
328.9998638184865
 30
0.0
 11
566.2566567867566
 21
329.3198972596603
 31
0.0
  0
LINE
  5
4A3
102
{ACAD_REACTORS
330
495
102
}
330
18
100
AcDbEntity
  8
ROGO
 62
     4
100
AcDbLine
 10
565.9105028208167
 20
329.3198972596603
 30
0.0
 11
565.7509238109296
 21
328.9998638184865
 31
0.0
  0
LINE
  5
4A4
102
{ACAD_REACTORS
330
496
330
495
102
}
330
18
100
AcDbEntity
  8
ROGO
 62
     4
100
AcDbLine
 10
564.8303831886679
 20
329.3198972596603
 30
0.0
 11
563.3687645719967
 21
326.3886418526517
 31
0.0
  0
LINE
  5
4A5
102
{ACAD_REACTORS
330
495
102
}
330
18
100
AcDbEntity
  8
ROGO
 62
     4
100
AcDbLine
 10
564.8303831886679
 20
329.3198972596603
 30
0.0
 11
565.9105028208167
 21
329.3198972596603
 31
0.0
  0
LINE
  5
4A6
102
{ACAD_REACTORS
330
497
102
}
330
18
100
AcDbEntity
  8
ROGO
 62
     4
100
AcDbLine
 10
564.437487289922
 20
329.3198972596603
 30
0.0
 11
564.0894597177211
 21
328.6219328993504
 31
0.0
  0
LINE
  5
4A7
102
{ACAD_REACTORS
330
497
102
}
330
18
100
AcDbEntity
  8
ROGO
 62
     4
100
AcDbLine
 10
562.9155069700765
 20
328.6219328993504
 30
0.0
 11
564.0894597177211
 21
328.6219328993504
 31
0.0
  0
LINE
  5
4A8
102
{ACAD_REACTORS
330
497
102
}
330
18
100
AcDbEntity
  8
ROGO
 62
     4
100
AcDbLine
 10
562.6505718996325
 20
328.1419328993504
 30
0.0
 11
563.8501162151642
 21
328.1419328993504
 31
0.0
  0
LINE
  5
4A9
102
{ACAD_REACTORS
330
497
102
}
330
18
100
AcDbEntity
  8
ROGO
 62
     4
100
AcDbLine
 10
563.8501162151642
 20
328.1419328993504
 30
0.0
 11
563.5020923284802
 21
327.4439759302924
 31
0.0
  0
SPLINE
  5
4AA
102
{ACAD_REACTORS
330
497
102
}
330
18
100
AcDbEntity
  8
ROGO
 62
     4
100
AcDbSpline
210
0.0
220
0.0
230
1.0
 70
     8
 71
     3
 72
    26
 73
    22
 74
    20
 42
0.0000000001
 43
0.0000000001
 44
0.0000000001
 40
0.0
 40
0.0
 40
0.0
 40
0.0
 40
0.3403136209416859
 40
0.5681272389515052
 40
0.7323994099695983
 40
0.8550561247335963
 40
1.014148321321381
 40
1.13027011535639
 40
1.339959009792003
 40
1.510642755247356
 40
1.626735051276114
 40
1.740569491433573
 40
1.94419717410045
 40
2.088186249714629
 40
2.165735491582895
 40
2.275891898886364
 40
2.355438312276665
 40
2.470674802864995
 40
2.535888688806186
 40
2.677801419664424
 40
2.74260000535881
 40
2.74260000535881
 40
2.74260000535881
 40
2.74260000535881
 10
562.5588639440557
 20
329.3198972596603
 30
0.0
 10
562.4433562429719
 20
329.3130058721386
 30
0.0
 10
562.2505250800205
 20
329.3015012342862
 30
0.0
 10
562.0387976361469
 20
329.1728790859171
 30
0.0
 10
561.8836737155605
 20
329.0981038211422
 30
0.0
 10
561.7730395235263
 20
328.9964532191143
 30
0.0
 10
561.6919442122866
 20
328.8914555726551
 30
0.0
 10
561.5897083484333
 20
328.7663516467619
 30
0.0
 10
561.5063379228533
 20
328.6206731875266
 30
0.0
 10
561.4638824335204
 20
328.4601101288648
 30
0.0
 10
561.4262757640147
 20
328.3321404394949
 30
0.0
 10
561.3983860283394
 20
328.1895349210771
 30
0.0
 10
561.4054819666436
 20
328.0354707951882
 30
0.0
 10
561.4156436750497
 20
327.8923839223255
 30
0.0
 10
561.461013232084
 20
327.7902413181447
 30
0.0
 10
561.5126811212128
 20
327.7175228225313
 30
0.0
 10
561.5759477438624
 20
327.6374314615332
 30
0.0
 10
561.645175264316
 20
327.5843872124899
 30
0.0
 10
561.7024320744739
 20
327.4882939908605
 30
0.0
 10
561.8026581891347
 20
327.4760318027515
 30
0.0
 10
561.8663658949571
 20
327.4516263886417
 30
0.0
 10
561.8863365927593
 20
327.4439759302924
 30
0.0
 11
562.5588639440557
 21
329.3198972596603
 31
0.0
 11
562.2226002684075
 21
329.2675512852406
 31
0.0
 11
562.0188038350146
 21
329.1657374439072
 31
0.0
 11
561.8761466246063
 21
329.0842864372252
 31
0.0
 11
561.7844386690295
 21
329.0028350986197
 31
0.0
 11
561.6825407452998
 21
328.8806584226348
 31
0.0
 11
561.6112121400956
 21
328.7890259986272
 31
0.0
 11
561.5093136304325
 21
328.6057608186882
 31
0.0
 11
561.4583649615342
 21
328.4428584734007
 31
0.0
 11
561.4277956430087
 21
328.3308632147416
 31
0.0
 11
561.4074157067027
 21
328.2188679560825
 31
0.0
 11
561.4074157067027
 21
328.0152402734156
 31
0.0
 11
561.4277956430087
 21
327.8727007627795
 31
0.0
 11
561.4583649615342
 21
327.8014308414997
 31
0.0
 11
561.5195035985854
 21
327.7097984174919
 31
0.0
 11
561.5704528534171
 21
327.6487099135378
 31
0.0
 11
561.6519708408406
 21
327.5672589068557
 31
0.0
 11
561.6927301275194
 21
327.5163518202273
 31
0.0
 11
561.8251979557081
 21
327.4654450655223
 31
0.0
 11
561.8863365927593
 21
327.4439759302924
 31
0.0
  0
SPLINE
  5
4AB
102
{ACAD_REACTORS
330
497
102
}
330
18
100
AcDbEntity
  8
ROGO
 62
     4
100
AcDbSpline
210
0.0
220
0.0
230
1.0
 70
     8
 71
     3
 72
    16
 73
    12
 74
    10
 42
0.0000000001
 43
0.0000000001
 44
0.0000000001
 40
0.0
 40
0.0
 40
0.0
 40
0.0
 40
0.1794152893756658
 40
0.2670467197815217
 40
0.3102605435413978
 40
0.3558008766977931
 40
0.4210145035340376
 40
0.4803947587045328
 40
0.5423269814405045
 40
0.6461608279444525
 40
0.7489346372632488
 40
0.7489346372632488
 40
0.7489346372632488
 40
0.7489346372632488
 10
562.9155069700766
 20
328.6219328993504
 30
0.0
 10
562.8547488163317
 20
328.6126699089162
 30
0.0
 10
562.7643146860296
 20
328.5988826156513
 30
0.0
 10
562.6825350411855
 20
328.5341467485428
 30
0.0
 10
562.6364169995793
 20
328.4956332166623
 30
0.0
 10
562.620727436363
 20
328.4446303678306
 30
0.0
 10
562.578590196562
 20
328.4054680092081
 30
0.0
 10
562.5438571253089
 20
328.3516463224708
 30
0.0
 10
562.5355636552206
 20
328.2777213639579
 30
0.0
 10
562.5416512521458
 20
328.1739789509046
 30
0.0
 10
562.6143894158158
 20
328.1525783166198
 30
0.0
 10
562.6505718996326
 20
328.1419328993504
 30
0.0
 11
562.9155069700766
 21
328.6219328993504
 31
0.0
 11
562.7422804411427
 21
328.5752165667112
 31
0.0
 11
562.6709518359385
 21
328.5243098120061
 31
0.0
 11
562.640382517413
 21
328.4937655600291
 31
0.0
 11
562.6200025811069
 21
328.4530398907264
 31
0.0
 11
562.5792432944284
 21
328.4021331360214
 31
0.0
 11
562.5486739759028
 21
328.3512260493929
 31
0.0
 11
562.5384840077497
 21
328.2901378773622
 31
0.0
 11
562.5588639440557
 21
328.1883237041054
 31
0.0
 11
562.6505718996326
 21
328.1419328993504
 31
0.0
  0
LINE
  5
4AC
102
{ACAD_REACTORS
330
497
102
}
330
18
100
AcDbEntity
  8
ROGO
 62
     4
100
AcDbLine
 10
562.5588639440564
 20
329.3198972596603
 30
0.0
 11
564.437487289922
 21
329.3198972596603
 31
0.0
  0
LINE
  5
4AD
102
{ACAD_REACTORS
330
497
102
}
330
18
100
AcDbEntity
  8
ROGO
 62
     4
100
AcDbLine
 10
561.8863365927593
 20
327.4439759302924
 30
0.0
 11
563.5020923284802
 21
327.4439759302924
 31
0.0
  0
LINE
  5
4AE
102
{ACAD_REACTORS
330
498
102
}
330
18
100
AcDbEntity
  8
ROGO
 62
     4
100
AcDbLine
 10
556.5144785570167
 20
329.3198972596603
 30
0.0
 11
558.3931019028822
 21
329.3198972596603
 31
0.0
  0
LINE
  5
4AF
102
{ACAD_REACTORS
330
498
102
}
330
18
100
AcDbEntity
  8
ROGO
 62
     4
100
AcDbLine
 10
557.8057308281244
 20
328.1419328993504
 30
0.0
 11
557.4577069414403
 21
327.4439759302924
 31
0.0
  0
SPLINE
  5
4B0
102
{ACAD_REACTORS
330
498
102
}
330
18
100
AcDbEntity
  8
ROGO
 62
     4
100
AcDbSpline
210
0.0
220
0.0
230
1.0
 70
     8
 71
     3
 72
    16
 73
    12
 74
    10
 42
0.0000000001
 43
0.0000000001
 44
0.0000000001
 40
0.0
 40
0.0
 40
0.0
 40
0.0
 40
0.1794152893756658
 40
0.2670467197814556
 40
0.3102605435414121
 40
0.3558008766977565
 40
0.4210145035340276
 40
0.4803947587045229
 40
0.5423269814405317
 40
0.646160827944346
 40
0.7489346372632694
 40
0.7489346372632694
 40
0.7489346372632694
 40
0.7489346372632694
 10
556.8711215830368
 20
328.6219328993504
 30
0.0
 10
556.8103634292917
 20
328.6126699089161
 30
0.0
 10
556.7199292989896
 20
328.5988826156511
 30
0.0
 10
556.6381496541459
 20
328.534146748543
 30
0.0
 10
556.5920316125396
 20
328.4956332166623
 30
0.0
 10
556.5763420493235
 20
328.4446303678306
 30
0.0
 10
556.5342048095222
 20
328.4054680092083
 30
0.0
 10
556.4994717382691
 20
328.3516463224709
 30
0.0
 10
556.4911782681808
 20
328.2777213639578
 30
0.0
 10
556.497265865106
 20
328.1739789509046
 30
0.0
 10
556.5700040287761
 20
328.1525783166198
 30
0.0
 10
556.6061865125929
 20
328.1419328993504
 30
0.0
 11
556.8711215830368
 21
328.6219328993504
 31
0.0
 11
556.6978950541028
 21
328.5752165667112
 31
0.0
 11
556.6265664488987
 21
328.5243098120062
 31
0.0
 11
556.5959971303732
 21
328.4937655600291
 31
0.0
 11
556.5756171940672
 21
328.4530398907264
 31
0.0
 11
556.5348579073886
 21
328.4021331360214
 31
0.0
 11
556.504288588863
 21
328.351226049393
 31
0.0
 11
556.4940986207099
 21
328.2901378773622
 31
0.0
 11
556.514478557016
 21
328.1883237041055
 31
0.0
 11
556.6061865125929
 21
328.1419328993504
 31
0.0
  0
SPLINE
  5
4B1
102
{ACAD_REACTORS
330
498
102
}
330
18
100
AcDbEntity
  8
ROGO
 62
     4
100
AcDbSpline
210
0.0
220
0.0
230
1.0
 70
     8
 71
     3
 72
    26
 73
    22
 74
    20
 42
0.0000000001
 43
0.0000000001
 44
0.0000000001
 40
0.0
 40
0.0
 40
0.0
 40
0.0
 40
0.3403136209417982
 40
0.5681272389515159
 40
0.7323994099697078
 40
0.8550561247337057
 40
1.014148321321447
 40
1.13027011535643
 40
1.339959009791999
 40
1.510642755247373
 40
1.626735051276186
 40
1.740569491433665
 40
1.944197174100541
 40
2.088186249714737
 40
2.16573549158295
 40
2.275891898886404
 40
2.355438312276705
 40
2.470674802865115
 40
2.535888688806235
 40
2.677801419664453
 40
2.742600005358966
 40
2.742600005358966
 40
2.742600005358966
 40
2.742600005358966
 10
556.5144785570161
 20
329.3198972596603
 30
0.0
 10
556.3989708559323
 20
329.3130058721387
 30
0.0
 10
556.2061396929809
 20
329.3015012342863
 30
0.0
 10
555.9944122491069
 20
329.1728790859172
 30
0.0
 10
555.8392883285208
 20
329.0981038211422
 30
0.0
 10
555.7286541364865
 20
328.9964532191143
 30
0.0
 10
555.6475588252469
 20
328.8914555726553
 30
0.0
 10
555.5453229613934
 20
328.7663516467616
 30
0.0
 10
555.4619525358134
 20
328.6206731875268
 30
0.0
 10
555.4194970464805
 20
328.4601101288648
 30
0.0
 10
555.3818903769752
 20
328.3321404394949
 30
0.0
 10
555.3540006412995
 20
328.1895349210772
 30
0.0
 10
555.3610965796035
 20
328.0354707951881
 30
0.0
 10
555.37125828801
 20
327.8923839223256
 30
0.0
 10
555.4166278450444
 20
327.7902413181447
 30
0.0
 10
555.4682957341729
 20
327.7175228225313
 30
0.0
 10
555.5315623568227
 20
327.6374314615332
 30
0.0
 10
555.6007898772764
 20
327.5843872124899
 30
0.0
 10
555.6580466874341
 20
327.4882939908605
 30
0.0
 10
555.758272802095
 20
327.4760318027517
 30
0.0
 10
555.8219805079176
 20
327.4516263886417
 30
0.0
 10
555.8419512057196
 20
327.4439759302924
 30
0.0
 11
556.5144785570161
 21
329.3198972596603
 31
0.0
 11
556.1782148813676
 21
329.2675512852406
 31
0.0
 11
555.9744184479749
 21
329.1657374439072
 31
0.0
 11
555.8317612375665
 21
329.0842864372252
 31
0.0
 11
555.7400532819896
 21
329.0028350986197
 31
0.0
 11
555.6381553582601
 21
328.8806584226349
 31
0.0
 11
555.5668267530559
 21
328.7890259986272
 31
0.0
 11
555.4649282433927
 21
328.6057608186883
 31
0.0
 11
555.4139795744945
 21
328.4428584734008
 31
0.0
 11
555.3834102559689
 21
328.3308632147416
 31
0.0
 11
555.3630303196629
 21
328.2188679560825
 31
0.0
 11
555.3630303196629
 21
328.0152402734156
 31
0.0
 11
555.3834102559689
 21
327.8727007627795
 31
0.0
 11
555.4139795744945
 21
327.8014308414997
 31
0.0
 11
555.4751182115455
 21
327.7097984174919
 31
0.0
 11
555.5260674663773
 21
327.6487099135378
 31
0.0
 11
555.607585453801
 21
327.5672589068557
 31
0.0
 11
555.6483447404795
 21
327.5163518202273
 31
0.0
 11
555.7808125686683
 21
327.4654450655223
 31
0.0
 11
555.8419512057196
 21
327.4439759302924
 31
0.0
  0
LINE
  5
4B2
102
{ACAD_REACTORS
330
498
102
}
330
18
100
AcDbEntity
  8
ROGO
 62
     4
100
AcDbLine
 10
556.6061865125927
 20
328.1419328993504
 30
0.0
 11
557.8057308281245
 21
328.1419328993504
 31
0.0
  0
LINE
  5
4B3
102
{ACAD_REACTORS
330
498
102
}
330
18
100
AcDbEntity
  8
ROGO
 62
     4
100
AcDbLine
 10
556.8711215830367
 20
328.6219328993504
 30
0.0
 11
558.0450743306812
 21
328.6219328993505
 31
0.0
  0
LINE
  5
4B4
102
{ACAD_REACTORS
330
498
102
}
330
18
100
AcDbEntity
  8
ROGO
 62
     4
100
AcDbLine
 10
558.393101902882
 20
329.3198972596603
 30
0.0
 11
558.0450743306812
 21
328.6219328993504
 31
0.0
  0
LINE
  5
4B5
102
{ACAD_REACTORS
330
498
102
}
330
18
100
AcDbEntity
  8
ROGO
 62
     4
100
AcDbLine
 10
555.8419512057195
 20
327.4439759302924
 30
0.0
 11
557.4577069414403
 21
327.4439759302924
 31
0.0
  0
LINE
  5
4B6
102
{ACAD_REACTORS
330
490
102
}
330
18
100
AcDbEntity
  8
ROGO
 62
     4
100
AcDbLine
 10
555.3282091842827
 20
327.4439759302925
 30
0.0
 11
554.282198152671
 21
327.4439759302924
 31
0.0
  0
LINE
  5
4B7
102
{ACAD_REACTORS
330
490
102
}
330
18
100
AcDbEntity
  8
ROGO
 62
     4
100
AcDbLine
 10
552.9942741940616
 20
329.3198972596603
 30
0.0
 11
554.4948505980207
 21
329.3198972596603
 31
0.0
  0
LINE
  5
4B8
102
{ACAD_REACTORS
330
490
102
}
330
18
100
AcDbEntity
  8
ROGO
 62
     4
100
AcDbLine
 10
551.6415108653485
 20
327.4439759302924
 30
0.0
 11
552.6804355106222
 21
327.4439759302924
 31
0.0
  0
LINE
  5
4B9
102
{ACAD_REACTORS
330
490
102
}
330
18
100
AcDbEntity
  8
ROGO
 62
     4
100
AcDbLine
 10
552.9379932785949
 20
327.8011397447078
 30
0.0
 11
552.6804355106222
 21
327.4439759302925
 31
0.0
  0
LINE
  5
4BA
102
{ACAD_REACTORS
330
490
102
}
330
18
100
AcDbEntity
  8
ROGO
 62
     4
100
AcDbLine
 10
553.209647223088
 20
328.1778511899879
 30
0.0
 11
553.9561816831431
 21
328.1778511899879
 31
0.0
  0
LINE
  5
4BB
102
{ACAD_REACTORS
330
490
102
}
330
18
100
AcDbEntity
  8
ROGO
 62
     4
100
AcDbLine
 10
552.9379932785949
 20
327.8011397447078
 30
0.0
 11
554.1235318340011
 21
327.8011397447078
 31
0.0
  0
LINE
  5
4BC
102
{ACAD_REACTORS
330
490
102
}
330
18
100
AcDbEntity
  8
ROGO
 62
     4
100
AcDbLine
 10
553.6715997035354
 20
328.8184558640148
 30
0.0
 11
553.2096472230879
 21
328.1778511899879
 31
0.0
  0
LINE
  5
4BD
102
{ACAD_REACTORS
330
490
102
}
330
18
100
AcDbEntity
  8
ROGO
 62
     4
100
AcDbLine
 10
552.9942741940616
 20
329.3198972596603
 30
0.0
 11
551.6415108653485
 21
327.4439759302924
 31
0.0
  0
LINE
  5
4BE
102
{ACAD_REACTORS
330
499
102
}
330
18
100
AcDbEntity
  8
ROGO
 62
     4
100
AcDbLine
 10
550.3764326157037
 20
328.2096719302924
 30
0.0
 11
550.2101829405374
 21
327.8736719302924
 31
0.0
  0
LINE
  5
4BF
102
{ACAD_REACTORS
330
499
102
}
330
18
100
AcDbEntity
  8
ROGO
 62
     4
100
AcDbLine
 10
551.5437035437059
 20
327.8736719302924
 30
0.0
 11
551.3310939591219
 21
327.4439759302924
 31
0.0
  0
LINE
  5
4C0
102
{ACAD_REACTORS
330
499
102
}
330
18
100
AcDbEntity
  8
ROGO
 62
     4
100
AcDbLine
 10
551.8804194697634
 20
328.5541938684084
 30
0.0
 11
551.7099532188722
 21
328.2096719302924
 31
0.0
  0
LINE
  5
4C1
102
{ACAD_REACTORS
330
499
102
}
330
18
100
AcDbEntity
  8
ROGO
 62
     4
100
AcDbLine
 10
550.3764326157037
 20
328.2096719302924
 30
0.0
 11
551.7099532188722
 21
328.2096719302925
 31
0.0
  0
LINE
  5
4C2
102
{ACAD_REACTORS
330
499
102
}
330
18
100
AcDbEntity
  8
ROGO
 62
     4
100
AcDbLine
 10
550.2101829405374
 20
327.8736719302924
 30
0.0
 11
551.5437035437059
 21
327.8736719302924
 31
0.0
  0
LINE
  5
4C3
102
{ACAD_REACTORS
330
499
102
}
330
18
100
AcDbEntity
  8
ROGO
 62
     4
100
AcDbLine
 10
550.5468988665947
 20
328.5541938684084
 30
0.0
 11
551.8804194697634
 21
328.5541938684084
 31
0.0
  0
LINE
  5
4C4
102
{ACAD_REACTORS
330
499
102
}
330
18
100
AcDbEntity
  8
ROGO
 62
     4
100
AcDbLine
 10
550.713141503847
 20
328.8901796443858
 30
0.0
 11
552.0466621070155
 21
328.8901796443858
 31
0.0
  0
LINE
  5
4C5
102
{ACAD_REACTORS
330
499
102
}
330
18
100
AcDbEntity
  8
ROGO
 62
     4
100
AcDbLine
 10
550.713141503847
 20
328.8901796443858
 30
0.0
 11
550.5468988665947
 21
328.5541938684084
 31
0.0
  0
LINE
  5
4C6
102
{ACAD_REACTORS
330
499
102
}
330
18
100
AcDbEntity
  8
ROGO
 62
     4
100
AcDbLine
 10
548.7938323184305
 20
327.4439759302924
 30
0.0
 11
551.3310939591219
 21
327.4439759302924
 31
0.0
  0
LINE
  5
4C7
102
{ACAD_REACTORS
330
499
102
}
330
18
100
AcDbEntity
  8
ROGO
 62
     4
100
AcDbLine
 10
552.2592823866363
 20
329.3198972596603
 30
0.0
 11
552.0466621070155
 21
328.8901796443858
 31
0.0
  0
LINE
  5
4C8
102
{ACAD_REACTORS
330
499
102
}
330
18
100
AcDbEntity
  8
ROGO
 62
     4
100
AcDbLine
 10
549.722020745945
 20
329.3198972596603
 30
0.0
 11
548.7938323184306
 21
327.4439759302924
 31
0.0
  0
LINE
  5
4C9
102
{ACAD_REACTORS
330
496
330
494
102
}
330
18
100
AcDbEntity
  8
ROGO
 62
     4
100
AcDbLine
 10
546.4472382609186
 20
327.4439759302924
 30
0.0
 11
545.9697751883066
 21
326.3886418526517
 31
0.0
  0
LINE
  5
4CA
102
{ACAD_REACTORS
330
494
102
}
330
18
100
AcDbEntity
  8
ROGO
 62
     4
100
AcDbLine
 10
547.4458393197104
 20
328.0955849795191
 30
0.0
 11
546.7420446785046
 21
328.0955849795192
 31
0.0
  0
LINE
  5
4CB
102
{ACAD_REACTORS
330
494
102
}
330
18
100
AcDbEntity
  8
ROGO
 62
     4
100
AcDbLine
 10
547.5477372434401
 20
328.5944731007841
 30
0.0
 11
546.967755816158
 21
328.5944731007841
 31
0.0
  0
SPLINE
  5
4CC
102
{ACAD_REACTORS
330
494
102
}
330
18
100
AcDbEntity
  8
ROGO
 62
     4
100
AcDbSpline
210
0.0
220
0.0
230
1.0
 70
     8
 71
     3
 72
    15
 73
    11
 74
     9
 42
0.0000000001
 43
0.0000000001
 44
0.0000000001
 40
0.0
 40
0.0
 40
0.0
 40
0.0
 40
0.2199578613106558
 40
0.3202465475123651
 40
0.4340808827708152
 40
0.5116301246390283
 40
0.634275054953107
 40
0.7077360179240892
 40
0.8337709579493377
 40
0.875782631437913
 40
0.875782631437913
 40
0.875782631437913
 40
0.875782631437913
 10
547.5477372434401
 20
328.5944731007839
 30
0.0
 10
547.6303491506675
 20
328.594851507416
 30
0.0
 10
547.7506275436077
 20
328.5954024466585
 30
0.0
 10
547.8164000526996
 20
328.4466177267592
 30
0.0
 10
547.7869176780806
 20
328.3508235772771
 30
0.0
 10
547.7498559303319
 20
328.2524728426375
 30
0.0
 10
547.6843594281286
 20
328.1856420351098
 30
0.0
 10
547.596453528707
 20
328.1212727013427
 30
0.0
 10
547.5133782529128
 20
328.1134805052578
 30
0.0
 10
547.4593471115237
 20
328.0991640860375
 30
0.0
 10
547.4458393197103
 20
328.0955849795191
 30
0.0
 11
547.5477372434401
 21
328.5944731007839
 31
0.0
 11
547.7617230590526
 21
328.5435660141555
 31
0.0
 11
547.8024823457311
 21
328.4519335901479
 31
0.0
 11
547.7821029953586
 21
328.3399383314887
 31
0.0
 11
547.751533676833
 21
328.268668410209
 31
0.0
 11
547.6700151034759
 21
328.1770359862012
 31
0.0
 11
547.6088764664247
 21
328.1363103168985
 31
0.0
 11
547.4865986063889
 21
328.1057663968448
 31
0.0
 11
547.4458393197103
 21
328.0955849795191
 31
0.0
  0
LINE
  5
4CD
102
{ACAD_REACTORS
330
494
102
}
330
18
100
AcDbEntity
  8
ROGO
 62
     4
100
AcDbLine
 10
546.967755816158
 20
328.5944731007841
 30
0.0
 11
546.7420446785045
 21
328.0955849795192
 31
0.0
  0
LINE
  5
4CE
102
{ACAD_REACTORS
330
494
102
}
330
18
100
AcDbEntity
  8
ROGO
 62
     4
100
AcDbLine
 10
547.720964358749
 20
327.4439759302924
 30
0.0
 11
546.4472382609186
 21
327.4439759302924
 31
0.0
  0
SPLINE
  5
4CF
102
{ACAD_REACTORS
330
494
102
}
330
18
100
AcDbEntity
  8
ROGO
 62
     4
100
AcDbSpline
210
0.0
220
0.0
230
1.0
 70
     8
 71
     3
 72
    18
 73
    14
 74
     0
 42
0.0000000001
 43
0.0000000001
 40
0.1087402787915014
 40
0.1087402787915014
 40
0.1087402787915014
 40
0.1087402787915014
 40
0.5992371417938475
 40
1.083176791562496
 40
1.448211145705696
 40
1.714037220764907
 40
2.164002567013297
 40
2.740236056362883
 40
3.395137510199602
 40
4.071816045172726
 40
4.784906178399433
 40
5.506895915094292
 40
6.060470601257719
 40
6.060470601257719
 40
6.060470601257719
 40
6.060470601257719
 10
548.3611293270798
 20
329.3198972596603
 30
0.0
 10
548.4349286665599
 20
329.2928510384493
 30
0.0
 10
548.5800543063464
 20
329.2356711937132
 30
0.0
 10
548.7571760714138
 20
329.1051678940112
 30
0.0
 10
548.8537706341634
 20
328.9545124980501
 30
0.0
 10
548.9466837892249
 20
328.8060685804746
 30
0.0
 10
548.9596868156691
 20
328.5931006745368
 30
0.0
 10
548.9383869798874
 20
328.3238576237201
 30
0.0
 10
548.8008771643501
 20
328.0429302844047
 30
0.0
 10
548.5801658228053
 20
327.7972202404021
 30
0.0
 10
548.3061372898154
 20
327.6005571256283
 30
0.0
 10
548.0171647496621
 20
327.4461816449206
 30
0.0
 10
547.8106070967283
 20
327.4446434726226
 30
0.0
 10
547.7209643583075
 20
327.4439759302924
 30
0.0
  0
LINE
  5
4D0
102
{ACAD_REACTORS
330
494
102
}
330
18
100
AcDbEntity
  8
ROGO
 62
     4
100
AcDbLine
 10
546.0575603085296
 20
329.3198972596603
 30
0.0
 11
544.6072023941115
 21
326.3886418526516
 31
0.0
  0
LINE
  5
4D1
102
{ACAD_REACTORS
330
496
330
495
330
494
102
}
330
18
100
AcDbEntity
  8
ROGO
 62
     4
100
AcDbLine
 10
544.6072023941115
 20
326.3886418526517
 30
0.0
 11
564.4488842041455
 21
326.3886418526517
 31
0.0
  0
LINE
  5
4D2
102
{ACAD_REACTORS
330
494
102
}
330
18
100
AcDbEntity
  8
ROGO
 62
     4
100
AcDbLine
 10
546.0575603085296
 20
329.3198972596603
 30
0.0
 11
548.3611293270798
 21
329.3198972596603
 31
0.0
  0
TEXT
  5
4D3
330
18
100
AcDbEntity
  8
文字
100
AcDbText
 10
571.9051000008773
 20
326.3171984797352
 30
0.0
 40
3.0
  1
LB-2
  7
STYLE3
100
AcDbText
  0
LINE
  5
4D6
330
18
100
AcDbEntity
  8
隠れ線2
100
AcDbLine
 10
502.5768171648103
 20
315.9947925591053
 30
0.0
 11
477.1141344167244
 21
314.2442331201744
 31
0.0
  0
CIRCLE
  5
4D7
330
18
100
AcDbEntity
  8
隠れ線
 62
     4
 48
0.5
100
AcDbCircle
 10
460.5437636690862
 20
325.1078076312743
 30
0.0
 40
1.5
  0
ARC
  5
4D8
330
18
100
AcDbEntity
  8
中心線
 48
0.5
100
AcDbCircle
 10
475.1297636690862
 20
328.6078076312743
 30
0.0
 40
15.00004653326117
100
AcDbArc
 50
154.5978565838407
 51
210.8732936644376
  0
LINE
  5
4DB
330
18
100
AcDbEntity
  8
中心線
100
AcDbLine
 10
475.1660420603305
 20
362.4770034270314
 30
0.0
 11
457.2210547386162
 21
312.7918197800353
 31
0.0
  0
TEXT
  5
5D7
330
18
100
AcDbEntity
  8
文字
100
AcDbText
 10
505.3564805474819
 20
374.8583199760452
 30
0.0
 40
1.0
  1
0.1mm
 50
354.5
  7
STYLE3
100
AcDbText
  0
HATCH
  5
5D8
330
18
100
AcDbEntity
  8
ROGO
 62
     4
100
AcDbHatch
 10
0.0
 20
0.0
 30
0.0
210
0.0
220
0.0
230
1.0
  2
SOLID
 70
     1
 71
     1
 91
        1
 92
        7
 72
     0
 73
     1
 93
       11
 10
505.9012412169545
 20
382.6461428054007
 10
506.6538440998904
 20
382.573675390132
 10
506.9709954397362
 20
383.0811777837696
 10
507.1854837943147
 20
382.5224843099718
 10
507.9380702109047
 20
382.450018480232
 10
507.5271907789406
 20
383.5202661289092
 10
508.8627093520705
 20
384.4223547759018
 10
508.1101229354803
 20
384.4948206056415
 10
507.7362679662107
 20
384.3057592065049
 10
507.8689306962582
 20
384.518044776789
 10
507.1163278133221
 20
384.5905121920575
 97
       11
330
6AD
330
6B0
330
6B1
330
5DA
330
66C
330
634
330
66B
330
5D9
330
6AC
330
6AF
330
6AE
 75
     0
 76
     1
 47
0.0514683685270805
 98
        1
 10
506.9671835110552
 20
383.720505719281
450
        0
451
        0
460
0.0
461
0.0
452
        0
462
0.0
453
        0
470

  0
LINE
  5
5D9
102
{ACAD_REACTORS
330
5D8
102
}
330
18
100
AcDbEntity
  8
ROGO
 62
     4
100
AcDbLine
 10
506.9709954397362
 20
383.0811777837697
 30
0.0
 11
507.1854837943147
 21
382.5224843099718
 31
0.0
  0
LINE
  5
5DA
102
{ACAD_REACTORS
330
5D8
102
}
330
18
100
AcDbEntity
  8
ROGO
 62
     4
100
AcDbLine
 10
507.1163278133221
 20
384.5905121920576
 30
0.0
 11
507.868930696258
 21
384.5180447767889
 31
0.0
  0
LINE
  5
5DB
330
18
100
AcDbEntity
  8
目盛
100
AcDbLine
 10
508.9461673921
 20
396.9815087645731
 30
0.0
 11
507.7499201853242
 21
394.2303285414178
 31
0.0
  0
LINE
  5
5DC
330
18
100
AcDbEntity
  8
目盛
100
AcDbLine
 10
504.7530499273955
 20
353.4343188899569
 30
0.0
 11
504.1037310855813
 21
356.3632069113167
 31
0.0
  0
CIRCLE
  5
5DD
330
18
100
AcDbEntity
  8
外形線
100
AcDbCircle
 10
499.7749388068192
 20
375.8891270537154
 30
0.0
 40
23.0
  0
CIRCLE
  5
5DE
330
18
100
AcDbEntity
  8
外形線
100
AcDbCircle
 10
499.7749388068192
 20
375.8891270537154
 30
0.0
 40
15.5
  0
LINE
  5
5DF
330
18
100
AcDbEntity
  8
中心線
 48
0.2
100
AcDbLine
 10
496.3777786335104
 20
373.9952473878677
 30
0.0
 11
494.8739976877315
 21
358.3778851444091
 31
0.0
  0
LINE
  5
5E0
330
18
100
AcDbEntity
  8
目盛
100
AcDbLine
 10
484.5346776978571
 20
358.6631454755683
 30
0.0
 11
486.5225378425043
 21
360.9100126379352
 31
0.0
  0
LINE
  5
5E1
330
18
100
AcDbEntity
  8
目盛
100
AcDbLine
 10
483.483122539155
 20
359.6540809281056
 30
0.0
 11
484.899802214604
 21
361.065824069463
 31
0.0
  0
LINE
  5
5E2
330
18
100
AcDbEntity
  8
目盛
100
AcDbLine
 10
482.4958637362383
 20
360.7090886906138
 30
0.0
 11
483.9983920032453
 21
362.0290920265357
 31
0.0
  0
LINE
  5
5E3
330
18
100
AcDbEntity
  8
目盛
100
AcDbLine
 10
485.6463792045434
 20
357.7401931025174
 30
0.0
 11
486.8749496047413
 21
359.3183612721869
 31
0.0
  0
LINE
  5
5E4
330
18
100
AcDbEntity
  8
目盛
100
AcDbLine
 10
490.6037102215385
 20
354.7967453428575
 30
0.0
 11
491.7999574283142
 21
357.5479255660129
 31
0.0
  0
LINE
  5
5E5
330
18
100
AcDbEntity
  8
目盛
100
AcDbLine
 10
489.2974059404483
 20
355.4142325476594
 30
0.0
 11
490.2084957549154
 21
357.1946581568817
 31
0.0
  0
LINE
  5
5E6
330
18
100
AcDbEntity
  8
目盛
100
AcDbLine
 10
488.0324516948523
 20
356.1125248069873
 30
0.0
 11
489.0535375306755
 21
357.832229350181
 31
0.0
  0
LINE
  5
5E7
330
18
100
AcDbEntity
  8
目盛
100
AcDbLine
 10
486.813839681255
 20
356.8888662803128
 30
0.0
 11
487.9408917791302
 21
358.5410628693043
 31
0.0
  0
TEXT
  5
5E8
330
18
100
AcDbEntity
  8
文字
100
AcDbText
 10
496.7899973433936
 20
356.6860541934043
 30
0.0
 40
2.0
  1
5
 50
354.5
  7
STYLE3
100
AcDbText
  0
LINE
  5
5E9
330
18
100
AcDbEntity
  8
目盛
100
AcDbLine
 10
497.8580237564147
 20
355.9812030863718
 30
0.0
 11
497.570486498854
 21
352.9950144912703
 31
0.0
  0
LINE
  5
5EA
330
18
100
AcDbEntity
  8
目盛
100
AcDbLine
 10
496.137303259966
 20
353.1786094984444
 30
0.0
 11
496.453619394475
 21
355.1534371119462
 31
0.0
  0
LINE
  5
5EB
330
18
100
AcDbEntity
  8
目盛
100
AcDbLine
 10
494.7184761067039
 20
353.4518325429606
 30
0.0
 11
495.1581685154097
 21
355.4029016308523
 31
0.0
  0
LINE
  5
5EC
330
18
100
AcDbEntity
  8
目盛
100
AcDbLine
 10
493.319604501641
 20
353.813605338286
 30
0.0
 11
493.8809379194827
 21
355.7332159222364
 31
0.0
  0
LINE
  5
5ED
330
18
100
AcDbEntity
  8
目盛
100
AcDbLine
 10
491.9462091519191
 20
354.2625001324757
 30
0.0
 11
492.6269682523451
 21
356.1430763864966
 31
0.0
  0
LINE
  5
5EE
330
18
100
AcDbEntity
  8
目盛
100
AcDbLine
 10
503.3332776917068
 20
353.1660501410194
 30
0.0
 11
503.023856919108
 21
355.1419698725582
 31
0.0
  0
LINE
  5
5EF
330
18
100
AcDbEntity
  8
目盛
100
AcDbLine
 10
501.89946231809
 20
352.9874589954701
 30
0.0
 11
501.714721143197
 21
354.9789083918392
 31
0.0
  0
LINE
  5
5F0
330
18
100
AcDbEntity
  8
目盛
100
AcDbLine
 10
500.4572624207766
 20
352.8992502709695
 30
0.0
 11
500.3979299326064
 21
354.8983699912083
 31
0.0
  0
LINE
  5
5F1
330
18
100
AcDbEntity
  8
目盛
100
AcDbLine
 10
499.012369703883
 20
352.9017720870549
 30
0.0
 11
499.07868006066
 21
354.9006725189384
 31
0.0
  0
LINE
  5
5F2
330
18
100
AcDbEntity
  8
外形線
  6
Continuous
100
AcDbLine
 10
498.7756539434268
 20
404.114849892321
 30
0.0
 11
498.5973265770025
 21
402.2628493817483
 31
0.0
  0
LINE
  5
5F3
330
18
100
AcDbEntity
  8
外形線
  6
Continuous
100
AcDbLine
 10
506.141585811344
 20
403.4055913236714
 30
0.0
 11
505.9632584449196
 21
401.5535908130987
 31
0.0
  0
TEXT
  5
5F4
330
18
100
AcDbEntity
  8
文字
100
AcDbText
 10
481.9224303329184
 20
382.6985891474251
 30
0.0
 40
2.0
  1
2
 50
354.5
  7
STYLE3
100
AcDbText
  0
TEXT
  5
5F5
330
18
100
AcDbEntity
  8
文字
100
AcDbText
 10
480.6527611804688
 20
370.6152003457544
 30
0.0
 40
2.0
  1
3
 50
354.5
  7
STYLE3
100
AcDbText
  0
LINE
  5
5F6
330
18
100
AcDbEntity
  8
目盛
100
AcDbLine
 10
479.9574681166641
 20
364.2157447056191
 30
0.0
 11
482.5423555979885
 21
365.7383597945013
 31
0.0
  0
LINE
  5
5F7
330
18
100
AcDbEntity
  8
目盛
100
AcDbLine
 10
479.2635956258991
 20
365.4831287395444
 30
0.0
 11
481.0471906851097
 21
366.387998158168
 31
0.0
  0
LINE
  5
5F8
330
18
100
AcDbEntity
  8
目盛
100
AcDbLine
 10
481.6260048556213
 20
390.0176866559911
 30
0.0
 11
483.2041730252907
 21
388.7891162557932
 31
0.0
  0
LINE
  5
5F9
330
18
100
AcDbEntity
  8
目盛
100
AcDbLine
 10
482.548957228672
 20
391.1293881626773
 30
0.0
 11
484.795824391039
 21
389.1415280180301
 31
0.0
  0
LINE
  5
5FA
330
18
100
AcDbEntity
  8
目盛
100
AcDbLine
 10
477.0518618941231
 20
372.3307881688276
 30
0.0
 11
479.027781625662
 21
372.6402089414265
 31
0.0
  0
LINE
  5
5FB
330
18
100
AcDbEntity
  8
目盛
100
AcDbLine
 10
478.6506720359282
 20
366.7915804947671
 30
0.0
 11
480.4875647986143
 21
367.582671499893
 31
0.0
  0
LINE
  5
5FC
330
18
100
AcDbEntity
  8
目盛
100
AcDbLine
 10
478.1211162761422
 20
368.1359361099845
 30
0.0
 11
480.0040573657662
 21
368.8101266268306
 31
0.0
  0
LINE
  5
5FD
330
18
100
AcDbEntity
  8
目盛
100
AcDbLine
 10
477.6770182611945
 20
369.5108900277606
 30
0.0
 11
479.5985765695095
 21
370.0655193343654
 31
0.0
  0
LINE
  5
5FE
330
18
100
AcDbEntity
  8
目盛
100
AcDbLine
 10
477.3201306430608
 20
370.911015933139
 30
0.0
 11
480.2490186644204
 21
371.5603347749533
 31
0.0
  0
LINE
  5
5FF
330
18
100
AcDbEntity
  8
目盛
100
AcDbLine
 10
476.880826244374
 20
378.0935793616805
 30
0.0
 11
479.8670148394756
 21
377.8060421041199
 31
0.0
  0
LINE
  5
600
330
18
100
AcDbEntity
  8
目盛
100
AcDbLine
 10
476.8732707485737
 20
373.7646035424444
 30
0.0
 11
478.8647201449427
 21
373.9493447173376
 31
0.0
  0
LINE
  5
601
330
18
100
AcDbEntity
  8
目盛
100
AcDbLine
 10
476.7850620240733
 20
375.2068034397578
 30
0.0
 11
478.7841817443121
 21
375.266135927928
 31
0.0
  0
LINE
  5
602
330
18
100
AcDbEntity
  8
目盛
100
AcDbLine
 10
476.7875838401586
 20
376.6516961566515
 30
0.0
 11
478.7864842720422
 21
376.5853857998744
 31
0.0
  0
LINE
  5
603
330
18
100
AcDbEntity
  8
目盛
100
AcDbLine
 10
477.064421251548
 20
379.5267626005685
 30
0.0
 11
479.0392488650499
 21
379.2104464660596
 31
0.0
  0
LINE
  5
604
330
18
100
AcDbEntity
  8
目盛
100
AcDbLine
 10
477.3376442960644
 20
380.9455897538306
 30
0.0
 11
479.2887133839561
 21
380.5058973451249
 31
0.0
  0
LINE
  5
605
330
18
100
AcDbEntity
  8
目盛
100
AcDbLine
 10
477.6994170913898
 20
382.3444613588934
 30
0.0
 11
479.6190276753401
 21
381.7831279410519
 31
0.0
  0
LINE
  5
606
330
18
100
AcDbEntity
  8
目盛
100
AcDbLine
 10
478.1483118855795
 20
383.7178567086155
 30
0.0
 11
480.0288881396004
 21
383.0370976081894
 31
0.0
  0
LINE
  5
607
330
18
100
AcDbEntity
  8
目盛
100
AcDbLine
 10
478.6825570959612
 20
385.060355638996
 30
0.0
 11
481.4337373191166
 21
383.8641084322203
 31
0.0
  0
LINE
  5
608
330
18
100
AcDbEntity
  8
目盛
100
AcDbLine
 10
479.3000443007631
 20
386.3666599200862
 30
0.0
 11
481.0804699099854
 21
385.4555701056192
 31
0.0
  0
LINE
  5
609
330
18
100
AcDbEntity
  8
目盛
100
AcDbLine
 10
479.9983365600911
 20
387.6316141656823
 30
0.0
 11
481.7180411032847
 21
386.610528329859
 31
0.0
  0
LINE
  5
60A
330
18
100
AcDbEntity
  8
目盛
100
AcDbLine
 10
480.7746780334166
 20
388.8502261792795
 30
0.0
 11
482.4268746224081
 21
387.7231740814043
 31
0.0
  0
HATCH
  5
60B
330
18
100
AcDbEntity
  8
針
  6
Continuous
100
AcDbHatch
 10
0.0
 20
0.0
 30
0.0
210
0.0
220
0.0
230
1.0
  2
SOLID
 70
     1
 71
     0
 91
        1
 92
        1
 93
        3
 72
     1
 10
501.9793911147843
 20
398.7832396161605
 11
500.4081832691126
 21
377.2489069811208
 72
     2
 10
499.7749388068192
 20
375.8891270537154
 40
1.5
 50
65.02877936551249
 51
103.9712206344912
 73
     1
 72
     1
 10
499.4127870707455
 20
377.344752733641
 11
501.9793911147841
 21
398.7832396161595
 97
        0
 75
     0
 76
     1
 98
        1
 10
274.6364625160172
 20
411.8890253558815
450
        0
451
        0
460
0.0
461
0.0
452
        0
462
0.0
453
        0
470

  0
LINE
  5
60C
330
18
100
AcDbEntity
  8
針
  6
Continuous
100
AcDbLine
 10
501.9793911147842
 20
398.7832396161596
 30
0.0
 11
499.4127870707455
 21
377.344752733641
 31
0.0
  0
LINE
  5
60D
330
18
100
AcDbEntity
  8
針
  6
Continuous
100
AcDbLine
 10
501.9793911147843
 20
398.7832396161605
 30
0.0
 11
500.4081832691126
 21
377.2489069811208
 31
0.0
  0
LINE
  5
60E
330
18
100
AcDbEntity
  8
目盛
100
AcDbLine
 10
492.4766783722155
 20
362.6107009425517
 30
0.0
 11
492.8079883963234
 21
362.9851788029462
 31
0.0
  0
LINE
  5
60F
330
18
100
AcDbEntity
  8
目盛
100
AcDbLine
 10
493.2133163771769
 20
370.2609791283967
 30
0.0
 11
493.4670855586573
 21
369.8301645481759
 31
0.0
  0
LINE
  5
610
330
18
100
AcDbEntity
  8
中心線
 48
0.2
100
AcDbLine
 10
488.6968875367795
 20
366.8352575835861
 30
0.0
 11
503.157991012425
 21
365.4428116940301
 31
0.0
  0
CIRCLE
  5
611
330
18
100
AcDbEntity
  8
外形線
100
AcDbCircle
 10
495.6241236012403
 20
366.1682406162995
 30
0.0
 40
4.75
  0
TEXT
  5
612
330
18
100
AcDbEntity
  8
文字
100
AcDbText
 10
486.1746198224845
 20
361.4085391932282
 30
0.0
 40
2.0
  1
4
 50
354.5
  7
STYLE3
100
AcDbText
  0
LINE
  5
613
330
18
100
AcDbEntity
  8
目盛
100
AcDbLine
 10
481.5767975485669
 20
361.8240051294411
 30
0.0
 11
483.1592446145019
 21
363.0470592098129
 31
0.0
  0
LINE
  5
614
330
18
100
AcDbEntity
  8
目盛
100
AcDbLine
 10
480.7295511105017
 20
362.9944301787608
 30
0.0
 11
482.3856717797467
 21
364.1157081678873
 31
0.0
  0
TEXT
  5
615
330
18
100
AcDbEntity
  8
文字
100
AcDbText
 10
491.8822420312839
 20
367.2465145380008
 30
0.0
 40
0.7
  1
80
 50
354.5
  7
STYLE3
100
AcDbText
  0
TEXT
  5
616
330
18
100
AcDbEntity
  8
文字
100
AcDbText
 10
491.6401983508299
 20
365.0378996566629
 30
0.0
 40
0.7
  1
70
 50
354.5
  7
STYLE3
100
AcDbText
  0
LINE
  5
617
330
18
100
AcDbEntity
  8
目盛
100
AcDbLine
 10
490.9867175674206
 20
365.1401524500935
 30
0.0
 11
491.4748655709806
 21
365.2483722570626
 31
0.0
  0
LINE
  5
618
330
18
100
AcDbEntity
  8
目盛
100
AcDbLine
 10
491.2680882479109
 20
368.0622986936944
 30
0.0
 11
491.7266182851036
 21
367.8629241592318
 31
0.0
  0
HATCH
  5
619
330
18
100
AcDbEntity
  8
針
100
AcDbHatch
 10
0.0
 20
0.0
 30
0.0
210
0.0
220
0.0
230
1.0
  2
SOLID
 70
     1
 71
     0
 91
        3
 92
        7
 72
     1
 73
     1
 93
        5
 10
498.9252101097344
 20
369.5836948852715
 42
0.0105298176880202
 10
498.7784740400005
 20
369.7196591088872
 42
0.0
 10
498.44643715171
 20
369.3458255833516
 42
0.0
 10
496.3878084443087
 20
367.0280577250313
 42
-0.0437283108272093
 10
496.5257040713534
 20
366.8821402282274
 42
0.0
 97
        0
 92
        7
 72
     1
 73
     1
 93
        4
 10
498.7784740400005
 20
369.7196591088872
 42
0.0105298176880232
 10
498.6261432893059
 20
369.8493243959039
 42
0.0
 10
496.226637250925
 20
367.1477697388597
 42
-0.0437283108272093
 10
496.3878084443087
 20
367.0280577250313
 42
0.0
 97
        0
 92
      137
 93
        4
 72
     1
 10
497.0250156024127
 20
368.6392312584944
 11
497.8972938286623
 21
367.8644785191498
 72
     1
 10
497.8972938286623
 20
367.8644785191498
 11
498.893404493534
 21
368.9859790957564
 72
     1
 10
498.893404493534
 20
368.9859790957564
 11
498.0211262672844
 21
369.760731835101
 72
     1
 10
498.0211262672845
 20
369.760731835101
 11
497.0250156024128
 21
368.6392312584943
 97
        0
 75
     0
 76
     1
 47
0.0128177587452554
 98
        3
 10
496.8534572468828
 20
367.3283974149237
 10
497.5960316164701
 20
368.2803525943371
 10
497.4277049257816
 20
368.3612845738833
450
        0
451
        0
460
0.0
461
0.0
452
        0
462
0.0
453
        0
470

  0
LINE
  5
61A
330
18
100
AcDbEntity
  8
針
 48
0.2
100
AcDbLine
 10
498.6261432893059
 20
369.8493243959039
 30
0.0
 11
496.226637250925
 21
367.1477697388597
 31
0.0
  0
LINE
  5
61B
330
18
100
AcDbEntity
  8
針
 48
0.2
100
AcDbLine
 10
498.9252101097344
 20
369.5836948852715
 30
0.0
 11
496.5257040713534
 21
366.8821402282274
 31
0.0
  0
LINE
  5
61C
330
18
100
AcDbEntity
  8
目盛
100
AcDbLine
 10
496.0793909257114
 20
370.8963725585436
 30
0.0
 11
496.0314680494513
 21
370.39867445936
 31
0.0
  0
TEXT
  5
61D
330
18
100
AcDbEntity
  8
文字
100
AcDbText
 10
498.0584381279979
 20
364.3078561764694
 30
0.0
 40
0.7
  1
30
 50
354.5
  7
STYLE3
100
AcDbText
  0
TEXT
  5
61E
330
18
100
AcDbEntity
  8
文字
100
AcDbText
 10
498.1836540183245
 20
366.4859211096894
 30
0.0
 40
0.7
  1
20
 50
354.5
  7
STYLE3
100
AcDbText
  0
TEXT
  5
61F
330
18
100
AcDbEntity
  8
文字
100
AcDbText
 10
493.3454572444758
 20
368.8954327771586
 30
0.0
 40
0.7
  1
90
 50
354.5
  7
STYLE3
100
AcDbText
  0
TEXT
  5
620
330
18
100
AcDbEntity
  8
文字
100
AcDbText
 10
492.7596382513512
 20
363.1248096505948
 30
0.0
 40
0.7
  1
60
 50
354.5
  7
STYLE3
100
AcDbText
  0
TEXT
  5
621
330
18
100
AcDbEntity
  8
文字
100
AcDbText
 10
494.5908970108691
 20
362.347385925221
 30
0.0
 40
0.7
  1
50
 50
354.5
  7
STYLE3
100
AcDbText
  0
TEXT
  5
622
330
18
100
AcDbEntity
  8
文字
100
AcDbText
 10
496.7176645521877
 20
362.8254190430175
 30
0.0
 40
0.7
  1
40
 50
354.5
  7
STYLE3
100
AcDbText
  0
TEXT
  5
623
330
18
100
AcDbEntity
  8
文字
100
AcDbText
 10
497.2636158989208
 20
368.4673170407295
 30
0.0
 40
0.7
  1
10
 50
354.5
  7
STYLE3
100
AcDbText
  0
TEXT
  5
624
330
18
100
AcDbEntity
  8
文字
100
AcDbText
 10
495.5552807202178
 20
369.2373404656876
 30
0.0
 40
0.7
  1
0
 50
354.5
  7
STYLE3
100
AcDbText
  0
CIRCLE
  5
625
330
18
100
AcDbEntity
  8
外形線
100
AcDbCircle
 10
495.6241236012403
 20
366.1682406162995
 30
0.0
 40
1.149999999999999
  0
LINE
  5
626
330
18
100
AcDbEntity
  8
目盛
100
AcDbLine
 10
498.771568830265
 20
369.7257802900472
 30
0.0
 11
498.4402588061572
 21
369.3513024296527
 31
0.0
  0
LINE
  5
627
330
18
100
AcDbEntity
  8
目盛
100
AcDbLine
 10
498.0349308253038
 20
362.0755021042022
 30
0.0
 11
497.7811616438233
 21
362.506316684423
 31
0.0
  0
LINE
  5
628
330
18
100
AcDbEntity
  8
目盛
100
AcDbLine
 10
495.1688562767692
 20
361.4401086740553
 30
0.0
 11
495.2167791530294
 21
361.937806773239
 31
0.0
  0
LINE
  5
629
330
18
100
AcDbEntity
  8
目盛
100
AcDbLine
 10
500.2615296350599
 20
367.1963287825055
 30
0.0
 11
499.7733816315
 21
367.0881089755364
 31
0.0
  0
LINE
  5
62A
330
18
100
AcDbEntity
  8
目盛
100
AcDbLine
 10
499.9801589545696
 20
364.2741825389046
 30
0.0
 11
499.5216289173771
 21
364.4735570733672
 31
0.0
  0
CIRCLE
  5
62B
330
18
100
AcDbEntity
  8
外形線
100
AcDbCircle
 10
499.7749388068192
 20
375.8891270537154
 30
0.0
 40
1.5
  0
POINT
  5
62C
330
18
100
AcDbEntity
  8
DEFPOINTS
  6
ByBlock
 62
     0
100
AcDbPoint
 10
499.7749388068191
 20
375.8891270537154
 30
0.0
  0
POINT
  5
62D
330
18
100
AcDbEntity
  8
DEFPOINTS
  6
ByBlock
 62
     0
100
AcDbPoint
 10
499.7749388068191
 20
375.8891270537154
 30
0.0
  0
HATCH
  5
62E
330
18
100
AcDbEntity
  8
ROGO
 62
     4
100
AcDbHatch
 10
0.0
 20
0.0
 30
0.0
210
0.0
220
0.0
230
1.0
  2
SOLID
 70
     1
 71
     1
 91
        2
 92
        5
 93
        6
 72
     1
 10
492.8286098498471
 20
383.9048940371766
 11
493.7780196953853
 21
383.8134762668003
 72
     1
 10
493.7780196953853
 20
383.8134762668003
 11
494.1815096467046
 21
384.5167751717775
 72
     1
 10
494.1815096467046
 20
384.5167751717775
 11
495.0690131272759
 21
384.4313183063612
 72
     4
 94
        3
 73
     0
 74
     0
 95
       18
 96
       14
 40
0.108740278791501
 40
0.108740278791501
 40
0.108740278791501
 40
0.108740278791501
 40
0.6623149649549278
 40
1.384304701649787
 40
2.097394834876493
 40
2.774073369849618
 40
3.428974823686337
 40
4.005208313035923
 40
4.455173659284313
 40
4.720999734343524
 40
5.086034088486724
 40
5.569973738255373
 40
6.060470601257719
 40
6.060470601257719
 40
6.060470601257719
 40
6.060470601257719
 10
495.0690131272759
 20
384.4313183063612
 10
495.1315189427687
 20
384.4257691217243
 10
495.2755468335972
 20
384.4129825137458
 10
495.4872537150113
 20
384.50116009698
 10
495.691385113959
 20
384.619805369074
 10
495.8616569600246
 20
384.7762025884305
 10
495.9763186679295
 20
384.9627205801064
 10
496.0092239727949
 20
385.148893987408
 10
496.0144522070772
 20
385.2981575975675
 10
495.9596718294396
 20
385.4078236873113
 10
495.9024747029168
 20
385.5192776781828
 10
495.7878160016759
 20
385.6220928782637
 10
495.690532056259
 20
385.6716712716238
 10
495.640924934684
 20
385.695467812925
 72
     1
 10
495.6409249346842
 20
385.6954678129249
 11
494.0358502440651
 21
385.8500189271706
 72
     1
 10
494.0358502440651
 20
385.8500189271706
 11
492.8286098498471
 21
383.9048940371766
 97
        6
330
661
330
635
330
63C
330
634
330
63A
330
633
 92
       20
 93
        4
 72
     1
 10
494.4306418495986
 20
384.951022431014
 11
494.6213836706274
 21
385.2834929508478
 72
     1
 10
494.6213836706274
 20
385.2834929508478
 11
495.0255015861155
 21
385.2445808214059
 72
     4
 94
        3
 73
     0
 74
     0
 95
       15
 96
       11
 40
0.0
 40
0.0
 40
0.0
 40
0.0
 40
0.1539705029175028
 40
0.2241725832587281
 40
0.3038566179396687
 40
0.3581410872474193
 40
0.443992538467216
 40
0.4954152125469665
 40
0.5836396705646186
 40
0.6130478420065743
 40
0.6130478420065743
 40
0.6130478420065743
 40
0.6130478420065743
 10
495.0255015861154
 20
385.2445808214059
 10
495.0830890790591
 20
385.2393018862812
 10
495.1669333012443
 20
385.2316160471021
 10
495.2027798266901
 20
385.1235334149678
 10
495.1758101525187
 20
385.0587642546806
 10
495.1433878164284
 20
384.9927222392956
 10
495.0932675235913
 20
384.9505503401517
 10
495.0276980158585
 20
384.9115970320221
 10
494.9692902520378
 20
384.9117412949972
 10
494.9306820595436
 20
384.9053909972951
 10
494.9210300067997
 20
384.9038034221097
 72
     1
 10
494.9210300067997
 20
384.9038034221097
 11
494.4306418495986
 21
384.951022431014
 97
        4
330
63B
330
632
330
660
330
631
 75
     0
 76
     1
 47
0.0514683685270805
 98
        2
 10
493.9832614376083
 20
385.2139422129953
 10
493.9832614376083
 20
385.2139422129953
450
        0
451
        0
460
0.0
461
0.0
452
        0
462
0.0
453
        0
470

  0
HATCH
  5
62F
330
18
100
AcDbEntity
  8
ROGO
 62
     4
100
AcDbHatch
 10
0.0
 20
0.0
 30
0.0
210
0.0
220
0.0
230
1.0
  2
SOLID
 70
     1
 71
     1
 91
        1
 92
        7
 72
     0
 73
     1
 93
        4
 10
493.8903549579915
 20
384.0092810617473
 10
493.7780196953853
 20
383.8134762668005
 10
505.9012412169544
 20
382.6461428054006
 10
506.0230355026477
 20
382.8410368000175
 97
        4
330
630
330
63A
330
634
330
66C
 75
     0
 76
     1
 47
0.0514683685270805
 98
        1
 10
501.5459446083728
 20
383.2174835679207
450
        0
451
        0
460
0.0
461
0.0
452
        0
462
0.0
453
        0
470

  0
LINE
  5
630
102
{ACAD_REACTORS
330
62F
102
}
330
18
100
AcDbEntity
  8
ROGO
 62
     4
100
AcDbLine
 10
493.8761571771549
 20
384.0106481525506
 30
0.0
 11
506.0230355026477
 21
382.8410368000175
 31
0.0
  0
LINE
  5
631
102
{ACAD_REACTORS
330
62E
102
}
330
18
100
AcDbEntity
  8
ROGO
 62
     4
100
AcDbLine
 10
494.9210300067998
 20
384.9038034221097
 30
0.0
 11
494.4306418495986
 21
384.9510224310139
 31
0.0
  0
LINE
  5
632
102
{ACAD_REACTORS
330
62E
102
}
330
18
100
AcDbEntity
  8
ROGO
 62
     4
100
AcDbLine
 10
495.0255015861155
 20
385.2445808214059
 30
0.0
 11
494.6213836706274
 21
385.2834929508478
 31
0.0
  0
LINE
  5
633
102
{ACAD_REACTORS
330
62E
102
}
330
18
100
AcDbEntity
  8
ROGO
 62
     4
100
AcDbLine
 10
495.0690131275836
 20
384.4313183063316
 30
0.0
 11
494.1815096467045
 21
384.5167751717775
 31
0.0
  0
LINE
  5
634
102
{ACAD_REACTORS
330
62F
330
5D8
330
62E
102
}
330
18
100
AcDbEntity
  8
ROGO
 62
     4
100
AcDbLine
 10
492.8286098498471
 20
383.9048940371767
 30
0.0
 11
506.6538440998904
 21
382.573675390132
 31
0.0
  0
LINE
  5
635
102
{ACAD_REACTORS
330
62E
102
}
330
18
100
AcDbEntity
  8
ROGO
 62
     4
100
AcDbLine
 10
494.0358502440651
 20
385.8500189271706
 30
0.0
 11
495.640924934684
 21
385.6954678129249
 31
0.0
  0
TEXT
  5
636
330
18
100
AcDbEntity
  8
文字
100
AcDbText
 10
489.4554647760555
 20
390.9650044856013
 30
0.0
 40
2.0
  1
1
 50
354.5
  7
STYLE3
100
AcDbText
  0
LINE
  5
637
330
18
100
AcDbEntity
  8
目盛
100
AcDbLine
 10
485.7098168825451
 20
394.0872683119677
 30
0.0
 11
486.9328709629168
 21
392.5048212460327
 31
0.0
  0
LINE
  5
638
330
18
100
AcDbEntity
  8
目盛
100
AcDbLine
 10
483.5398926812096
 20
392.1809433213795
 30
0.0
 11
484.9516358225669
 21
390.7642636459304
 31
0.0
  0
LINE
  5
639
330
18
100
AcDbEntity
  8
目盛
100
AcDbLine
 10
484.5949004437176
 20
393.1682021242961
 30
0.0
 11
485.9149037796394
 21
391.6656738572891
 31
0.0
  0
LINE
  5
63A
102
{ACAD_REACTORS
330
62F
330
62E
102
}
330
18
100
AcDbEntity
  8
ROGO
 62
     4
100
AcDbLine
 10
494.1815096467045
 20
384.5167751717775
 30
0.0
 11
493.7780196953853
 21
383.8134762668004
 31
0.0
  0
LINE
  5
63B
102
{ACAD_REACTORS
330
62E
102
}
330
18
100
AcDbEntity
  8
ROGO
 62
     4
100
AcDbLine
 10
494.6213836706274
 20
385.2834929508478
 30
0.0
 11
494.4306418495986
 21
384.9510224310139
 31
0.0
  0
LINE
  5
63C
102
{ACAD_REACTORS
330
62E
102
}
330
18
100
AcDbEntity
  8
ROGO
 62
     4
100
AcDbLine
 10
494.0358502440651
 20
385.8500189271706
 30
0.0
 11
492.8286098498471
 21
383.9048940371766
 31
0.0
  0
LINE
  5
63D
330
18
100
AcDbEntity
  8
目盛
100
AcDbLine
 10
488.1015564587229
 20
395.7065977438705
 30
0.0
 11
489.624171547605
 21
393.1217102625459
 31
0.0
  0
LINE
  5
63E
330
18
100
AcDbEntity
  8
目盛
100
AcDbLine
 10
489.368940492648
 20
396.4004702346352
 30
0.0
 11
490.2738099112717
 21
394.6168751754248
 31
0.0
  0
LINE
  5
63F
330
18
100
AcDbEntity
  8
目盛
100
AcDbLine
 10
486.8802419318646
 20
394.9345147500328
 30
0.0
 11
488.001519920991
 21
393.2783940807878
 31
0.0
  0
LINE
  5
640
330
18
100
AcDbEntity
  8
目盛
100
AcDbLine
 10
490.6773922478708
 20
397.0133938246064
 30
0.0
 11
491.4684832529968
 21
395.1765010619202
 31
0.0
  0
LINE
  5
641
330
18
100
AcDbEntity
  8
目盛
100
AcDbLine
 10
492.0217478630881
 20
397.5429495843922
 30
0.0
 11
492.6959383799343
 21
395.6600084947681
 31
0.0
  0
LINE
  5
642
330
18
100
AcDbEntity
  8
目盛
100
AcDbLine
 10
493.3967017808645
 20
397.98704759934
 30
0.0
 11
493.9513310874692
 21
396.0654892910248
 31
0.0
  0
LINE
  5
643
330
18
100
AcDbEntity
  8
目盛
100
AcDbLine
 10
494.7968276862428
 20
398.3439352174739
 30
0.0
 11
495.446146528057
 21
395.415047196114
 31
0.0
  0
HATCH
  5
644
330
18
100
AcDbEntity
  8
ROGO
 62
     4
100
AcDbHatch
 10
0.0
 20
0.0
 30
0.0
210
0.0
220
0.0
230
1.0
  2
SOLID
 70
     1
 71
     1
 91
        1
 92
        5
 93
        8
 72
     1
 10
502.341650520389
 20
384.559426565967
 11
502.6309760895381
 21
385.0224024403719
 72
     1
 10
502.6309760895381
 20
385.0224024403719
 11
501.3219939138909
 21
385.1484430881725
 72
     4
 94
        3
 73
     0
 74
     0
 95
       26
 96
       22
 40
0.0
 40
0.0
 40
0.0
 40
0.0
 40
0.2382195346591896
 40
0.397689067266058
 40
0.5126795869787669
 40
0.5985392873135731
 40
0.7099038249249733
 40
0.7911890807494741
 40
0.9379713068543702
 40
1.057449928673087
 40
1.138714535893316
 40
1.218398644003506
 40
1.36093802187036
 40
1.461730374800257
 40
1.516014844108008
 40
1.593124329220501
 40
1.648806818593631
 40
1.729472362005518
 40
1.775122082164342
 40
1.874460993765092
 40
1.919820003751207
 40
1.919820003751207
 40
1.919820003751207
 40
1.919820003751207
 10
501.321993913891
 20
385.1484430881725
 10
501.2410484081563
 20
385.1513909712868
 10
501.1059161541155
 20
385.1563122338852
 10
500.9497597485892
 20
385.0808964589576
 10
500.8366560919447
 20
385.0392023271871
 10
500.7527487491203
 20
384.9757971633859
 10
500.6891988690548
 20
384.908078031492
 10
500.6095697599588
 20
384.8277676622414
 10
500.5417052735979
 20
384.731855703911
 10
500.5013507496914
 20
384.6228274280045
 10
500.4665615287661
 20
384.5361841560679
 10
500.4375608997022
 20
384.4386910413309
 10
500.4321687142528
 20
384.330866568798
 10
500.4296491740909
 20
384.2304851086871
 10
500.4544086989729
 20
384.1562705212272
 10
500.4855308820103
 20
384.1021354179677
 10
500.5242401392431
 20
384.0420848866459
 10
500.5689174605438
 20
384.0004802413007
 10
500.6023656193598
 20
383.9296831866121
 10
500.6713782097643
 20
383.9144147986457
 10
500.7141308867953
 20
383.8931353800444
 10
500.7275327317087
 20
383.8864648394433
 72
     1
 10
500.7275327317086
 20
383.8864648394433
 11
501.8533547134872
 21
383.778060512378
 72
     1
 10
501.8533547134872
 20
383.778060512378
 11
502.1426772187577
 21
384.2410314839949
 72
     1
 10
502.1426772187577
 20
384.2410314839949
 11
501.3068619227407
 21
384.3215113433174
 72
     4
 94
        3
 73
     0
 74
     0
 95
       16
 96
       12
 40
0.0
 40
0.0
 40
0.0
 40
0.0
 40
0.0719416665231651
 40
0.1446253590759065
 40
0.1879779149910977
 40
0.2295440936104405
 40
0.2751936323958134
 40
0.3070718656052443
 40
0.3373215422372259
 40
0.3986635435212919
 40
0.5242542460842631
 40
0.5242542460842631
 40
0.5242542460842631
 40
0.5242542460842631
 10
501.3068619227406
 20
384.3215113433174
 10
501.2823650105739
 20
384.331356385006
 10
501.2331185183867
 20
384.3511480128366
 10
501.2358371075543
 20
384.4238418045462
 10
501.2465755848674
 20
384.474794614697
 10
501.2743878078726
 20
384.5099660342084
 10
501.3063755637007
 20
384.5344264054122
 10
501.3207295803054
 20
384.5689113901
 10
501.3554475375205
 20
384.5926525934722
 10
501.4167730013565
 20
384.6322723165637
 10
501.480710471459
 20
384.6358115809843
 10
501.5236668489413
 20
384.6381894351318
 72
     1
 10
501.5236668489412
 20
384.6381894351318
 11
502.341650520389
 21
384.559426565967
 97
        8
330
675
330
645
330
646
330
676
330
678
330
677
330
679
330
67A
 75
     0
 76
     1
 47
0.0514683685270805
 98
        1
 10
501.7517756749742
 20
384.8133863407141
450
        0
451
        0
460
0.0
461
0.0
452
        0
462
0.0
453
        0
470

  0
SPLINE
  5
645
102
{ACAD_REACTORS
330
644
102
}
330
18
100
AcDbEntity
  8
ROGO
 62
     4
100
AcDbSpline
210
0.0
220
0.0
230
1.0
 70
     8
 71
     3
 72
    26
 73
    22
 74
    20
 42
0.0000000001
 43
0.0000000001
 44
0.0000000001
 40
0.0
 40
0.0
 40
0.0
 40
0.0
 40
0.2382195346592064
 40
0.397689067266054
 40
0.5126795869787577
 40
0.5985392873135769
 40
0.7099038249249724
 40
0.7911890807494518
 40
0.9379713068543955
 40
1.057449928673086
 40
1.138714535893307
 40
1.218398644003532
 40
1.36093802187035
 40
1.461730374800237
 40
1.516014844108025
 40
1.593124329220492
 40
1.648806818593623
 40
1.72947236200552
 40
1.775122082164358
 40
1.874460993765096
 40
1.919820003751198
 40
1.919820003751198
 40
1.919820003751198
 40
1.919820003751198
 10
501.321993913891
 20
385.1484430881725
 30
0.0
 10
501.2410484081563
 20
385.1513909712868
 30
0.0
 10
501.1059161541157
 20
385.1563122338852
 30
0.0
 10
500.9497597485891
 20
385.0808964589575
 30
0.0
 10
500.8366560919447
 20
385.0392023271872
 30
0.0
 10
500.7527487491204
 20
384.9757971633858
 30
0.0
 10
500.6891988690548
 20
384.908078031492
 30
0.0
 10
500.6095697599588
 20
384.8277676622414
 30
0.0
 10
500.541705273598
 20
384.7318557039112
 30
0.0
 10
500.5013507496914
 20
384.6228274280044
 30
0.0
 10
500.466561528766
 20
384.536184156068
 30
0.0
 10
500.4375608997022
 20
384.4386910413309
 30
0.0
 10
500.4321687142528
 20
384.3308665687979
 30
0.0
 10
500.4296491740908
 20
384.2304851086871
 30
0.0
 10
500.4544086989729
 20
384.1562705212272
 30
0.0
 10
500.4855308820102
 20
384.1021354179676
 30
0.0
 10
500.5242401392432
 20
384.0420848866461
 30
0.0
 10
500.5689174605438
 20
384.0004802413007
 30
0.0
 10
500.6023656193598
 20
383.9296831866121
 30
0.0
 10
500.6713782097643
 20
383.9144147986457
 30
0.0
 10
500.7141308867954
 20
383.8931353800445
 30
0.0
 10
500.7275327317087
 20
383.8864648394433
 30
0.0
 11
501.321993913891
 21
385.1484430881725
 31
0.0
 11
501.0841810073016
 21
385.134530210943
 31
0.0
 11
500.935349373806
 21
385.0772617492835
 31
0.0
 11
500.8304843492486
 21
385.0300796949792
 31
0.0
 11
500.7611195886201
 21
384.9794791206293
 31
0.0
 11
500.6819223436735
 21
384.9011857196924
 31
0.0
 11
500.6260743829109
 21
384.8421239038287
 31
0.0
 11
500.542778178157
 21
384.7212654569832
 31
0.0
 11
500.4963488517138
 21
384.6111770437976
 31
0.0
 11
500.4675348544095
 21
384.5351922430411
 31
0.0
 11
500.4458205877326
 21
384.4585238159801
 31
0.0
 11
500.4321587937972
 21
384.3166406611338
 31
0.0
 11
500.4367958069201
 21
384.2159550289987
 31
0.0
 11
500.453314171867
 21
384.1642448053722
 31
0.0
 11
500.4897663836488
 21
384.0962954937456
 31
0.0
 11
500.5211681183049
 21
384.050312119757
 31
0.0
 11
500.5725032915306
 21
383.9880896970798
 31
0.0
 11
500.5974879792178
 21
383.9498841695771
 31
0.0
 11
500.6863731226782
 21
383.9055259614297
 31
0.0
 11
500.7275327317087
 21
383.8864648394433
 31
0.0
  0
LINE
  5
646
102
{ACAD_REACTORS
330
644
102
}
330
18
100
AcDbEntity
  8
ROGO
 62
     4
100
AcDbLine
 10
500.7275327317086
 20
383.8864648394433
 30
0.0
 11
501.8533547134872
 21
383.778060512378
 31
0.0
  0
HATCH
  5
647
330
18
100
AcDbEntity
  8
ROGO
 62
     4
100
AcDbHatch
 10
0.0
 20
0.0
 30
0.0
210
0.0
220
0.0
230
1.0
  2
SOLID
 70
     1
 71
     1
 91
        2
 92
        7
 72
     0
 73
     1
 93
        8
 10
499.914762919141
 20
385.2839440212512
 10
498.8691952856386
 20
385.3846207335072
 10
497.8007610893172
 20
384.1682808951808
 10
498.5246602389239
 20
384.098577335074
 10
498.7280834992899
 20
384.3301609145564
 10
499.5541398990384
 20
384.2506207300672
 10
499.6407321501314
 20
383.9911118330239
 10
500.3695689331527
 20
383.9209328328954
 97
        8
330
64E
330
654
330
64F
330
650
330
652
330
648
330
64D
330
64A
 92
       22
 72
     0
 73
     1
 93
        3
 10
499.4628084406351
 20
384.5243325892267
 10
498.9426401461929
 20
384.5744190992011
 10
499.3074976321325
 20
384.989784591047
 97
        3
330
651
330
653
330
649
 75
     0
 76
     1
 47
0.0128389261915577
 98
        2
 10
499.8026912822616
 20
384.9782362770028
 10
499.8026912822616
 20
384.9782362770028
450
        0
451
        0
460
0.0
461
0.0
452
        0
462
0.0
453
        0
470

  0
LINE
  5
648
102
{ACAD_REACTORS
330
647
102
}
330
18
100
AcDbEntity
  8
ROGO
 62
     4
100
AcDbLine
 10
499.5541398990383
 20
384.2506207300671
 30
0.0
 11
499.6407321501314
 21
383.9911118330239
 31
0.0
  0
LINE
  5
649
102
{ACAD_REACTORS
330
647
102
}
330
18
100
AcDbEntity
  8
ROGO
 62
     4
100
AcDbLine
 10
499.3074976321326
 20
384.989784591047
 30
0.0
 11
499.4628084406352
 21
384.5243325892266
 31
0.0
  0
LINE
  5
64A
102
{ACAD_REACTORS
330
647
102
}
330
18
100
AcDbEntity
  8
ROGO
 62
     4
100
AcDbLine
 10
499.914762919141
 20
385.2839440212511
 30
0.0
 11
500.3695689331528
 21
383.9209328328954
 31
0.0
  0
HATCH
  5
64B
330
18
100
AcDbEntity
  8
ROGO
 62
     4
100
AcDbHatch
 10
0.0
 20
0.0
 30
0.0
210
0.0
220
0.0
230
1.0
  2
SOLID
 70
     1
 71
     1
 91
        1
 92
        1
 93
       12
 72
     1
 10
496.5891632359942
 20
385.6041628494273
 11
498.3570696499791
 21
385.4339328235225
 72
     1
 10
498.3570696499791
 20
385.4339328235224
 11
498.1800900316129
 21
385.1487804525824
 72
     1
 10
498.1800900316129
 20
385.1487804525824
 11
497.2509230944261
 21
385.2382490525808
 72
     1
 10
497.2509230944261
 20
385.2382490525808
 11
497.1125470253628
 21
385.0152953331693
 72
     1
 10
497.1125470253628
 20
385.0152953331693
 11
498.0417139625496
 21
384.925826733171
 72
     1
 10
498.0417139625496
 20
384.925826733171
 11
497.8998222667956
 21
384.6972085802198
 72
     1
 10
497.8998222667956
 20
384.6972085802198
 11
496.970655329609
 21
384.7866771802181
 72
     1
 10
496.970655329609
 20
384.7866771802181
 11
496.832273402368
 21
384.563714022018
 72
     1
 10
496.8322734023681
 20
384.563714022018
 11
497.7614403395548
 21
384.4742454220196
 72
     1
 10
497.7614403395548
 20
384.4742454220196
 11
497.5844696234603
 21
384.1891073945613
 72
     1
 10
497.5844696234603
 20
384.1891073945613
 11
495.8165632094755
 21
384.3593374204663
 72
     1
 10
495.8165632094755
 20
384.3593374204663
 11
496.5891632359942
 21
385.6041628494273
 97
       12
330
64C
330
65E
330
65B
330
65C
330
65A
330
657
330
658
330
655
330
659
330
656
330
65D
330
65F
 75
     0
 76
     1
 98
        1
 10
415.5708891965673
 20
302.1872895068151
450
        0
451
        0
460
0.0
461
0.0
452
        0
462
0.0
453
        0
470

  0
LINE
  5
64C
102
{ACAD_REACTORS
330
64B
102
}
330
18
100
AcDbEntity
  8
ROGO
 62
     4
100
AcDbLine
 10
496.5891632359942
 20
385.6041628494273
 30
0.0
 11
498.3570696499791
 21
385.4339328235225
 31
0.0
  0
LINE
  5
64D
102
{ACAD_REACTORS
330
647
102
}
330
18
100
AcDbEntity
  8
ROGO
 62
     4
100
AcDbLine
 10
500.3695689331528
 20
383.9209328328955
 30
0.0
 11
499.6407321501314
 21
383.9911118330239
 31
0.0
  0
LINE
  5
64E
102
{ACAD_REACTORS
330
647
102
}
330
18
100
AcDbEntity
  8
ROGO
 62
     4
100
AcDbLine
 10
498.8691952856386
 20
385.3846207335072
 30
0.0
 11
499.914762919141
 21
385.2839440212512
 31
0.0
  0
LINE
  5
64F
102
{ACAD_REACTORS
330
647
102
}
330
18
100
AcDbEntity
  8
ROGO
 62
     4
100
AcDbLine
 10
497.8007610893172
 20
384.1682808951807
 30
0.0
 11
498.5246602389239
 21
384.0985773350741
 31
0.0
  0
LINE
  5
650
102
{ACAD_REACTORS
330
647
102
}
330
18
100
AcDbEntity
  8
ROGO
 62
     4
100
AcDbLine
 10
498.7280834992899
 20
384.3301609145564
 30
0.0
 11
498.524660238924
 21
384.0985773350741
 31
0.0
  0
LINE
  5
651
102
{ACAD_REACTORS
330
647
102
}
330
18
100
AcDbEntity
  8
ROGO
 62
     4
100
AcDbLine
 10
498.9426401461929
 20
384.5744190992011
 30
0.0
 11
499.4628084406352
 21
384.5243325892267
 31
0.0
  0
LINE
  5
652
102
{ACAD_REACTORS
330
647
102
}
330
18
100
AcDbEntity
  8
ROGO
 62
     4
100
AcDbLine
 10
498.7280834992899
 20
384.3301609145564
 30
0.0
 11
499.5541398990383
 21
384.2506207300671
 31
0.0
  0
LINE
  5
653
102
{ACAD_REACTORS
330
647
102
}
330
18
100
AcDbEntity
  8
ROGO
 62
     4
100
AcDbLine
 10
499.3074976321325
 20
384.989784591047
 30
0.0
 11
498.9426401461929
 21
384.5744190992011
 31
0.0
  0
LINE
  5
654
102
{ACAD_REACTORS
330
647
102
}
330
18
100
AcDbEntity
  8
ROGO
 62
     4
100
AcDbLine
 10
498.8691952856386
 20
385.3846207335072
 30
0.0
 11
497.8007610893172
 21
384.1682808951807
 31
0.0
  0
LINE
  5
655
102
{ACAD_REACTORS
330
64B
102
}
330
18
100
AcDbEntity
  8
ROGO
 62
     4
100
AcDbLine
 10
496.970655329609
 20
384.7866771802181
 30
0.0
 11
496.832273402368
 21
384.563714022018
 31
0.0
  0
LINE
  5
656
102
{ACAD_REACTORS
330
64B
102
}
330
18
100
AcDbEntity
  8
ROGO
 62
     4
100
AcDbLine
 10
497.7614403395548
 20
384.4742454220196
 30
0.0
 11
497.5844696234603
 21
384.1891073945613
 31
0.0
  0
LINE
  5
657
102
{ACAD_REACTORS
330
64B
102
}
330
18
100
AcDbEntity
  8
ROGO
 62
     4
100
AcDbLine
 10
498.0417139625496
 20
384.925826733171
 30
0.0
 11
497.8998222667956
 21
384.6972085802198
 31
0.0
  0
LINE
  5
658
102
{ACAD_REACTORS
330
64B
102
}
330
18
100
AcDbEntity
  8
ROGO
 62
     4
100
AcDbLine
 10
496.970655329609
 20
384.7866771802181
 30
0.0
 11
497.8998222667956
 21
384.6972085802198
 31
0.0
  0
LINE
  5
659
102
{ACAD_REACTORS
330
64B
102
}
330
18
100
AcDbEntity
  8
ROGO
 62
     4
100
AcDbLine
 10
496.8322734023681
 20
384.563714022018
 30
0.0
 11
497.7614403395548
 21
384.4742454220196
 31
0.0
  0
LINE
  5
65A
102
{ACAD_REACTORS
330
64B
102
}
330
18
100
AcDbEntity
  8
ROGO
 62
     4
100
AcDbLine
 10
497.1125470253628
 20
385.0152953331693
 30
0.0
 11
498.0417139625496
 21
384.925826733171
 31
0.0
  0
LINE
  5
65B
102
{ACAD_REACTORS
330
64B
102
}
330
18
100
AcDbEntity
  8
ROGO
 62
     4
100
AcDbLine
 10
497.2509230944261
 20
385.2382490525808
 30
0.0
 11
498.1800900316129
 21
385.1487804525824
 31
0.0
  0
LINE
  5
65C
102
{ACAD_REACTORS
330
64B
102
}
330
18
100
AcDbEntity
  8
ROGO
 62
     4
100
AcDbLine
 10
497.2509230944261
 20
385.2382490525808
 30
0.0
 11
497.1125470253628
 21
385.0152953331693
 31
0.0
  0
LINE
  5
65D
102
{ACAD_REACTORS
330
64B
102
}
330
18
100
AcDbEntity
  8
ROGO
 62
     4
100
AcDbLine
 10
495.8165632094755
 20
384.3593374204663
 30
0.0
 11
497.5844696234603
 21
384.1891073945613
 31
0.0
  0
LINE
  5
65E
102
{ACAD_REACTORS
330
64B
102
}
330
18
100
AcDbEntity
  8
ROGO
 62
     4
100
AcDbLine
 10
498.3570696499791
 20
385.4339328235224
 30
0.0
 11
498.1800900316129
 21
385.1487804525824
 31
0.0
  0
LINE
  5
65F
102
{ACAD_REACTORS
330
64B
102
}
330
18
100
AcDbEntity
  8
ROGO
 62
     4
100
AcDbLine
 10
496.5891632359942
 20
385.6041628494273
 30
0.0
 11
495.8165632094755
 21
384.3593374204663
 31
0.0
  0
SPLINE
  5
660
102
{ACAD_REACTORS
330
62E
102
}
330
18
100
AcDbEntity
  8
ROGO
 62
     4
100
AcDbSpline
210
0.0
220
0.0
230
1.0
 70
     8
 71
     3
 72
    15
 73
    11
 74
     9
 42
0.0000000001
 43
0.0000000001
 44
0.0000000001
 40
0.0
 40
0.0
 40
0.0
 40
0.0
 40
0.1539705029174847
 40
0.2241725832586696
 40
0.3038566179396177
 40
0.3581410872474106
 40
0.4439925384671583
 40
0.4954152125469143
 40
0.5836396705645904
 40
0.613047842006526
 40
0.613047842006526
 40
0.613047842006526
 40
0.613047842006526
 10
495.0255015861154
 20
385.2445808214059
 30
0.0
 10
495.0830890790591
 20
385.2393018862812
 30
0.0
 10
495.1669333012443
 20
385.2316160471021
 30
0.0
 10
495.2027798266901
 20
385.1235334149677
 30
0.0
 10
495.1758101525185
 20
385.0587642546806
 30
0.0
 10
495.1433878164285
 20
384.9927222392956
 30
0.0
 10
495.0932675235912
 20
384.9505503401517
 30
0.0
 10
495.0276980158585
 20
384.9115970320221
 30
0.0
 10
494.9692902520379
 20
384.9117412949971
 30
0.0
 10
494.9306820595436
 20
384.9053909972952
 30
0.0
 10
494.9210300067997
 20
384.9038034221097
 30
0.0
 11
495.0255015861154
 21
385.2445808214059
 31
0.0
 11
495.1711865936525
 21
385.1947531749877
 31
0.0
 11
495.1934389359142
 21
385.1281711552819
 31
0.0
 11
495.1717250775025
 21
385.0515026889094
 31
0.0
 11
495.1456434256236
 21
385.0038943803562
 31
0.0
 11
495.0826953259684
 21
384.9455162301086
 31
0.0
 11
495.0373629414476
 21
384.921241421702
 31
0.0
 11
494.9501132460291
 21
384.9081629798269
 31
0.0
 11
494.9210300067997
 21
384.9038034221097
 31
0.0
  0
SPLINE
  5
661
102
{ACAD_REACTORS
330
62E
102
}
330
18
100
AcDbEntity
  8
ROGO
 62
     4
100
AcDbSpline
210
0.0
220
0.0
230
1.0
 70
     8
 71
     3
 72
    18
 73
    14
 74
     0
 42
0.0000000001
 43
0.0000000001
 40
0.1087402787915014
 40
0.1087402787915014
 40
0.1087402787915014
 40
0.1087402787915014
 40
0.5992371417938475
 40
1.083176791562496
 40
1.448211145705696
 40
1.714037220764907
 40
2.164002567013297
 40
2.740236056362883
 40
3.395137510199602
 40
4.071816045172726
 40
4.784906178399433
 40
5.506895915094292
 40
6.060470601257719
 40
6.060470601257719
 40
6.060470601257719
 40
6.060470601257719
 10
495.640924934684
 20
385.695467812925
 30
0.0
 10
495.690532056259
 20
385.6716712716238
 30
0.0
 10
495.7878160016759
 20
385.6220928782637
 30
0.0
 10
495.9024747029168
 20
385.5192776781828
 30
0.0
 10
495.9596718294396
 20
385.4078236873113
 30
0.0
 10
496.0144522070772
 20
385.2981575975675
 30
0.0
 10
496.0092239727949
 20
385.148893987408
 30
0.0
 10
495.9763186679295
 20
384.9627205801064
 30
0.0
 10
495.8616569600246
 20
384.7762025884305
 30
0.0
 10
495.691385113959
 20
384.619805369074
 30
0.0
 10
495.4872537150113
 20
384.50116009698
 30
0.0
 10
495.2755468335972
 20
384.4129825137458
 30
0.0
 10
495.1315189427687
 20
384.4257691217243
 30
0.0
 10
495.0690131272759
 20
384.4313183063612
 30
0.0
  0
HATCH
  5
662
330
18
100
AcDbEntity
  8
ROGO
 62
     4
100
AcDbHatch
 10
0.0
 20
0.0
 30
0.0
210
0.0
220
0.0
230
1.0
  2
SOLID
 70
     1
 71
     1
 91
        2
 92
        5
 93
        6
 72
     4
 94
        3
 73
     0
 74
     0
 95
       38
 96
       34
 40
0.0
 40
0.0
 40
0.0
 40
0.0
 40
0.1807680148264315
 40
0.2375392910068956
 40
0.3104865209606157
 40
0.3712759982447458
 40
0.422566754387306
 40
0.490692583720658
 40
0.5255021974951946
 40
0.5647069597052371
 40
0.622487401681883
 40
0.6879401044674746
 40
0.7303986317551266
 40
0.7765228362185534
 40
0.8277951442290254
 40
0.9056034697002209
 40
0.9795294930264187
 40
1.013897332332996
 40
1.053089255536027
 40
1.099518741889647
 40
1.132570569820733
 40
1.160277520290299
 40
1.19983678629386
 40
1.243305643169139
 40
1.286774258016964
 40
1.324809356515675
 40
1.411916492917645
 40
1.446284332224223
 40
1.5150200516612
 40
1.575779369908399
 40
1.69209852953623
 40
1.835624328519098
 40
2.042896467983898
 40
2.042896467983898
 40
2.042896467983898
 40
2.042896467983898
 10
503.3573691690551
 20
384.9579612939574
 10
503.2969831964665
 20
384.9594994954153
 10
503.2176326480345
 20
384.9615207782406
 10
503.1149167006634
 20
384.9437391763395
 10
503.0572191241294
 20
384.9163285313509
 10
502.9981345790212
 20
384.8977859228473
 10
502.9463071944465
 20
384.8668938372396
 10
502.8955835167937
 20
384.853288067838
 10
502.8581196223978
 20
384.8235548286812
 10
502.8164967908365
 20
384.8071967728752
 10
502.7805500427567
 20
384.7650732938396
 10
502.7411665633591
 20
384.7262453954589
 10
502.6972259095315
 20
384.6993656298048
 10
502.660481809645
 20
384.6702282741411
 10
502.6248229152151
 20
384.6232338595653
 10
502.6001733152293
 20
384.5586034989801
 10
502.5446735517217
 20
384.5216437057366
 10
502.5320722713458
 20
384.4719952656914
 10
502.5007432190903
 20
384.4450043010428
 10
502.4846695813756
 20
384.4078165037182
 10
502.4765696374022
 20
384.373107867949
 10
502.4677494295683
 20
384.3408132881386
 10
502.4496224611647
 20
384.3076928303105
 10
502.4503444958925
 20
384.264554748241
 10
502.4449894805814
 20
384.2233656633104
 10
502.4404278474448
 20
384.1675022357204
 10
502.4322749849833
 20
384.113469700967
 10
502.4498936159043
 20
384.052118706049
 10
502.4586146501941
 20
383.9981052199126
 10
502.4893676930048
 20
383.9215185392451
 10
502.5464282393216
 20
383.8310763265287
 10
502.6605076381057
 20
383.7169810654632
 10
502.7786591508737
 20
383.695144271827
 10
502.848470042411
 20
383.6822418045091
 72
     1
 10
502.848470042411
 20
383.682241804509
 11
503.5954689250598
 21
383.6103139930942
 72
     4
 94
        3
 73
     0
 74
     0
 95
       11
 96
        7
 40
0.1647869275458135
 40
0.1647869275458135
 40
0.1647869275458135
 40
0.1647869275458135
 40
0.2545010798212315
 40
0.5111620267764023
 40
0.7602998271033902
 40
0.8850764140209603
 40
0.8850764140209603
 40
0.8850764140209603
 40
0.8850764140209603
 10
503.5954689250598
 20
383.6103139930942
 10
503.6058732716557
 20
383.609109419404
 10
503.6460431500217
 20
383.6044587113392
 10
503.7157730011386
 20
383.6077169320723
 10
503.7890488001708
 20
383.6102176652253
 10
503.8328542582418
 20
383.6129593099041
 10
503.8471413759786
 20
383.6154925455844
 72
     4
 94
        3
 73
     0
 74
     0
 95
        9
 96
        5
 40
0.0
 40
0.0
 40
0.0
 40
0.0
 40
0.1135793343552172
 40
0.2662938392177403
 40
0.2662938392177403
 40
0.2662938392177403
 40
0.2662938392177403
 10
503.8471413759786
 20
383.6154925455844
 10
503.8845282375906
 20
383.6231065668656
 10
503.9721840683935
 20
383.6409581150401
 10
504.0478368348567
 20
383.6892417246433
 10
504.0912222725593
 20
383.7169314660027
 72
     4
 94
        3
 73
     0
 74
     0
 95
       25
 96
       21
 40
0.0
 40
0.0
 40
0.0
 40
0.0
 40
0.165525918914855
 40
0.3412380755365305
 40
0.5940540902285263
 40
0.7697671103696209
 40
0.9377330196075423
 40
1.11479469302833
 40
1.274661249598185
 40
1.574522170874768
 40
1.815540668866877
 40
2.15849091873445
 40
2.536227739636605
 40
2.738070817316548
 40
2.925680654369045
 40
3.162706124480894
 40
3.395643218188267
 40
3.648478129958861
 40
3.928509979727306
 40
4.337226830236035
 40
4.337226830236035
 40
4.337226830236035
 40
4.337226830236035
 10
504.0912222725593
 20
383.7169314660027
 10
504.1072259162471
 20
383.7277541541856
 10
504.1381485875749
 20
383.7541821399078
 10
504.1925661239459
 20
383.7966020915653
 10
504.241810589607
 20
383.8473877964617
 10
504.3003157465464
 20
383.8867574084258
 10
504.3337872808794
 20
383.9385539915712
 10
504.3785959908466
 20
383.9775110882895
 10
504.4190959548957
 20
384.0404402340528
 10
504.4553723877967
 20
384.1137123876471
 10
504.492521139608
 20
384.2101973187615
 10
504.5138683739736
 20
384.3210265659341
 10
504.5086320190121
 20
384.4307467105277
 10
504.4785993447804
 20
384.5152738565393
 10
504.4572845972966
 20
384.585360865906
 10
504.4212341202135
 20
384.6532729082594
 10
504.3797779943694
 20
384.7273511497005
 10
504.317484339845
 20
384.791322204256
 10
504.2355157703283
 20
384.8691394881988
 10
504.1532099333186
 20
384.8797418407176
 10
504.104368051704
 20
384.8860334825425
 72
     1
 10
504.1043680517041
 20
384.8860334825425
 11
503.3573691690552
 21
384.9579612939574
 97
        6
330
668
330
667
330
669
330
666
330
665
330
664
 92
       20
 93
        1
 72
     3
 10
503.4640793170929
 20
384.2668558750421
 11
0.1924905317024349
 21
0.1389694802400646
 40
0.6788083417438794
 50
0.0
 51
360.0
 73
     1
 97
        1
330
663
 75
     0
 76
     1
 47
0.088756267210375
 98
        2
 10
503.5463156329982
 20
384.5738745970775
 10
503.5463156329982
 20
384.5738745970775
450
        0
451
        0
460
0.0
461
0.0
452
        0
462
0.0
453
        0
470

  0
ELLIPSE
  5
663
102
{ACAD_REACTORS
330
662
102
}
330
18
100
AcDbEntity
  8
ROGO
 62
     4
100
AcDbEllipse
 10
503.4640793170929
 20
384.2668558750421
 30
0.0
 11
0.1924905317024349
 21
0.1389694802400646
 31
0.0
210
0.0
220
0.0
230
1.0
 40
0.6788083417438792
 41
0.0
 42
6.283185307179586
  0
SPLINE
  5
664
102
{ACAD_REACTORS
330
662
102
}
330
18
100
AcDbEntity
  8
ROGO
 62
     4
100
AcDbSpline
210
0.0
220
0.0
230
1.0
 70
     8
 71
     3
 72
     9
 73
     5
 74
     3
 42
0.0000000001
 43
0.0000000001
 44
0.0000000001
 40
0.0
 40
0.0
 40
0.0
 40
0.0
 40
0.1135793343552163
 40
0.2662938392177614
 40
0.2662938392177614
 40
0.2662938392177614
 40
0.2662938392177614
 10
503.8471413759786
 20
383.6154925455844
 30
0.0
 10
503.8845282375905
 20
383.6231065668656
 30
0.0
 10
503.9721840683931
 20
383.64095811504
 30
0.0
 10
504.0478368348567
 20
383.6892417246433
 30
0.0
 10
504.0912222725593
 20
383.7169314660027
 30
0.0
 11
503.8471413759786
 21
383.6154925455844
 31
0.0
 11
503.9571183836985
 21
383.643870758452
 31
0.0
 11
504.0912222725593
 21
383.7169314660027
 31
0.0
  0
SPLINE
  5
665
102
{ACAD_REACTORS
330
662
102
}
330
18
100
AcDbEntity
  8
ROGO
 62
     4
100
AcDbSpline
210
0.0
220
0.0
230
1.0
 70
     8
 71
     3
 72
    11
 73
     7
 74
     0
 42
0.0000000001
 43
0.0000000001
 40
0.1647869275458134
 40
0.1647869275458134
 40
0.1647869275458134
 40
0.1647869275458134
 40
0.2895635144633836
 40
0.5387013147903714
 40
0.7953622617455423
 40
0.8850764140209602
 40
0.8850764140209602
 40
0.8850764140209602
 40
0.8850764140209602
 10
503.8471413759786
 20
383.6154925455844
 30
0.0
 10
503.8328542582418
 20
383.6129593099041
 30
0.0
 10
503.7890488001708
 20
383.6102176652253
 30
0.0
 10
503.7157730011386
 20
383.6077169320723
 30
0.0
 10
503.6460431500217
 20
383.6044587113392
 30
0.0
 10
503.6058732716557
 20
383.609109419404
 30
0.0
 10
503.5954689250598
 20
383.6103139930942
 30
0.0
  0
LINE
  5
666
102
{ACAD_REACTORS
330
662
102
}
330
18
100
AcDbEntity
  8
ROGO
 62
     4
100
AcDbLine
 10
502.848470042411
 20
383.6822418045091
 30
0.0
 11
503.5954689250598
 21
383.6103139930942
 31
0.0
  0
LINE
  5
667
102
{ACAD_REACTORS
330
662
102
}
330
18
100
AcDbEntity
  8
ROGO
 62
     4
100
AcDbLine
 10
503.3573691690551
 20
384.9579612939574
 30
0.0
 11
504.104368051704
 21
384.8860334825425
 31
0.0
  0
SPLINE
  5
668
102
{ACAD_REACTORS
330
662
102
}
330
18
100
AcDbEntity
  8
ROGO
 62
     4
100
AcDbSpline
210
0.0
220
0.0
230
1.0
 70
     8
 71
     3
 72
    25
 73
    21
 74
     0
 42
0.0000000001
 43
0.0000000001
 40
0.0
 40
0.0
 40
0.0
 40
0.0
 40
0.4087168505087288
 40
0.6887487002771746
 40
0.9415836120477687
 40
1.17452070575514
 40
1.41154617586699
 40
1.599156012919487
 40
1.80099909059943
 40
2.178735911501585
 40
2.521686161369157
 40
2.762704659361267
 40
3.06256558063785
 40
3.222432137207705
 40
3.399493810628493
 40
3.567459719866414
 40
3.743172740007509
 40
3.995988754699505
 40
4.17170091132118
 40
4.337226830236035
 40
4.337226830236035
 40
4.337226830236035
 40
4.337226830236035
 10
504.104368051704
 20
384.8860334825425
 30
0.0
 10
504.1532099333186
 20
384.8797418407176
 30
0.0
 10
504.2355157703283
 20
384.8691394881988
 30
0.0
 10
504.317484339845
 20
384.791322204256
 30
0.0
 10
504.3797779943694
 20
384.7273511497005
 30
0.0
 10
504.4212341202135
 20
384.6532729082594
 30
0.0
 10
504.4572845972966
 20
384.585360865906
 30
0.0
 10
504.4785993447804
 20
384.5152738565393
 30
0.0
 10
504.5086320190121
 20
384.4307467105277
 30
0.0
 10
504.5138683739736
 20
384.3210265659341
 30
0.0
 10
504.492521139608
 20
384.2101973187615
 30
0.0
 10
504.4553723877967
 20
384.1137123876471
 30
0.0
 10
504.4190959548957
 20
384.0404402340528
 30
0.0
 10
504.3785959908466
 20
383.9775110882895
 30
0.0
 10
504.3337872808794
 20
383.9385539915712
 30
0.0
 10
504.3003157465464
 20
383.8867574084258
 30
0.0
 10
504.241810589607
 20
383.8473877964617
 30
0.0
 10
504.1925661239459
 20
383.7966020915653
 30
0.0
 10
504.1381485875749
 20
383.7541821399078
 30
0.0
 10
504.1072259162471
 20
383.7277541541856
 30
0.0
 10
504.0912222725593
 20
383.7169314660027
 30
0.0
  0
SPLINE
  5
669
102
{ACAD_REACTORS
330
662
102
}
330
18
100
AcDbEntity
  8
ROGO
 62
     4
100
AcDbSpline
210
0.0
220
0.0
230
1.0
 70
     8
 71
     3
 72
    38
 73
    34
 74
    32
 42
0.0000000001
 43
0.0000000001
 44
0.0000000001
 40
0.0
 40
0.0
 40
0.0
 40
0.0
 40
0.180768014826403
 40
0.2375392910068976
 40
0.3104865209605916
 40
0.3712759982447079
 40
0.422566754387294
 40
0.4906925837206491
 40
0.5255021974951725
 40
0.564706959705199
 40
0.6224874016818609
 40
0.6879401044674562
 40
0.7303986317551066
 40
0.7765228362185419
 40
0.8277951442290053
 40
0.9056034697002168
 40
0.9795294930264377
 40
1.013897332332991
 40
1.053089255536032
 40
1.099518741889648
 40
1.132570569820716
 40
1.16027752029028
 40
1.199836786293862
 40
1.243305643169121
 40
1.286774258016977
 40
1.324809356515685
 40
1.411916492917648
 40
1.446284332224239
 40
1.515020051661161
 40
1.575779369908406
 40
1.692098529536199
 40
1.8356243285191
 40
2.042896467983919
 40
2.042896467983919
 40
2.042896467983919
 40
2.042896467983919
 10
503.3573691690551
 20
384.9579612939574
 30
0.0
 10
503.2969831964666
 20
384.9594994954154
 30
0.0
 10
503.2176326480344
 20
384.9615207782406
 30
0.0
 10
503.1149167006634
 20
384.9437391763395
 30
0.0
 10
503.0572191241293
 20
384.9163285313509
 30
0.0
 10
502.9981345790213
 20
384.8977859228473
 30
0.0
 10
502.9463071944465
 20
384.8668938372396
 30
0.0
 10
502.8955835167937
 20
384.8532880678379
 30
0.0
 10
502.8581196223978
 20
384.8235548286813
 30
0.0
 10
502.8164967908365
 20
384.8071967728751
 30
0.0
 10
502.7805500427567
 20
384.7650732938397
 30
0.0
 10
502.7411665633592
 20
384.7262453954589
 30
0.0
 10
502.6972259095315
 20
384.6993656298047
 30
0.0
 10
502.660481809645
 20
384.6702282741413
 30
0.0
 10
502.6248229152151
 20
384.6232338595653
 30
0.0
 10
502.6001733152294
 20
384.55860349898
 30
0.0
 10
502.5446735517215
 20
384.5216437057366
 30
0.0
 10
502.5320722713458
 20
384.4719952656914
 30
0.0
 10
502.5007432190903
 20
384.4450043010428
 30
0.0
 10
502.4846695813756
 20
384.4078165037182
 30
0.0
 10
502.4765696374021
 20
384.373107867949
 30
0.0
 10
502.4677494295683
 20
384.3408132881386
 30
0.0
 10
502.4496224611646
 20
384.3076928303105
 30
0.0
 10
502.4503444958926
 20
384.2645547482411
 30
0.0
 10
502.4449894805813
 20
384.2233656633102
 30
0.0
 10
502.4404278474448
 20
384.1675022357204
 30
0.0
 10
502.4322749849834
 20
384.1134697009671
 30
0.0
 10
502.4498936159044
 20
384.052118706049
 30
0.0
 10
502.4586146501941
 20
383.9981052199126
 30
0.0
 10
502.4893676930047
 20
383.9215185392451
 30
0.0
 10
502.5464282393215
 20
383.8310763265287
 30
0.0
 10
502.6605076381058
 20
383.7169810654632
 30
0.0
 10
502.7786591508737
 20
383.695144271827
 30
0.0
 10
502.848470042411
 20
383.6822418045091
 30
0.0
 11
503.3573691690551
 21
384.9579612939574
 31
0.0
 11
503.1766555506182
 21
384.9535269624732
 31
0.0
 11
503.120962784452
 21
384.9425136252893
 31
0.0
 11
503.0528818031118
 21
384.9163167106301
 31
0.0
 11
502.9961474548218
 21
384.8944861294976
 31
0.0
 11
502.9502393390001
 21
384.8716128575983
 31
0.0
 11
502.887571296052
 21
384.8448949794002
 31
0.0
 11
502.8584227284752
 21
384.8258668365756
 31
0.0
 11
502.8238612225065
 21
384.8073596572898
 31
0.0
 11
502.7818036834895
 21
384.7677396763854
 31
0.0
 11
502.7338124498147
 21
384.7232323984154
 31
0.0
 11
502.6987301643825
 21
384.6993167176119
 31
0.0
 11
502.6631275479605
 21
384.6699927352546
 31
0.0
 11
502.6318958393333
 21
384.629330345446
 31
0.0
 11
502.5926476970763
 21
384.5621461297253
 31
0.0
 11
502.5436144560011
 21
384.5068216487562
 31
0.0
 11
502.5296639024372
 21
384.4754125667279
 31
0.0
 11
502.5048871164047
 21
384.4450461754663
 31
0.0
 11
502.4844816402459
 21
384.403341094891
 31
0.0
 11
502.4759435997977
 21
384.3714110902732
 31
0.0
 11
502.4679267408918
 21
384.3448893053106
 31
0.0
 11
502.4534554310617
 21
384.3080719626777
 31
0.0
 11
502.4492891257633
 21
384.2648032277967
 31
0.0
 11
502.4451228436622
 21
384.2215347338289
 31
0.0
 11
502.4414773410245
 21
384.1836747413788
 31
0.0
 11
502.4385576920171
 21
384.096616548991
 31
0.0
 11
502.4462587992322
 21
384.0631226491544
 31
0.0
 11
502.4616618874119
 21
383.9961350084955
 31
0.0
 11
502.4835190244369
 21
383.9394432073693
 31
0.0
 11
502.545035279408
 21
383.8407218962412
 31
0.0
 11
502.6503764627557
 21
383.7432391282021
 31
0.0
 11
502.848470042411
 21
383.6822418045091
 31
0.0
  0
HATCH
  5
66A
330
18
100
AcDbEntity
  8
ROGO
 62
     4
100
AcDbHatch
 10
0.0
 20
0.0
 30
0.0
210
0.0
220
0.0
230
1.0
  2
SOLID
 70
     1
 71
     1
 91
        1
 92
        5
 93
        8
 72
     4
 94
        3
 73
     0
 74
     0
 95
       26
 96
       22
 40
0.0
 40
0.0
 40
0.0
 40
0.0
 40
0.2382195346591896
 40
0.397689067266058
 40
0.5126795869787176
 40
0.5985392873135238
 40
0.7099038249250041
 40
0.7911890807494602
 40
0.9379713068544059
 40
1.057449928673177
 40
1.138714535893296
 40
1.218398644003487
 40
1.36093802187034
 40
1.461730374800238
 40
1.51601484410804
 40
1.593124329220486
 40
1.648806818593696
 40
1.729472362005543
 40
1.775122082164332
 40
1.874460993765135
 40
1.919820003751196
 40
1.919820003751196
 40
1.919820003751196
 40
1.919820003751196
 10
505.5335846788988
 20
384.7429130220124
 10
505.452639173164
 20
384.7458609051266
 10
505.3175069191235
 20
384.750782167725
 10
505.1613505135971
 20
384.6753663927974
 10
505.0482468569525
 20
384.633672261027
 10
504.9643395141282
 20
384.5702670972256
 10
504.9007896340627
 20
384.5025479653318
 10
504.8211605249666
 20
384.4222375960812
 10
504.7532960386058
 20
384.3263256377508
 10
504.7129415146994
 20
384.2172973618443
 10
504.6781522937739
 20
384.1306540899077
 10
504.64915166471
 20
384.0331609751708
 10
504.6437594792608
 20
383.9253365026378
 10
504.6412399390987
 20
383.824955042527
 10
504.6659994639806
 20
383.7507404550669
 10
504.6971216470182
 20
383.6966053518075
 10
504.735830904251
 20
383.6365548204857
 10
504.7805082255518
 20
383.5949501751406
 10
504.8139563843677
 20
383.5241531204519
 10
504.8829689747721
 20
383.5088847324856
 10
504.9257216518031
 20
383.4876053138842
 10
504.9391234967164
 20
383.4809347732831
 72
     1
 10
504.9391234967163
 20
383.4809347732831
 11
506.0649454784949
 21
383.3725304462178
 72
     1
 10
506.0649454784949
 20
383.3725304462178
 11
506.3542679837657
 21
383.8355014178349
 72
     1
 10
506.3542679837657
 20
383.8355014178349
 11
505.5184526877485
 21
383.9159812771573
 72
     4
 94
        3
 73
     0
 74
     0
 95
       16
 96
       12
 40
0.0
 40
0.0
 40
0.0
 40
0.0
 40
0.0719416665231652
 40
0.1446253590759511
 40
0.1879779149910863
 40
0.229544093610429
 40
0.2751936323958108
 40
0.3070718656052417
 40
0.3373215422371831
 40
0.3986635435213285
 40
0.5242542460842448
 40
0.5242542460842448
 40
0.5242542460842448
 40
0.5242542460842448
 10
505.5184526877485
 20
383.9159812771572
 10
505.4939557755818
 20
383.9258263188458
 10
505.4447092833946
 20
383.9456179466763
 10
505.4474278725622
 20
384.018311738386
 10
505.4581663498753
 20
384.0692645485368
 10
505.4859785728805
 20
384.1044359680482
 10
505.5179663287085
 20
384.1288963392521
 10
505.5323203453133
 20
384.1633813239399
 10
505.5670383025285
 20
384.187122527312
 10
505.6283637663644
 20
384.2267422504036
 10
505.6923012364667
 20
384.2302815148242
 10
505.7352576139491
 20
384.2326593689717
 72
     1
 10
505.7352576139492
 20
384.2326593689717
 11
506.5532412853968
 21
384.1538964998068
 72
     1
 10
506.5532412853968
 20
384.1538964998068
 11
506.8425668545461
 21
384.6168723742118
 72
     1
 10
506.8425668545461
 20
384.6168723742118
 11
505.5335846788988
 21
384.7429130220124
 97
        8
330
673
330
671
330
674
330
670
330
66F
330
672
330
66E
330
66D
 75
     0
 76
     1
 47
0.0514683685270805
 98
        1
 10
505.7364121481103
 20
384.4818295910894
450
        0
451
        0
460
0.0
461
0.0
452
        0
462
0.0
453
        0
470

  0
LINE
  5
66B
102
{ACAD_REACTORS
330
5D8
102
}
330
18
100
AcDbEntity
  8
ROGO
 62
     4
100
AcDbLine
 10
506.9709954397362
 20
383.0811777837697
 30
0.0
 11
506.6538440998904
 21
382.573675390132
 31
0.0
  0
LINE
  5
66C
102
{ACAD_REACTORS
330
62F
330
5D8
102
}
330
18
100
AcDbEntity
  8
ROGO
 62
     4
100
AcDbLine
 10
507.1163278133221
 20
384.5905121920576
 30
0.0
 11
505.9012412169544
 21
382.6461428054006
 31
0.0
  0
LINE
  5
66D
102
{ACAD_REACTORS
330
66A
102
}
330
18
100
AcDbEntity
  8
ROGO
 62
     4
100
AcDbLine
 10
506.8425668545461
 20
384.6168723742118
 30
0.0
 11
506.5532412853968
 21
384.1538964998068
 31
0.0
  0
LINE
  5
66E
102
{ACAD_REACTORS
330
66A
102
}
330
18
100
AcDbEntity
  8
ROGO
 62
     4
100
AcDbLine
 10
505.7352576139491
 20
384.2326593689717
 30
0.0
 11
506.5532412853968
 21
384.1538964998068
 31
0.0
  0
LINE
  5
66F
102
{ACAD_REACTORS
330
66A
102
}
330
18
100
AcDbEntity
  8
ROGO
 62
     4
100
AcDbLine
 10
505.5184526877485
 20
383.9159812771573
 30
0.0
 11
506.3542679837657
 21
383.8355014178348
 31
0.0
  0
LINE
  5
670
102
{ACAD_REACTORS
330
66A
102
}
330
18
100
AcDbEntity
  8
ROGO
 62
     4
100
AcDbLine
 10
506.3542679837657
 20
383.8355014178348
 30
0.0
 11
506.0649454784949
 21
383.3725304462178
 31
0.0
  0
SPLINE
  5
671
102
{ACAD_REACTORS
330
66A
102
}
330
18
100
AcDbEntity
  8
ROGO
 62
     4
100
AcDbSpline
210
0.0
220
0.0
230
1.0
 70
     8
 71
     3
 72
    26
 73
    22
 74
    20
 42
0.0000000001
 43
0.0000000001
 44
0.0000000001
 40
0.0
 40
0.0
 40
0.0
 40
0.0
 40
0.2382195346592031
 40
0.3976890672660507
 40
0.512679586978726
 40
0.5985392873135116
 40
0.7099038249249869
 40
0.7911890807494643
 40
0.9379713068544079
 40
1.057449928673203
 40
1.138714535893297
 40
1.218398644003467
 40
1.360938021870348
 40
1.461730374800237
 40
1.516014844108025
 40
1.593124329220465
 40
1.648806818593676
 40
1.729472362005565
 40
1.77512208216434
 40
1.874460993765129
 40
1.91982000375118
 40
1.91982000375118
 40
1.91982000375118
 40
1.91982000375118
 10
505.5335846788988
 20
384.7429130220124
 30
0.0
 10
505.4526391731641
 20
384.7458609051266
 30
0.0
 10
505.3175069191235
 20
384.7507821677249
 30
0.0
 10
505.161350513597
 20
384.6753663927976
 30
0.0
 10
505.0482468569526
 20
384.6336722610269
 30
0.0
 10
504.9643395141282
 20
384.5702670972258
 30
0.0
 10
504.9007896340627
 20
384.5025479653318
 30
0.0
 10
504.8211605249666
 20
384.4222375960811
 30
0.0
 10
504.7532960386057
 20
384.3263256377509
 30
0.0
 10
504.7129415146994
 20
384.2172973618444
 30
0.0
 10
504.678152293774
 20
384.1306540899077
 30
0.0
 10
504.64915166471
 20
384.0331609751708
 30
0.0
 10
504.6437594792606
 20
383.9253365026379
 30
0.0
 10
504.6412399390987
 20
383.8249550425268
 30
0.0
 10
504.6659994639809
 20
383.7507404550671
 30
0.0
 10
504.697121647018
 20
383.6966053518075
 30
0.0
 10
504.7358309042512
 20
383.6365548204857
 30
0.0
 10
504.7805082255518
 20
383.5949501751406
 30
0.0
 10
504.8139563843676
 20
383.5241531204519
 30
0.0
 10
504.882968974772
 20
383.5088847324856
 30
0.0
 10
504.9257216518031
 20
383.4876053138842
 30
0.0
 10
504.9391234967164
 20
383.4809347732831
 30
0.0
 11
505.5335846788988
 21
384.7429130220124
 31
0.0
 11
505.2957717723095
 21
384.7290001447829
 31
0.0
 11
505.1469401388138
 21
384.6717316831234
 31
0.0
 11
505.0420751142564
 21
384.624549628819
 31
0.0
 11
504.9727103536279
 21
384.5739490544692
 31
0.0
 11
504.8935131086814
 21
384.4956556535322
 31
0.0
 11
504.8376651479188
 21
384.4365938376685
 31
0.0
 11
504.7543689431647
 21
384.315735390823
 31
0.0
 11
504.7079396167216
 21
384.2056469776373
 31
0.0
 11
504.6791256194174
 21
384.1296621768809
 31
0.0
 11
504.6574113527405
 21
384.05299374982
 31
0.0
 11
504.643749558805
 21
383.9111105949736
 31
0.0
 11
504.648386571928
 21
383.8104249628386
 31
0.0
 11
504.6649049368749
 21
383.758714739212
 31
0.0
 11
504.7013571486567
 21
383.6907654275855
 31
0.0
 11
504.7327588833128
 21
383.6447820535968
 31
0.0
 11
504.7840940565386
 21
383.5825596309196
 31
0.0
 11
504.8090787442257
 21
383.544354103417
 31
0.0
 11
504.897963887686
 21
383.4999958952695
 31
0.0
 11
504.9391234967164
 21
383.4809347732831
 31
0.0
  0
SPLINE
  5
672
102
{ACAD_REACTORS
330
66A
102
}
330
18
100
AcDbEntity
  8
ROGO
 62
     4
100
AcDbSpline
210
0.0
220
0.0
230
1.0
 70
     8
 71
     3
 72
    16
 73
    12
 74
    10
 42
0.0000000001
 43
0.0000000001
 44
0.0000000001
 40
0.0
 40
0.0
 40
0.0
 40
0.0
 40
0.1255907025629118
 40
0.1869327038470471
 40
0.2171823804790079
 40
0.249060613688412
 40
0.2947101524737887
 40
0.3362763310931299
 40
0.3796288870083109
 40
0.4523125795610867
 40
0.5242542460842529
 40
0.5242542460842529
 40
0.5242542460842529
 40
0.5242542460842529
 10
505.7352576139491
 20
384.2326593689717
 30
0.0
 10
505.6923012364667
 20
384.2302815148242
 30
0.0
 10
505.6283637663644
 20
384.2267422504036
 30
0.0
 10
505.5670383025285
 20
384.1871225273119
 30
0.0
 10
505.5323203453133
 20
384.1633813239399
 30
0.0
 10
505.5179663287084
 20
384.128896339252
 30
0.0
 10
505.4859785728805
 20
384.1044359680482
 30
0.0
 10
505.4581663498753
 20
384.0692645485369
 30
0.0
 10
505.447427872562
 20
384.0183117383859
 30
0.0
 10
505.4447092833945
 20
383.9456179466763
 30
0.0
 10
505.4939557755817
 20
383.9258263188457
 30
0.0
 10
505.5184526877485
 20
383.9159812771572
 30
0.0
 11
505.7352576139491
 21
384.2326593689717
 31
0.0
 11
505.6114230006594
 21
384.2117306059496
 31
0.0
 11
505.5583074075917
 21
384.1810455135658
 31
0.0
 11
505.5349581234077
 21
384.1618139284924
 31
0.0
 11
505.5180254779274
 21
384.1348045362447
 31
0.0
 11
505.4862098932727
 21
384.1020684863242
 31
0.0
 11
505.4614944252412
 21
384.068648539511
 31
0.0
 11
505.4502957570756
 21
384.0267673511838
 31
0.0
 11
505.4576651156239
 21
383.9544582112519
 31
0.0
 11
505.5184526877485
 21
383.9159812771572
 31
0.0
  0
LINE
  5
673
102
{ACAD_REACTORS
330
66A
102
}
330
18
100
AcDbEntity
  8
ROGO
 62
     4
100
AcDbLine
 10
505.5335846788991
 20
384.7429130220124
 30
0.0
 11
506.8425668545461
 21
384.6168723742118
 31
0.0
  0
LINE
  5
674
102
{ACAD_REACTORS
330
66A
102
}
330
18
100
AcDbEntity
  8
ROGO
 62
     4
100
AcDbLine
 10
504.9391234967164
 20
383.4809347732831
 30
0.0
 11
506.064945478495
 21
383.3725304462178
 31
0.0
  0
LINE
  5
675
102
{ACAD_REACTORS
330
644
102
}
330
18
100
AcDbEntity
  8
ROGO
 62
     4
100
AcDbLine
 10
501.3219939138913
 20
385.1484430881725
 30
0.0
 11
502.6309760895382
 21
385.022402440372
 31
0.0
  0
LINE
  5
676
102
{ACAD_REACTORS
330
644
102
}
330
18
100
AcDbEntity
  8
ROGO
 62
     4
100
AcDbLine
 10
502.1426772187577
 20
384.241031483995
 30
0.0
 11
501.8533547134872
 21
383.778060512378
 31
0.0
  0
SPLINE
  5
677
102
{ACAD_REACTORS
330
644
102
}
330
18
100
AcDbEntity
  8
ROGO
 62
     4
100
AcDbSpline
210
0.0
220
0.0
230
1.0
 70
     8
 71
     3
 72
    16
 73
    12
 74
    10
 42
0.0000000001
 43
0.0000000001
 44
0.0000000001
 40
0.0
 40
0.0
 40
0.0
 40
0.0
 40
0.1255907025629583
 40
0.186932703847016
 40
0.217182380479013
 40
0.2490606136884171
 40
0.2947101524737925
 40
0.3362763310931338
 40
0.3796288870083697
 40
0.4523125795610947
 40
0.5242542460842609
 40
0.5242542460842609
 40
0.5242542460842609
 40
0.5242542460842609
 10
501.5236668489413
 20
384.6381894351318
 30
0.0
 10
501.4807104714589
 20
384.6358115809843
 30
0.0
 10
501.4167730013566
 20
384.6322723165636
 30
0.0
 10
501.3554475375204
 20
384.5926525934722
 30
0.0
 10
501.3207295803056
 20
384.5689113901
 30
0.0
 10
501.3063755637005
 20
384.5344264054122
 30
0.0
 10
501.2743878078728
 20
384.5099660342084
 30
0.0
 10
501.2465755848674
 20
384.4747946146971
 30
0.0
 10
501.2358371075544
 20
384.4238418045463
 30
0.0
 10
501.2331185183866
 20
384.3511480128364
 30
0.0
 10
501.2823650105739
 20
384.331356385006
 30
0.0
 10
501.3068619227406
 20
384.3215113433174
 30
0.0
 11
501.5236668489413
 21
384.6381894351318
 31
0.0
 11
501.3998322356515
 21
384.6172606721098
 31
0.0
 11
501.3467166425838
 21
384.586575579726
 31
0.0
 11
501.3233673583998
 21
384.5673439946526
 31
0.0
 11
501.3064347129196
 21
384.5403346024049
 31
0.0
 11
501.2746191282649
 21
384.5075985524844
 31
0.0
 11
501.2499036602333
 21
384.4741786056713
 31
0.0
 11
501.2387049920677
 21
384.432297417344
 31
0.0
 11
501.246074350616
 21
384.3599882774121
 31
0.0
 11
501.3068619227406
 21
384.3215113433174
 31
0.0
  0
LINE
  5
678
102
{ACAD_REACTORS
330
644
102
}
330
18
100
AcDbEntity
  8
ROGO
 62
     4
100
AcDbLine
 10
501.3068619227405
 20
384.3215113433174
 30
0.0
 11
502.1426772187577
 21
384.241031483995
 31
0.0
  0
LINE
  5
679
102
{ACAD_REACTORS
330
644
102
}
330
18
100
AcDbEntity
  8
ROGO
 62
     4
100
AcDbLine
 10
501.5236668489412
 20
384.6381894351318
 30
0.0
 11
502.3416505203889
 21
384.559426565967
 31
0.0
  0
LINE
  5
67A
102
{ACAD_REACTORS
330
644
102
}
330
18
100
AcDbEntity
  8
ROGO
 62
     4
100
AcDbLine
 10
502.6309760895382
 20
385.0224024403719
 30
0.0
 11
502.3416505203889
 21
384.559426565967
 31
0.0
  0
TEXT
  5
67B
330
18
100
AcDbEntity
  8
文字
100
AcDbText
 10
500.4195395786632
 20
392.8267275051724
 30
0.0
 40
2.0
  1
0
 50
354.5
  7
STYLE3
100
AcDbText
  0
LINE
  5
67C
330
18
100
AcDbEntity
  8
目盛
100
AcDbLine
 10
501.9793911147843
 20
398.7832396161605
 30
0.0
 11
501.6918538572237
 21
395.7970510210589
 31
0.0
  0
LINE
  5
67D
330
18
100
AcDbEntity
  8
目盛
100
AcDbLine
 10
496.2165999219315
 20
398.6122039664113
 30
0.0
 11
496.5260206945303
 21
396.6362842348725
 31
0.0
  0
LINE
  5
67E
330
18
100
AcDbEntity
  8
目盛
100
AcDbLine
 10
497.6504152955483
 20
398.7907951119607
 30
0.0
 11
497.8351564704413
 21
396.7993457155916
 31
0.0
  0
LINE
  5
67F
330
18
100
AcDbEntity
  8
目盛
100
AcDbLine
 10
499.0926151928617
 20
398.8790038364612
 30
0.0
 11
499.1519476810317
 21
396.8798841162224
 31
0.0
  0
LINE
  5
680
330
18
100
AcDbEntity
  8
目盛
100
AcDbLine
 10
500.5375079097553
 20
398.8764820203757
 30
0.0
 11
500.4711975529782
 21
396.8775815884923
 31
0.0
  0
LINE
  5
681
330
18
100
AcDbEntity
  8
目盛
100
AcDbLine
 10
503.4125743536725
 20
398.5996446089863
 30
0.0
 11
503.0962582191635
 21
396.6248169954845
 31
0.0
  0
LINE
  5
682
330
18
100
AcDbEntity
  8
目盛
100
AcDbLine
 10
504.8314015069347
 20
398.32642156447
 30
0.0
 11
504.3917090982289
 21
396.3753524765783
 31
0.0
  0
LINE
  5
683
330
18
100
AcDbEntity
  8
目盛
100
AcDbLine
 10
506.2302731119974
 20
397.9646487691446
 30
0.0
 11
505.6689396941559
 21
396.0450381851942
 31
0.0
  0
LINE
  5
684
330
18
100
AcDbEntity
  8
目盛
100
AcDbLine
 10
507.6036684617195
 20
397.5157539749549
 30
0.0
 11
506.9229093612933
 21
395.6351777209341
 31
0.0
  0
LINE
  5
685
330
18
100
AcDbEntity
  8
外形線
  6
Continuous
100
AcDbLine
 10
499.9737258499297
 20
416.5573023719107
 30
0.0
 11
499.3507284585482
 21
410.0872270825241
 31
0.0
  0
LINE
  5
686
330
18
100
AcDbEntity
  8
外形線
  6
Continuous
100
AcDbLine
 10
507.3396577178469
 20
415.8480438032611
 30
0.0
 11
506.7166603264653
 21
409.3779685138744
 31
0.0
  0
LINE
  5
687
330
18
100
AcDbEntity
  8
外形線
  6
Continuous
100
AcDbLine
 10
498.4770350839166
 20
404.1436036180771
 30
0.0
 11
506.4402046708541
 21
403.3768375979153
 31
0.0
  0
LINE
  5
688
330
18
100
AcDbEntity
  8
外形線
  6
Continuous
100
AcDbLine
 10
499.0521095990381
 20
410.1159808082802
 30
0.0
 11
507.0152791859754
 21
409.3492147881184
 31
0.0
  0
LINE
  5
68A
330
18
100
AcDbEntity
  8
外形線
  6
Continuous
100
AcDbLine
 10
499.0521095990381
 20
410.1159808082802
 30
0.0
 11
498.4770350839168
 21
404.1436036180771
 31
0.0
  0
LINE
  5
68B
330
18
100
AcDbEntity
  8
外形線
  6
Continuous
100
AcDbLine
 10
507.0152791859754
 20
409.3492147881184
 30
0.0
 11
506.4402046708541
 21
403.3768375979153
 31
0.0
  0
ARC
  5
68C
330
18
100
AcDbEntity
  8
外形線
  6
Continuous
100
AcDbCircle
 10
503.0485504841474
 20
409.8868842089464
 30
0.0
 40
7.344999999999885
100
AcDbArc
 50
54.25198538337813
 51
114.7480146166212
  0
LINE
  5
68D
330
18
100
AcDbEntity
  8
外形線
  6
Continuous
100
AcDbLine
 10
499.9737258499297
 20
416.5573023719107
 30
0.0
 11
507.3396577178469
 21
415.8480438032611
 31
0.0
  0
POINT
  5
68E
330
18
100
AcDbEntity
  8
DEFPOINTS
  6
ByBlock
 62
     0
100
AcDbPoint
 10
503.7525375364084
 20
417.1980692859532
 30
0.0
  0
LINE
  5
68F
330
18
100
AcDbEntity
  8
目盛
100
AcDbLine
 10
513.8400607310932
 20
357.6909857954631
 30
0.0
 11
512.6170066507215
 21
359.2734328613981
 31
0.0
  0
LINE
  5
690
330
18
100
AcDbEntity
  8
目盛
100
AcDbLine
 10
512.6696356817737
 20
356.843739357398
 30
0.0
 11
511.5483576926473
 21
358.499860026643
 31
0.0
  0
LINE
  5
691
330
18
100
AcDbEntity
  8
目盛
100
AcDbLine
 10
511.4483211549154
 20
356.0716563635603
 30
0.0
 11
509.9257060660331
 21
358.6565438448848
 31
0.0
  0
LINE
  5
692
330
18
100
AcDbEntity
  8
目盛
100
AcDbLine
 10
510.1809371209902
 20
355.3777838727955
 30
0.0
 11
509.2760677023667
 21
357.1613789320058
 31
0.0
  0
LINE
  5
693
330
18
100
AcDbEntity
  8
目盛
100
AcDbLine
 10
508.8724853657672
 20
354.7648602828244
 30
0.0
 11
508.0813943606414
 21
356.6017530455106
 31
0.0
  0
LINE
  5
694
330
18
100
AcDbEntity
  8
目盛
100
AcDbLine
 10
507.5281297505499
 20
354.2353045230385
 30
0.0
 11
506.8539392337038
 21
356.1182456126626
 31
0.0
  0
LINE
  5
695
330
18
100
AcDbEntity
  8
目盛
100
AcDbLine
 10
506.1531758327738
 20
353.7912065080907
 30
0.0
 11
505.5985465261691
 21
355.7127648164059
 31
0.0
  0
TEXT
  5
696
330
18
100
AcDbEntity
  8
文字
100
AcDbText
 10
516.239831748179
 20
378.9937402536853
 30
0.0
 40
2.0
  1
8
 50
354.5
  7
STYLE3
100
AcDbText
  0
LINE
  5
697
330
18
100
AcDbEntity
  8
目盛
100
AcDbLine
 10
518.7751995802217
 20
362.9280279281513
 30
0.0
 11
517.1230029912302
 21
364.0550800260264
 31
0.0
  0
LINE
  5
698
330
18
100
AcDbEntity
  8
目盛
100
AcDbLine
 10
517.9238727580171
 20
361.7605674514397
 30
0.0
 11
516.3457045883476
 21
362.9891378516376
 31
0.0
  0
TEXT
  5
699
330
18
100
AcDbEntity
  8
文字
100
AcDbText
 10
515.2730665605774
 20
367.5379585372641
 30
0.0
 40
2.0
  1
7
 50
354.5
  7
STYLE3
100
AcDbText
  0
TEXT
  5
69A
330
18
100
AcDbEntity
  8
文字
100
AcDbText
 10
507.4927413458015
 20
359.1468157679983
 30
0.0
 40
2.0
  1
6
 50
354.5
  7
STYLE3
100
AcDbText
  0
LINE
  5
69B
330
18
100
AcDbEntity
  8
目盛
100
AcDbLine
 10
517.0009203849661
 20
360.6488659447534
 30
0.0
 11
514.7540532225993
 21
362.6367260894007
 31
0.0
  0
LINE
  5
69C
330
18
100
AcDbEntity
  8
目盛
100
AcDbLine
 10
516.0099849324288
 20
359.5973107860512
 30
0.0
 11
514.5982417910714
 21
361.0139904615003
 31
0.0
  0
LINE
  5
69D
330
18
100
AcDbEntity
  8
目盛
100
AcDbLine
 10
514.9549771699206
 20
358.6100519831347
 30
0.0
 11
513.6349738339988
 21
360.1125802501417
 31
0.0
  0
LINE
  5
69E
330
18
100
AcDbEntity
  8
目盛
100
AcDbLine
 10
521.4015657280588
 20
368.0603973988151
 30
0.0
 11
519.5209894740379
 21
368.7411564992413
 31
0.0
  0
LINE
  5
69F
330
18
100
AcDbEntity
  8
目盛
100
AcDbLine
 10
520.8673205176769
 20
366.7178984684347
 30
0.0
 11
518.1161402945215
 21
367.9141456752105
 31
0.0
  0
LINE
  5
6A0
330
18
100
AcDbEntity
  8
目盛
100
AcDbLine
 10
520.249833312875
 20
365.4115941873445
 30
0.0
 11
518.4694077036526
 21
366.3226840018116
 31
0.0
  0
LINE
  5
6A1
330
18
100
AcDbEntity
  8
目盛
100
AcDbLine
 10
519.5515410535473
 20
364.1466399417485
 30
0.0
 11
517.8318365103534
 21
365.1677257775717
 31
0.0
  0
LINE
  5
6A2
330
18
100
AcDbEntity
  8
目盛
100
AcDbLine
 10
519.6828627741628
 20
373.9722120033109
 30
0.0
 11
522.6690513692642
 21
373.6846747457502
 31
0.0
  0
LINE
  5
6A3
330
18
100
AcDbEntity
  8
目盛
100
AcDbLine
 10
522.6766068650645
 20
378.0136505649862
 30
0.0
 11
520.6851574686953
 21
377.8289093900931
 31
0.0
  0
LINE
  5
6A4
330
18
100
AcDbEntity
  8
目盛
100
AcDbLine
 10
522.764815589565
 20
376.5714506676729
 30
0.0
 11
520.7656958693261
 21
376.5121181795028
 31
0.0
  0
LINE
  5
6A5
330
18
100
AcDbEntity
  8
目盛
100
AcDbLine
 10
522.7622937734795
 20
375.1265579507792
 30
0.0
 11
520.7633933415959
 21
375.1928683075562
 31
0.0
  0
LINE
  5
6A6
330
18
100
AcDbEntity
  8
目盛
100
AcDbLine
 10
522.48545636209
 20
372.2514915068622
 30
0.0
 11
520.5106287485882
 21
372.5678076413712
 31
0.0
  0
LINE
  5
6A7
330
18
100
AcDbEntity
  8
目盛
100
AcDbLine
 10
522.2122333175739
 20
370.8326643536001
 30
0.0
 11
520.2611642296822
 21
371.2723567623058
 31
0.0
  0
LINE
  5
6A8
330
18
100
AcDbEntity
  8
目盛
100
AcDbLine
 10
521.8504605222484
 20
369.4337927485372
 30
0.0
 11
519.930849938298
 21
369.9951261663788
 31
0.0
  0
LINE
  5
6A9
330
18
100
AcDbEntity
  8
目盛
100
AcDbLine
 10
520.2862819877391
 20
386.2951253678863
 30
0.0
 11
518.5026869285286
 21
385.3902559492627
 31
0.0
  0
LINE
  5
6AA
330
18
100
AcDbEntity
  8
目盛
100
AcDbLine
 10
520.8992055777101
 20
384.9866736126635
 30
0.0
 11
519.062312815024
 21
384.1955826075376
 31
0.0
  0
LINE
  5
6AB
330
18
100
AcDbEntity
  8
目盛
100
AcDbLine
 10
517.0540138773999
 20
391.0691654168168
 30
0.0
 11
515.5514856103929
 21
389.7491620808949
 31
0.0
  0
LINE
  5
6AC
102
{ACAD_REACTORS
330
5D8
102
}
330
18
100
AcDbEntity
  8
ROGO
 62
     4
100
AcDbLine
 10
507.1854837943147
 20
382.5224843099718
 30
0.0
 11
507.9380702109047
 21
382.450018480232
 31
0.0
  0
LINE
  5
6AD
102
{ACAD_REACTORS
330
5D8
102
}
330
18
100
AcDbEntity
  8
ROGO
 62
     4
100
AcDbLine
 10
508.1101229354803
 20
384.4948206056416
 30
0.0
 11
508.8627093520705
 21
384.4223547759018
 31
0.0
  0
LINE
  5
6AE
102
{ACAD_REACTORS
330
5D8
102
}
330
18
100
AcDbEntity
  8
ROGO
 62
     4
100
AcDbLine
 10
507.5271907789406
 20
383.5202661289092
 30
0.0
 11
508.8627093520705
 21
384.4223547759018
 31
0.0
  0
LINE
  5
6AF
102
{ACAD_REACTORS
330
5D8
102
}
330
18
100
AcDbEntity
  8
ROGO
 62
     4
100
AcDbLine
 10
507.5271907789406
 20
383.5202661289092
 30
0.0
 11
507.9380702109047
 21
382.450018480232
 31
0.0
  0
LINE
  5
6B0
102
{ACAD_REACTORS
330
5D8
102
}
330
18
100
AcDbEntity
  8
ROGO
 62
     4
100
AcDbLine
 10
507.7362679662107
 20
384.305759206505
 30
0.0
 11
508.1101229354803
 21
384.4948206056416
 31
0.0
  0
LINE
  5
6B1
102
{ACAD_REACTORS
330
5D8
102
}
330
18
100
AcDbEntity
  8
ROGO
 62
     4
100
AcDbLine
 10
507.868930696258
 20
384.5180447767889
 30
0.0
 11
507.7362679662107
 21
384.305759206505
 31
0.0
  0
TEXT
  5
6B2
330
18
100
AcDbEntity
  8
文字
100
AcDbText
 10
510.4895691695173
 20
388.6816086395504
 30
0.0
 40
2.0
  1
9
 50
354.5
  7
STYLE3
100
AcDbText
  0
LINE
  5
6B3
330
18
100
AcDbEntity
  8
目盛
100
AcDbLine
 10
517.9730800650713
 20
389.9542489779894
 30
0.0
 11
516.3906329991363
 21
388.7311948976178
 31
0.0
  0
LINE
  5
6B4
330
18
100
AcDbEntity
  8
目盛
100
AcDbLine
 10
518.8203265031364
 20
388.7838239286698
 30
0.0
 11
517.1642058338915
 21
387.6625459395433
 31
0.0
  0
LINE
  5
6B5
330
18
100
AcDbEntity
  8
目盛
100
AcDbLine
 10
519.5924094969741
 20
387.5625094018115
 30
0.0
 11
517.0075220156497
 21
386.0398943129294
 31
0.0
  0
LINE
  5
6B6
330
18
100
AcDbEntity
  8
目盛
100
AcDbLine
 10
515.0151999157811
 20
393.1151086318623
 30
0.0
 11
513.0273397711339
 21
390.8682414694953
 31
0.0
  0
LINE
  5
6B7
330
18
100
AcDbEntity
  8
目盛
100
AcDbLine
 10
510.2524716731901
 20
396.3640215597712
 30
0.0
 11
509.3413818587229
 21
394.5835959505489
 31
0.0
  0
LINE
  5
6B8
330
18
100
AcDbEntity
  8
目盛
100
AcDbLine
 10
511.5174259187863
 20
395.6657293004433
 30
0.0
 11
510.496340082963
 21
393.9460247572496
 31
0.0
  0
LINE
  5
6B9
330
18
100
AcDbEntity
  8
目盛
100
AcDbLine
 10
512.7360379323834
 20
394.8893878271178
 30
0.0
 11
511.6089858345083
 21
393.2371912381263
 31
0.0
  0
LINE
  5
6BA
330
18
100
AcDbEntity
  8
目盛
100
AcDbLine
 10
513.903498409095
 20
394.0380610049132
 30
0.0
 11
512.674928008897
 21
392.4598928352438
 31
0.0
  0
LINE
  5
6BB
330
18
100
AcDbEntity
  8
目盛
100
AcDbLine
 10
516.0667550744833
 20
392.1241731793249
 30
0.0
 11
514.6500753990343
 21
390.7124300379676
 31
0.0
  0
LINE
  5
6BC
330
18
100
AcDbEntity
  8
目盛
100
AcDbLine
 10
521.4287613374961
 20
383.6423179974462
 30
0.0
 11
519.545820247872
 21
382.9681274806
 31
0.0
  0
LINE
  5
6BD
330
18
100
AcDbEntity
  8
目盛
100
AcDbLine
 10
521.8728593524438
 20
382.26736407967
 30
0.0
 11
519.9513010441285
 21
381.7127347730652
 31
0.0
  0
LINE
  5
6BE
330
18
100
AcDbEntity
  8
目盛
100
AcDbLine
 10
522.2297469705775
 20
380.8672381742917
 30
0.0
 11
519.3008589492177
 21
380.2179193324775
 31
0.0
  0
LINE
  5
6BF
330
18
100
AcDbEntity
  8
目盛
100
AcDbLine
 10
522.4980157195151
 20
379.447465938603
 30
0.0
 11
520.5220959879763
 21
379.1380451660042
 31
0.0
  0
CIRCLE
  5
6C0
330
18
100
AcDbEntity
  8
外形線
100
AcDbCircle
 10
499.7749388068192
 20
375.8891270537154
 30
0.0
 40
26.4
  0
ARC
  5
6C1
330
18
100
AcDbEntity
  8
隠れ線2
100
AcDbCircle
 10
538.1297636690862
 20
345.1078076312743
 30
0.0
 40
24.0
100
AcDbArc
 50
141.9621124577111
 51
154.5156008420425
  0
ARC
  5
6C2
330
18
100
AcDbEntity
  8
隠れ線2
100
AcDbCircle
 10
429.5297636690862
 20
380.1078076312743
 30
0.0
 40
46.0
100
AcDbArc
 50
346.3303387100928
 51
350.9523172978948
  0
LINE
  5
6F4
330
18
100
AcDbEntity
  8
外形線
 48
0.5
100
AcDbLine
 10
493.9613005123712
 20
346.8124764594445
 30
0.0
 11
499.9336777025746
 21
346.2374019443231
 31
0.0
  0
LINE
  5
6F5
330
18
100
AcDbEntity
  8
外形線
 48
0.5
100
AcDbLine
 10
495.0976444366675
 20
345.5720711770832
 30
0.0
 11
498.5815311309526
 21
345.2366110432624
 31
0.0
  0
LINE
  5
6F6
330
18
100
AcDbEntity
  8
外形線
 48
0.5
100
AcDbLine
 10
501.0249196534621
 20
347.13695239017
 30
0.0
 11
501.2554085330155
 21
349.5306709268893
 31
0.0
  0
LINE
  5
6F7
330
18
100
AcDbEntity
  8
外形線
 48
0.5
100
AcDbLine
 10
493.0617500665244
 20
347.9037184103319
 30
0.0
 11
493.2922389460779
 21
350.2974369470511
 31
0.0
  0
LINE
  5
6F8
330
18
100
AcDbEntity
  8
外形線
 48
0.5
100
AcDbLine
 10
493.0617500665244
 20
347.9037184103317
 30
0.0
 11
501.024919653462
 21
347.13695239017
 31
0.0
  0
LINE
  5
6F9
330
18
100
AcDbEntity
  8
外形線
 48
0.5
100
AcDbLine
 10
493.0617500665244
 20
347.9037184103319
 30
0.0
 11
493.9613005123712
 21
346.8124764594445
 31
0.0
  0
LINE
  5
6FA
330
18
100
AcDbEntity
  8
外形線
 48
0.5
100
AcDbLine
 10
499.9336777025746
 20
346.2374019443231
 30
0.0
 11
501.0249196534621
 21
347.13695239017
 31
0.0
  0
LINE
  5
6FB
330
18
100
AcDbEntity
  8
外形線
 48
0.5
100
AcDbLine
 10
498.479561437291
 20
344.1776152844474
 30
0.0
 11
498.6894324546153
 21
346.3572091349734
 31
0.0
  0
LINE
  5
6FC
330
18
100
AcDbEntity
  8
外形線
 48
0.5
100
AcDbLine
 10
494.9956747430061
 20
344.5130754182685
 30
0.0
 11
495.2055457603305
 21
346.6926692687942
 31
0.0
  0
ARC
  5
6FD
330
18
100
AcDbEntity
  8
外形線
100
AcDbCircle
 10
496.5137122252412
 20
342.0199940357244
 30
0.0
 40
0.6
100
AcDbArc
 50
195.8119739705771
 51
333.1880260293593
  0
LINE
  5
6FE
330
18
100
AcDbEntity
  8
外形線
100
AcDbLine
 10
497.0492071685749
 20
341.7493555948772
 30
0.0
 11
498.479561437291
 21
344.1776152844474
 31
0.0
  0
LINE
  5
6FF
330
18
100
AcDbEntity
  8
外形線
100
AcDbLine
 10
495.936415583258
 20
341.8565052374696
 30
0.0
 11
494.995674743006
 21
344.5130754182685
 31
0.0
  0
LINE
  5
700
330
18
100
AcDbEntity
  8
外形線
100
AcDbLine
 10
494.9956747430061
 20
344.5130754182685
 30
0.0
 11
498.479561437291
 21
344.1776152844474
 31
0.0
  0
LINE
  5
701
330
18
100
AcDbEntity
  8
外形線
 48
0.5
100
AcDbLine
 10
498.4544823039507
 20
325.6586551081919
 30
0.0
 11
499.9400914680143
 21
341.0872961828832
 31
0.0
  0
LINE
  5
702
330
18
100
AcDbEntity
  8
外形線
 48
0.5
100
AcDbLine
 10
488.5005203202789
 20
326.6171126333942
 30
0.0
 11
489.9861294843424
 21
342.0457537080854
 31
0.0
  0
LINE
  5
703
330
18
100
AcDbEntity
  8
外形線
100
AcDbLine
 10
489.9861294843424
 20
342.0457537080854
 30
0.0
 11
499.9400914680143
 21
341.0872961828832
 31
0.0
  0
LINE
  5
704
330
18
100
AcDbEntity
  8
外形線
100
AcDbLine
 10
488.5005203202789
 20
326.6171126333942
 30
0.0
 11
498.4544823039507
 21
325.6586551081919
 31
0.0
  0
LINE
  5
705
330
18
100
AcDbEntity
  8
中心線
100
AcDbLine
 10
491.396903275408
 20
329.3520979593826
 30
0.0
 11
496.2567171416134
 21
328.8841511077885
 31
0.0
  0
LINE
  5
706
330
18
100
AcDbEntity
  8
中心線
100
AcDbLine
 10
491.9719777905292
 20
335.3244751495858
 30
0.0
 11
496.8317916567347
 21
334.8565282979916
 31
0.0
  0
LINE
  5
707
330
18
100
AcDbEntity
  8
中心線
 48
0.5
100
AcDbLine
 10
493.5039815408478
 20
326.4128915609572
 30
0.0
 11
494.592464869417
 21
337.7172231432582
 31
0.0
  0
CIRCLE
  5
708
330
18
100
AcDbEntity
  8
外形線
100
AcDbCircle
 10
494.3401130847969
 20
335.0964496560977
 30
0.0
 40
1.8
  0
CIRCLE
  5
709
330
18
100
AcDbEntity
  8
外形線
100
AcDbCircle
 10
493.7650385696756
 20
329.1240724658946
 30
0.0
 40
1.8
  0
LINE
  5
70A
330
18
100
AcDbEntity
  8
想像線
 48
0.5
100
AcDbLine
 10
503.4557608936912
 20
351.5153428594838
 30
0.0
 11
481.5570445296134
 21
353.6239494149289
 31
0.0
  0
LINE
  5
70B
330
18
100
AcDbEntity
  8
想像線
100
AcDbLine
 10
484.4793701964188
 20
344.9652194929627
 30
0.0
 11
483.1501903900468
 21
346.5776435339732
 31
0.0
  0
LINE
  5
70C
330
18
100
AcDbEntity
  8
想像線
100
AcDbLine
 10
484.6323493515194
 20
346.4453322714356
 30
0.0
 11
482.9676604903543
 21
345.0730686721123
 31
0.0
  0
CIRCLE
  5
70D
330
18
100
AcDbEntity
  8
想像線
100
AcDbCircle
 10
483.8148054055611
 20
345.7714010497774
 30
0.0
 40
1.5
  0
LINE
  5
70E
330
18
100
AcDbEntity
  8
想像線
 48
0.5
100
AcDbLine
 10
481.5570445296134
 20
353.6239494149289
 30
0.0
 11
480.5985870044109
 21
343.6699874312569
 31
0.0
  0
LINE
  5
70F
330
18
100
AcDbEntity
  8
中心線
100
AcDbLine
 10
483.5792456939621
 20
343.3250199087396
 30
0.0
 11
484.4731913679063
 21
352.6090007007218
 31
0.0
  0
LINE
  5
710
330
18
100
AcDbEntity
  8
想像線
 48
0.5
100
AcDbLine
 10
486.5709641946141
 20
343.0949129161356
 30
0.0
 11
480.5985870044109
 21
343.6699874312569
 31
0.0
  0
LINE
  5
711
330
18
100
AcDbEntity
  8
想像線
100
AcDbLine
 10
484.9585989590199
 20
349.9422004847987
 30
0.0
 11
483.6294191526479
 21
351.5546245258092
 31
0.0
  0
LINE
  5
712
330
18
100
AcDbEntity
  8
想像線
100
AcDbLine
 10
485.1115781141203
 20
351.4223132632716
 30
0.0
 11
483.4468892529555
 21
350.0500496639482
 31
0.0
  0
CIRCLE
  5
713
330
18
100
AcDbEntity
  8
想像線
100
AcDbCircle
 10
484.2940341681623
 20
350.7483820416134
 30
0.0
 40
1.5
  0
LINE
  5
714
330
18
100
AcDbEntity
  8
中心線
100
AcDbLine
 10
486.3815520116185
 20
350.5473769353717
 30
0.0
 11
482.0758632150901
 21
350.9619676114241
 31
0.0
  0
LINE
  5
715
330
18
100
AcDbEntity
  8
中心線
100
AcDbLine
 10
486.1028254604336
 20
345.5510897764369
 30
0.0
 11
481.3439060047777
 21
346.0093216012708
 31
0.0
  0
LINE
  5
716
330
18
100
AcDbEntity
  8
想像線
 48
0.5
100
AcDbLine
 10
487.5294217198163
 20
353.0488748998074
 30
0.0
 11
484.1748203816083
 21
318.2100079569561
 31
0.0
  0
LINE
  5
717
330
18
100
AcDbEntity
  8
想像線
 48
0.5
100
AcDbLine
 10
500.1011595554834
 20
316.6764759166325
 30
0.0
 11
484.1748203816083
 21
318.2100079569561
 31
0.0
  0
LINE
  5
718
330
18
100
AcDbEntity
  8
想像線
 48
0.5
100
AcDbLine
 10
503.4557608936912
 20
351.5153428594838
 30
0.0
 11
500.1011595554834
 21
316.6764759166325
 31
0.0
  0
LINE
  5
719
330
18
100
AcDbEntity
  8
想像線
100
AcDbLine
 10
495.0046778756546
 20
334.290268099283
 30
0.0
 11
493.6754980692827
 21
335.9026921402935
 31
0.0
  0
LINE
  5
71A
330
18
100
AcDbEntity
  8
想像線
100
AcDbLine
 10
495.157657030755
 20
335.7703808777559
 30
0.0
 11
493.4929681695903
 21
334.3981172784324
 31
0.0
  0
LINE
  5
71B
330
18
100
AcDbEntity
  8
想像線
100
AcDbLine
 10
494.4296033605329
 20
328.3178909090799
 30
0.0
 11
493.1004235541609
 21
329.9303149500904
 31
0.0
  0
LINE
  5
71C
330
18
100
AcDbEntity
  8
想像線
100
AcDbLine
 10
494.5825825156337
 20
329.7980036875528
 30
0.0
 11
492.9178936544686
 21
328.4257400882294
 31
0.0
  0
POINT
  5
71D
330
18
100
AcDbEntity
  8
DEFPOINTS
  6
ByBlock
 62
     0
100
AcDbPoint
 10
494.9476356338705
 20
344.7441010213903
 30
0.0
  0
LINE
  5
71E
330
18
100
AcDbEntity
  8
中心線
 48
0.5
100
AcDbLine
 10
504.0150172099259
 20
419.9240249208957
 30
0.0
 11
494.265583324266
 21
318.6722827117612
 31
0.0
  0
LINE
  5
720
330
18
100
AcDbEntity
  8
中心線
 48
0.5
100
AcDbLine
 10
469.4588177393351
 20
378.8082374963447
 30
0.0
 11
530.9918899181394
 21
372.8832765435774
 31
0.0
  0
ARC
  5
729
330
18
100
AcDbEntity
  8
外形線
100
AcDbCircle
 10
275.4450752095209
 20
318.0978678428683
 30
0.0
 40
1.25
100
AcDbArc
 50
4.61809680204614
 51
184.6180968020435
  0
LINE
  5
72A
330
18
100
AcDbEntity
  8
外形線
100
AcDbLine
 10
276.6910170820268
 20
318.1985100325131
 30
0.0
 11
276.7479668915432
 21
317.4934761639314
 31
0.0
  0
LINE
  5
72B
330
18
100
AcDbEntity
  8
外形線
100
AcDbLine
 10
274.199133337015
 20
317.9972256532237
 30
0.0
 11
274.2631527344964
 21
317.2046708781706
 31
0.0
  0
ARC
  5
72C
330
18
100
AcDbEntity
  8
外形線
100
AcDbCircle
 10
275.9163870693635
 20
311.0356997710984
 30
0.0
 40
1.25
100
AcDbArc
 50
184.6180968020483
 51
4.618096802045748
  0
LINE
  5
72D
330
18
100
AcDbEntity
  8
外形線
100
AcDbLine
 10
274.6704451968576
 20
310.9350575814537
 30
0.0
 11
274.604936715678
 21
311.746047087883
 31
0.0
  0
LINE
  5
72E
330
18
100
AcDbEntity
  8
外形線
100
AcDbLine
 10
277.1623289418694
 20
311.1363419607432
 30
0.0
 11
277.1029848842776
 21
311.871016419824
 31
0.0
  0
LINE
  5
767
330
18
100
AcDbEntity
  8
0
  6
ByBlock
 62
     2
100
AcDbLine
 10
275.344433019876
 20
319.343809715374
 30
0.0
 11
266.9867414769905
 21
318.7042287889084
 31
0.0
  0
LINE
  5
768
330
18
100
AcDbEntity
  8
0
  6
ByBlock
 62
     2
100
AcDbLine
 10
273.4571990220767
 20
317.1109963908592
 30
0.0
 11
267.1536960970379
 21
316.6373445859725
 31
0.0
  0
LINE
  5
76B
330
18
100
AcDbEntity
  8
0
  6
ByBlock
 62
     2
100
AcDbLine
 10
268.2326833494964
 20
318.8048709785531
 30
0.0
 11
268.3996379695439
 21
316.7379867756172
 31
0.0
  0
MTEXT
  5
76E
330
18
100
AcDbEntity
  8
0
  6
ByBlock
 62
     6
100
AcDbMText
 10
266.0444809971453
 20
322.6066854825989
 30
0.0
 40
2.5
 41
0.0
 71
     5
 72
     1
  1
\A1;2
  7
STYLE3
 11
-0.0805137517157556
 21
0.996753498004724
 31
0.0
 73
     1
 44
1.0
  0
POINT
  5
76F
330
18
100
AcDbEntity
  8
DEFPOINTS
  6
ByBlock
 62
     0
100
AcDbPoint
 10
275.344433019876
 20
319.343809715374
 30
0.0
 50
355.3819031979542
  0
POINT
  5
770
330
18
100
AcDbEntity
  8
DEFPOINTS
  6
ByBlock
 62
     0
100
AcDbPoint
 10
273.4571990220767
 20
317.1109963908592
 30
0.0
 50
355.3819031979542
  0
POINT
  5
771
330
18
100
AcDbEntity
  8
DEFPOINTS
  6
ByBlock
 62
     0
100
AcDbPoint
 10
268.3996379695439
 20
316.7379867756172
 30
0.0
 50
355.3819031979542
  0
LINE
  5
772
330
18
100
AcDbEntity
  8
0
  6
ByBlock
 62
     2
100
AcDbLine
 10
273.8367926390757
 20
311.7217241921981
 30
0.0
 11
267.5925286022917
 21
311.2528574672237
 31
0.0
  0
LINE
  5
773
330
18
100
AcDbEntity
  8
0
  6
ByBlock
 62
     2
100
AcDbLine
 10
276.0170292590081
 20
309.7897578985922
 30
0.0
 11
267.761706769735
 21
309.1584459338934
 31
0.0
  0
LINE
  5
775
330
18
100
AcDbEntity
  8
0
  6
ByBlock
 62
     2
100
AcDbLine
 10
269.0076486422409
 20
309.2590881235381
 30
0.0
 11
269.4592967790776
 21
303.6677220442547
 31
0.0
  0
LINE
  5
776
330
18
100
AcDbEntity
  8
0
  6
ByBlock
 62
     2
100
AcDbLine
 10
268.8384704747976
 20
311.3534996568684
 30
0.0
 11
269.0076486422409
 21
309.2590881235381
 31
0.0
  0
MTEXT
  5
779
330
18
100
AcDbEntity
  8
0
  6
ByBlock
 62
     6
100
AcDbMText
 10
267.4514438033185
 20
305.2368263820217
 30
0.0
 40
2.5
 41
0.0
 71
     5
 72
     1
  1
\A1;2
  7
STYLE3
 11
-0.0805137517157556
 21
0.996753498004724
 31
0.0
 73
     1
 44
1.0
  0
POINT
  5
77A
330
18
100
AcDbEntity
  8
DEFPOINTS
  6
ByBlock
 62
     0
100
AcDbPoint
 10
273.8367926390757
 20
311.7217241921981
 30
0.0
 50
355.3819031979542
  0
POINT
  5
77B
330
18
100
AcDbEntity
  8
DEFPOINTS
  6
ByBlock
 62
     0
100
AcDbPoint
 10
276.0170292590081
 20
309.7897578985922
 30
0.0
 50
355.3819031979542
  0
POINT
  5
77C
330
18
100
AcDbEntity
  8
DEFPOINTS
  6
ByBlock
 62
     0
100
AcDbPoint
 10
269.0076486422409
 20
309.2590881235381
 30
0.0
 50
355.3819031979542
  0
LINE
  5
77D
330
18
100
AcDbEntity
  8
寸法線
  6
ByBlock
100
AcDbLine
 10
268.2530427206341
 20
315.008243578937
 30
0.0
 11
268.3996379695439
 21
316.7379867756172
 31
0.0
  0
LINE
  5
77E
330
18
100
AcDbEntity
  8
寸法線
  6
ByBlock
100
AcDbLine
 10
268.3996379695439
 20
316.7379867756172
 30
0.0
 11
268.8219645816605
 21
315.0541988061382
 31
0.0
  0
LINE
  5
77F
330
18
100
AcDbEntity
  8
寸法線
  6
ByBlock
100
AcDbLine
 10
268.3996379695439
 20
316.7379867756172
 30
0.0
 11
268.6009223488332
 21
314.2461030306053
 31
0.0
  0
LINE
  5
780
330
18
100
AcDbEntity
  8
寸法線
  6
ByBlock
100
AcDbLine
 10
268.9956605863307
 20
313.2082563971589
 30
0.0
 11
268.8384704747976
 21
311.3534996568684
 31
0.0
  0
LINE
  5
781
330
18
100
AcDbEntity
  8
寸法線
  6
ByBlock
100
AcDbLine
 10
268.8384704747976
 20
311.3534996568684
 30
0.0
 11
268.3856210969645
 21
313.1589798527755
 31
0.0
  0
LINE
  5
782
330
18
100
AcDbEntity
  8
寸法線
  6
ByBlock
100
AcDbLine
 10
268.8384704747976
 20
311.3534996568684
 30
0.0
 11
268.6371860955083
 21
313.8453834018803
 31
0.0
  0
LINE
  5
785
330
18
100
AcDbEntity
  8
寸法線
  6
ByBlock
100
AcDbLine
 10
268.8610533933312
 20
307.5293449268579
 30
0.0
 11
269.0076486422409
 21
309.2590881235381
 31
0.0
  0
LINE
  5
786
330
18
100
AcDbEntity
  8
寸法線
  6
ByBlock
100
AcDbLine
 10
269.0076486422409
 20
309.2590881235381
 30
0.0
 11
269.4299752543576
 21
307.5753001540591
 31
0.0
  0
POINT
  5
787
330
18
100
AcDbEntity
  8
DEFPOINTS
  6
ByBlock
 62
     0
100
AcDbPoint
 10
269.0076486422409
 20
309.2590881235381
 30
0.0
 50
355.3819031979542
  0
LINE
  5
788
330
18
100
AcDbEntity
  8
寸法線
  6
ByBlock
100
AcDbLine
 10
268.2326833494963
 20
318.8048709785531
 30
0.0
 11
267.8116762705061
 21
324.0169033298696
 31
0.0
  0
LINE
  5
789
330
18
100
AcDbEntity
  8
寸法線
  6
ByBlock
100
AcDbLine
 10
268.2326833494963
 20
318.8048709785531
 30
0.0
 11
267.7798339716632
 21
320.6103511744602
 31
0.0
  0
LINE
  5
78A
330
18
100
AcDbEntity
  8
寸法線
  6
ByBlock
100
AcDbLine
 10
268.3898734610295
 20
320.6596277188436
 30
0.0
 11
268.2326833494963
 21
318.8048709785531
 31
0.0
  0
ARC
  5
7A6
330
18
100
AcDbEntity
  8
寸法線
100
AcDbCircle
 10
475.1297636690862
 20
328.6078076312743
 30
0.0
 40
20.0
100
AcDbArc
 50
330.3670409448931
 51
11.21024465233526
  0
LINE
  5
7B2
330
18
100
AcDbEntity
  8
0
  6
ByBlock
 62
     2
100
AcDbLine
 10
475.1297636690862
 20
328.6078076312742
 30
0.0
 11
492.9963706715243
 21
319.6197959367762
 31
0.0
  0
MTEXT
  5
7B3
330
18
100
AcDbEntity
  8
0
  6
ByBlock
 62
     6
100
AcDbMText
 10
488.4687984949628
 20
323.8248874733435
 30
0.0
 40
2.5
 41
0.0
 71
     5
 72
     1
  1
\A1;R20
  7
STYLE3
 11
0.8933303501219
 21
-0.4494005847249016
 31
0.0
 73
     1
 44
1.0
  0
INSERT
  5
7B4
330
18
100
AcDbEntity
  8
0
  6
ByBlock
 62
     2
100
AcDbBlockReference
  2
_OPEN
 10
492.9963706715243
 20
319.6197959367762
 30
0.0
 41
2.5
 42
2.5
 43
2.5
 50
333.2947674090095
  0
POINT
  5
7B5
330
18
100
AcDbEntity
  8
DEFPOINTS
  6
ByBlock
 62
     0
100
AcDbPoint
 10
492.9963706715243
 20
319.6197959367762
 30
0.0
  0
POINT
  5
7B6
330
18
100
AcDbEntity
  8
DEFPOINTS
  6
ByBlock
 62
     0
100
AcDbPoint
 10
475.1297636690862
 20
328.6078076312743
 30
0.0
  0
POINT
  5
7CF
330
18
100
AcDbEntity
  8
DEFPOINTS
  6
ByBlock
 62
     0
100
AcDbPoint
 10
276.0170292590081
 20
309.7897578985925
 30
0.0
  0
POINT
  5
7D0
330
18
100
AcDbEntity
  8
想像線
  6
ByBlock
 48
0.5
100
AcDbPoint
 10
288.1664146984899
 20
399.2615838363713
 30
0.0
  0
LINE
  5
869
330
18
100
AcDbEntity
  8
0
  6
ByBlock
 62
     2
100
AcDbLine
 10
275.1522512054493
 20
320.4000293602971
 30
0.0
 11
278.011620326314
 21
285.0012793011717
 31
0.0
  0
POINT
  5
86F
330
18
100
AcDbEntity
  8
DEFPOINTS
  6
ByBlock
 62
     0
100
AcDbPoint
 10
275.6219751989633
 20
314.5848856903713
 30
0.0
 50
355.3819031979542
  0
POINT
  5
870
330
18
100
AcDbEntity
  8
DEFPOINTS
  6
ByBlock
 62
     0
100
AcDbPoint
 10
324.4047998685001
 20
318.5253667032784
 30
0.0
 50
355.3819031979542
  0
LINE
  5
872
330
18
100
AcDbEntity
  8
0
  6
ByBlock
 62
     2
100
AcDbLine
 10
456.3992506550684
 20
312.2202999322957
 30
0.0
 11
457.4272499671643
 21
299.4937546100077
 31
0.0
  0
LINE
  5
8AF
330
18
100
AcDbEntity
  8
0
  6
ByBlock
 62
     2
100
AcDbLine
 10
325.8563080134131
 20
314.0984865126708
 30
0.0
 11
327.5250471467694
 21
293.4396359065977
 31
0.0
  0
LINE
  5
8B0
330
18
100
AcDbEntity
  8
0
  6
ByBlock
 62
     2
100
AcDbLine
 10
309.9644449786981
 20
293.2752322067187
 30
0.0
 11
324.9325212121129
 21
294.4842933998142
 31
0.0
  0
INSERT
  5
8B1
330
18
100
AcDbEntity
  8
0
  6
ByBlock
 62
     2
100
AcDbBlockReference
  2
_OPEN
 10
307.4725612336863
 20
293.0739478274293
 30
0.0
 41
2.5
 42
2.5
 43
2.5
 50
184.6180968020458
  0
INSERT
  5
8B2
330
18
100
AcDbEntity
  8
0
  6
ByBlock
 62
     2
100
AcDbBlockReference
  2
_OPEN
 10
327.4244049571247
 20
294.6855777791036
 30
0.0
 41
2.5
 42
2.5
 43
2.5
 50
4.618096802045787
  0
MTEXT
  5
8B3
330
18
100
AcDbEntity
  8
0
  6
ByBlock
 62
     6
100
AcDbMText
 10
317.2975198109384
 20
295.7486756120253
 30
0.0
 40
2.5
 41
0.0
 71
     5
 72
     1
  1
\A1;20
  7
STYLE3
 11
0.996753498004724
 21
0.0805137517157557
 31
0.0
 73
     1
 44
1.0
  0
POINT
  5
8B4
330
18
100
AcDbEntity
  8
DEFPOINTS
  6
ByBlock
 62
     0
100
AcDbPoint
 10
305.5397873414304
 20
317.0015266186841
 30
0.0
 50
355.3819031979542
  0
POINT
  5
8B5
330
18
100
AcDbEntity
  8
DEFPOINTS
  6
ByBlock
 62
     0
100
AcDbPoint
 10
325.1387498899047
 20
322.9817959397818
 30
0.0
 50
355.3819031979542
  0
POINT
  5
8B6
330
18
100
AcDbEntity
  8
DEFPOINTS
  6
ByBlock
 62
     0
100
AcDbPoint
 10
327.4244049571247
 20
294.6855777791036
 30
0.0
 50
355.3819031979542
  0
LINE
  5
8B7
330
18
100
AcDbEntity
  8
0
  6
ByBlock
 62
     2
100
AcDbLine
 10
277.7087468658554
 20
288.7508273564019
 30
0.0
 11
277.4541069015747
 21
291.9032487716225
 31
0.0
  0
LINE
  5
8B8
330
18
100
AcDbEntity
  8
0
  6
ByBlock
 62
     2
100
AcDbLine
 10
305.5397873414305
 20
317.0015266186843
 30
0.0
 11
307.5732034233309
 21
291.8280059549235
 31
0.0
  0
LINE
  5
8B9
330
18
100
AcDbEntity
  8
0
  6
ByBlock
 62
     2
100
AcDbLine
 10
280.0466328362312
 20
290.8585912784059
 30
0.0
 11
304.9806774886745
 21
292.87266344814
 31
0.0
  0
INSERT
  5
8BA
330
18
100
AcDbEntity
  8
0
  6
ByBlock
 62
     2
100
AcDbBlockReference
  2
_OPEN
 10
277.5547490912194
 20
290.6573068991166
 30
0.0
 41
2.5
 42
2.5
 43
2.5
 50
184.6180968020458
  0
INSERT
  5
8BB
330
18
100
AcDbEntity
  8
0
  6
ByBlock
 62
     2
100
AcDbBlockReference
  2
_OPEN
 10
307.4725612336863
 20
293.0739478274294
 30
0.0
 41
2.5
 42
2.5
 43
2.5
 50
4.618096802045787
  0
MTEXT
  5
8BC
330
18
100
AcDbEntity
  8
0
  6
ByBlock
 62
     6
100
AcDbMText
 10
292.3626918779858
 20
293.7345401720318
 30
0.0
 40
2.5
 41
0.0
 71
     5
 72
     1
  1
\A1;30
  7
STYLE3
 11
0.996753498004724
 21
0.0805137517157557
 31
0.0
 73
     1
 44
1.0
  0
POINT
  5
8BD
330
18
100
AcDbEntity
  8
DEFPOINTS
  6
ByBlock
 62
     0
100
AcDbPoint
 10
277.7087468658554
 20
288.7508273564019
 30
0.0
 50
355.3819031979542
  0
POINT
  5
8BE
330
18
100
AcDbEntity
  8
DEFPOINTS
  6
ByBlock
 62
     0
100
AcDbPoint
 10
305.5397873414304
 20
317.0015266186841
 30
0.0
 50
355.3819031979542
  0
POINT
  5
8BF
330
18
100
AcDbEntity
  8
DEFPOINTS
  6
ByBlock
 62
     0
100
AcDbPoint
 10
307.4725612336863
 20
293.0739478274294
 30
0.0
 50
355.3819031979542
  0
LINE
  5
8C0
330
18
100
AcDbEntity
  8
想像線
 48
0.28
100
AcDbLine
 10
325.8563080134131
 20
314.0984865126709
 30
0.0
 11
325.1387498899047
 21
322.9817959397819
 31
0.0
  0
LINE
  5
8C2
330
18
100
AcDbEntity
  8
0
  6
ByBlock
 62
     2
100
AcDbLine
 10
278.0116203263139
 20
285.0012793011714
 30
0.0
 11
279.1714898671859
 21
270.6421915992994
 31
0.0
  0
LINE
  5
8C3
330
18
100
AcDbEntity
  8
0
  6
ByBlock
 62
     2
100
AcDbLine
 10
457.4272499671643
 20
299.4937546100078
 30
0.0
 11
458.5871195080364
 21
285.1346669081355
 31
0.0
  0
LINE
  5
8C4
330
18
100
AcDbEntity
  8
0
  6
ByBlock
 62
     2
100
AcDbLine
 10
281.562731422553
 20
272.0894178510948
 30
0.0
 11
455.9945935733798
 21
286.179324401352
 31
0.0
  0
INSERT
  5
8C5
330
18
100
AcDbEntity
  8
0
  6
ByBlock
 62
     2
100
AcDbBlockReference
  2
_OPEN
 10
279.0708476775412
 20
271.8881334718054
 30
0.0
 41
2.5
 42
2.5
 43
2.5
 50
184.6180968020458
  0
INSERT
  5
8C6
330
18
100
AcDbEntity
  8
0
  6
ByBlock
 62
     2
100
AcDbBlockReference
  2
_OPEN
 10
458.4864773183916
 20
286.3806087806414
 30
0.0
 41
2.5
 42
2.5
 43
2.5
 50
4.618096802045787
  0
MTEXT
  5
8C7
330
18
100
AcDbEntity
  8
0
  6
ByBlock
 62
     6
100
AcDbMText
 10
368.6276992134994
 20
281.0032839349822
 30
0.0
 40
2.5
 41
0.0
 71
     5
 72
     1
  1
\A1;180
  7
STYLE3
 11
0.996753498004724
 21
0.0805137517157557
 31
0.0
 73
     1
 44
1.0
  0
POINT
  5
8C8
330
18
100
AcDbEntity
  8
DEFPOINTS
  6
ByBlock
 62
     0
100
AcDbPoint
 10
278.0116203263139
 20
285.0012793011714
 30
0.0
 50
355.3819031979542
  0
POINT
  5
8C9
330
18
100
AcDbEntity
  8
DEFPOINTS
  6
ByBlock
 62
     0
100
AcDbPoint
 10
457.4272499671643
 20
299.4937546100078
 30
0.0
 50
355.3819031979542
  0
POINT
  5
8CA
330
18
100
AcDbEntity
  8
DEFPOINTS
  6
ByBlock
 62
     0
100
AcDbPoint
 10
458.4864773183916
 20
286.3806087806414
 30
0.0
 50
355.3819031979542
  0
LINE
  5
8CC
330
18
100
AcDbEntity
  8
外形線
100
AcDbLine
 10
273.8367926390757
 20
311.7217241921981
 30
0.0
 11
325.8223286754818
 21
314.0978967798956
 31
0.0
  0
LINE
  5
8D8
330
18
100
AcDbEntity
  8
0
  6
ByBlock
 62
     2
100
AcDbLine
 10
475.1297636690861
 20
328.6078076312744
 30
0.0
 11
276.4807193503296
 21
351.8146426426376
 31
0.0
  0
MTEXT
  5
8D9
330
18
100
AcDbEntity
  8
0
  6
ByBlock
 62
     6
100
AcDbMText
 10
350.4050566712828
 20
345.0663096510092
 30
0.0
 40
2.5
 41
0.0
 71
     5
 72
     1
  1
\A1;R200
  7
STYLE3
 11
0.9932452215937836
 21
-0.116034175056816
 31
0.0
 73
     1
 44
1.0
  0
INSERT
  5
8DA
330
18
100
AcDbEntity
  8
0
  6
ByBlock
 62
     2
100
AcDbBlockReference
  2
_OPEN
 10
276.4807193503296
 20
351.8146426426376
 30
0.0
 41
2.5
 42
2.5
 43
2.5
 50
173.3367217335665
  0
POINT
  5
8DB
330
18
100
AcDbEntity
  8
DEFPOINTS
  6
ByBlock
 62
     0
100
AcDbPoint
 10
276.4807193503296
 20
351.8146426426376
 30
0.0
  0
POINT
  5
8DC
330
18
100
AcDbEntity
  8
DEFPOINTS
  6
ByBlock
 62
     0
100
AcDbPoint
 10
475.1297636690862
 20
328.6078076312743
 30
0.0
  0
LINE
  5
8DE
330
18
100
AcDbEntity
  8
想像線
 48
0.5
100
AcDbLine
 10
456.3992506550684
 20
312.2202999322957
 30
0.0
 11
453.8944893241906
 21
343.2290352727304
 31
0.0
  0
LINE
  5
8E0
330
18
100
AcDbEntity
  8
想像線
 48
0.5
100
AcDbLine
 10
285.449691054138
 20
397.5957378342174
 30
0.0
 11
334.6446879417113
 21
384.3260958388061
 31
0.0
  0
ARC
  5
8E1
330
18
100
AcDbEntity
  8
想像線
 48
0.5
100
AcDbCircle
 10
477.0531553101868
 20
333.6261162542753
 30
0.0
 40
202.0
100
AcDbArc
 50
161.5376580886039
 51
162.3013973552756
  0
LINE
  5
8E2
330
18
100
AcDbEntity
  8
想像線
 48
0.5
100
AcDbLine
 10
315.2129509647394
 20
385.618558851079
 30
0.0
 11
284.6140383453587
 21
395.0361012876328
 31
0.0
  0
ARC
  5
8E3
330
18
100
AcDbEntity
  8
想像線
 48
0.5
100
AcDbCircle
 10
287.6616635370081
 20
397.7766928961074
 30
0.0
 40
1.25
100
AcDbArc
 50
342.8930077948678
 51
162.8930077948652
  0
POINT
  5
8E4
330
18
100
AcDbEntity
  8
想像線
  6
ByBlock
 48
0.5
100
AcDbPoint
 10
285.4496910541379
 20
397.5957378342173
 30
0.0
 50
355.3819031979542
  0
LINE
  5
8E5
330
18
100
AcDbEntity
  8
想像線
 48
0.5
100
AcDbLine
 10
288.8563599418599
 20
397.4089966896623
 30
0.0
 11
288.648293831704
 21
396.7329607953077
 31
0.0
  0
POINT
  5
8E6
330
18
100
AcDbEntity
  8
想像線
  6
ByBlock
 48
0.5
100
AcDbPoint
 10
288.0293597434529
 20
398.971389300959
 30
0.0
 50
355.3819031979542
  0
LINE
  5
8E7
330
18
100
AcDbEntity
  8
想像線
 48
0.5
100
AcDbLine
 10
286.4669671321562
 20
398.1443891025524
 30
0.0
 11
286.2330722847178
 21
397.3844320280705
 31
0.0
  0
LINE
  5
8E8
330
18
100
AcDbEntity
  8
想像線
 48
0.5
100
AcDbLine
 10
315.2129509647394
 20
385.618558851079
 30
0.0
 11
332.9800460952475
 21
375.4135169681827
 31
0.0
  0
CIRCLE
  5
8ED
330
18
100
AcDbEntity
  8
外形線
100
AcDbCircle
 10
458.1297636690862
 20
315.3078076312743
 30
0.0
 40
2.0
  0
CIRCLE
  5
8EE
330
18
100
AcDbEntity
  8
外形線
100
AcDbCircle
 10
458.1297636690862
 20
315.3078076312743
 30
0.0
 40
1.25
  0
CIRCLE
  5
8F8
330
18
100
AcDbEntity
  8
外形線
100
AcDbCircle
 10
474.1297636690863
 20
359.6078076312743
 30
0.0
 40
2.0
  0
CIRCLE
  5
8F9
330
18
100
AcDbEntity
  8
外形線
100
AcDbCircle
 10
474.1297636690863
 20
359.6078076312743
 30
0.0
 40
1.25
  0
LINE
  5
8FA
330
18
100
AcDbEntity
  8
外形線
100
AcDbLine
 10
474.4169134809383
 20
355.2511982862039
 30
0.0
 11
461.1344865616839
 21
318.4754787535181
 31
0.0
  0
LINE
  5
8FB
330
18
100
AcDbEntity
  8
外形線
100
AcDbLine
 10
471.1250407764884
 20
356.4401365090301
 30
0.0
 11
457.842613857234
 21
319.6644169763443
 31
0.0
  0
LINE
  5
8FC
330
18
100
AcDbEntity
  8
中心線
100
AcDbLine
 10
470.8519359539936
 20
360.791673171714
 30
0.0
 11
478.0170817502716
 21
358.2038101301687
 31
0.0
  0
LINE
  5
8FF
330
18
100
AcDbEntity
  8
中心線
100
AcDbLine
 10
454.8519359539937
 20
316.491673171714
 30
0.0
 11
462.0170817502716
 21
313.9038101301687
 31
0.0
  0
LINE
  5
901
330
18
100
AcDbEntity
  8
外形線
100
AcDbLine
 10
471.1250407764884
 20
356.4401365090301
 30
0.0
 11
474.4169134809383
 21
355.2511982862039
 31
0.0
  0
LINE
  5
902
330
18
100
AcDbEntity
  8
外形線
100
AcDbLine
 10
457.8426138572339
 20
319.6644169763443
 30
0.0
 11
461.1344865616838
 21
318.475478753518
 31
0.0
  0
LINE
  5
903
330
18
100
AcDbEntity
  8
想像線
 48
0.5
100
AcDbLine
 10
474.4133063737622
 20
356.1243520316332
 30
0.0
 11
460.5413477799827
 21
317.7163666751068
 31
0.0
  0
LINE
  5
904
330
18
100
AcDbEntity
  8
想像線
 48
0.5
100
AcDbLine
 10
471.6857547043608
 20
357.1094722734035
 30
0.0
 11
457.8137961105815
 21
318.7014869168769
 31
0.0
  0
CIRCLE
  5
908
330
18
100
AcDbEntity
  8
外形線
100
AcDbCircle
 10
475.1297636690862
 20
328.6078076312743
 30
0.0
 40
9.5
  0
CIRCLE
  5
909
330
18
100
AcDbEntity
  8
外形線
100
AcDbCircle
 10
475.1297636690862
 20
328.6078076312743
 30
0.0
 40
8.5
  0
LINE
  5
A0A
330
18
100
AcDbEntity
  8
寸法線
100
AcDbLine
 10
299.2775743248744
 20
320.1120501504041
 30
0.0
 11
299.5677957623041
 21
316.5191330798474
 31
0.0
  0
LINE
  5
A0B
330
18
100
AcDbEntity
  8
寸法線
100
AcDbLine
 10
296.2957973364182
 20
319.7654838074912
 30
0.0
 11
296.57753526829
 21
316.2775918247002
 31
0.0
  0
LINE
  5
A0C
330
18
100
AcDbEntity
  8
寸法線
100
AcDbLine
 10
286.7240500478645
 20
315.4816667899145
 30
0.0
 11
286.9792394300962
 21
312.3224436265081
 31
0.0
  0
LINE
  5
A0D
330
18
100
AcDbEntity
  8
寸法線
100
AcDbLine
 10
289.7143105418787
 20
315.7232080450618
 30
0.0
 11
289.9779390500288
 21
312.4595092101088
 31
0.0
  0
LINE
  5
A4E
330
18
100
AcDbEntity
  8
隠れ線2
100
AcDbLine
 10
515.1297636690863
 20
340.3578076312744
 30
0.0
 11
603.6297636690862
 21
340.3578076312743
 31
0.0
  0
LINE
  5
A4F
330
18
100
AcDbEntity
  8
隠れ線2
100
AcDbLine
 10
515.1297636690863
 20
316.8578076312743
 30
0.0
 11
603.6297636690862
 21
316.8578076312743
 31
0.0
  0
LINE
  5
A50
330
18
100
AcDbEntity
  8
隠れ線2
100
AcDbLine
 10
605.1297636690862
 20
338.8578076312743
 30
0.0
 11
605.1297636690862
 21
318.3578076312743
 31
0.0
  0
ARC
  5
A51
330
18
100
AcDbEntity
  8
隠れ線2
100
AcDbCircle
 10
603.6297636690862
 20
338.8578076312743
 30
0.0
 40
1.5
100
AcDbArc
 50
0.0
 51
90.0
  0
ARC
  5
A52
330
18
100
AcDbEntity
  8
隠れ線2
100
AcDbCircle
 10
603.6297636690862
 20
318.3578076312743
 30
0.0
 40
1.5
100
AcDbArc
 50
270.0
 51
0.0
  0
LINE
  5
A5B
330
18
100
AcDbEntity
  8
0
  6
ByBlock
 62
     2
100
AcDbLine
 10
276.0170292590095
 20
309.7897578985924
 30
0.0
 11
255.5501433831122
 21
312.5220498574659
 31
0.0
  0
LINE
  5
A5C
330
18
100
AcDbEntity
  8
0
  6
ByBlock
 62
     2
100
AcDbLine
 10
287.926217266395
 20
398.9983767030998
 30
0.0
 11
267.4593313904978
 21
401.7306686619733
 31
0.0
  0
LINE
  5
A5D
330
18
100
AcDbEntity
  8
0
  6
ByBlock
 62
     2
100
AcDbLine
 10
257.1199621327134
 20
314.8346607398671
 30
0.0
 11
268.367528846658
 21
399.0872471328516
 31
0.0
  0
INSERT
  5
A5E
330
18
100
AcDbEntity
  8
0
  6
ByBlock
 62
     2
100
AcDbBlockReference
  2
_OPEN
 10
256.7891514859929
 20
312.3566445341056
 30
0.0
 41
2.5
 42
2.5
 43
2.5
 50
262.3960769456583
  0
INSERT
  5
A5F
330
18
100
AcDbEntity
  8
0
  6
ByBlock
 62
     2
100
AcDbBlockReference
  2
_OPEN
 10
268.6983394933784
 20
401.565263338613
 30
0.0
 41
2.5
 42
2.5
 43
2.5
 50
82.39607694565831
  0
MTEXT
  5
A60
330
18
100
AcDbEntity
  8
0
  6
ByBlock
 62
     6
100
AcDbMText
 10
260.8852333353646
 20
357.2090619213997
 30
0.0
 40
2.5
 41
0.0
 71
     5
 72
     1
  1
\A1;90
  7
STYLE3
 11
0.1323242586881987
 21
0.9912064823045795
 31
0.0
 73
     1
 44
1.0
  0
POINT
  5
A61
330
18
100
AcDbEntity
  8
DEFPOINTS
  6
ByBlock
 62
     0
100
AcDbPoint
 10
276.0170292590095
 20
309.7897578985924
 30
0.0
  0
POINT
  5
A62
330
18
100
AcDbEntity
  8
DEFPOINTS
  6
ByBlock
 62
     0
100
AcDbPoint
 10
287.926217266395
 20
398.9983767030998
 30
0.0
  0
POINT
  5
A63
330
18
100
AcDbEntity
  8
DEFPOINTS
  6
ByBlock
 62
     0
100
AcDbPoint
 10
268.6983394933784
 20
401.565263338613
 30
0.0
  0
LINE
  5
A64
330
18
100
AcDbEntity
  8
0
  6
ByBlock
 62
     2
100
AcDbLine
 10
277.1029848842776
 20
311.871016419824
 30
0.0
 11
277.7714415145826
 21
298.5090432445886
 31
0.0
  0
LINE
  5
A65
330
18
100
AcDbEntity
  8
0
  6
ByBlock
 62
     2
100
AcDbLine
 10
274.6049367156779
 20
311.7460470878831
 30
0.0
 11
275.2733933459829
 21
298.3840739126477
 31
0.0
  0
LINE
  5
A66
330
18
100
AcDbEntity
  8
0
  6
ByBlock
 62
     2
100
AcDbLine
 10
280.2058636407936
 20
299.8823927672572
 30
0.0
 11
282.7027411508299
 21
300.0073035349076
 31
0.0
  0
LINE
  5
A67
330
18
100
AcDbEntity
  8
0
  6
ByBlock
 62
     2
100
AcDbLine
 10
272.7140604521214
 20
299.5076019000155
 30
0.0
 11
255.2715875605822
 21
298.6350109660003
 31
0.0
  0
LINE
  5
A68
330
18
100
AcDbEntity
  8
0
  6
ByBlock
 62
     2
100
AcDbLine
 10
277.7089861307573
 20
299.7574819996068
 30
0.0
 11
275.2109379621577
 21
299.6325126676659
 31
0.0
  0
INSERT
  5
A69
330
18
100
AcDbEntity
  8
0
  6
ByBlock
 62
     2
100
AcDbBlockReference
  2
_OPEN
 10
277.7089861307573
 20
299.7574819996068
 30
0.0
 41
2.5
 42
2.5
 43
2.5
 50
182.8639363684979
  0
INSERT
  5
A6A
330
18
100
AcDbEntity
  8
0
  6
ByBlock
 62
     2
100
AcDbBlockReference
  2
_OPEN
 10
275.2109379621577
 20
299.6325126676659
 30
0.0
 41
2.5
 42
2.5
 43
2.5
 50
2.863936368497963
  0
MTEXT
  5
A6B
330
18
100
AcDbEntity
  8
0
  6
ByBlock
 62
     6
100
AcDbMText
 10
262.6507021755959
 20
300.8815091817099
 30
0.0
 40
2.5
 41
0.0
 71
     5
 72
     1
  1
\A1;2-φ2.5
  7
STYLE3
 11
0.9987510040145124
 21
0.049964307060172
 31
0.0
 73
     1
 44
1.0
  0
POINT
  5
A6C
330
18
100
AcDbEntity
  8
DEFPOINTS
  6
ByBlock
 62
     0
100
AcDbPoint
 10
277.1029848842776
 20
311.871016419824
 30
0.0
  0
POINT
  5
A6D
330
18
100
AcDbEntity
  8
DEFPOINTS
  6
ByBlock
 62
     0
100
AcDbPoint
 10
274.6049367156779
 20
311.7460470878831
 30
0.0
  0
POINT
  5
A6E
330
18
100
AcDbEntity
  8
DEFPOINTS
  6
ByBlock
 62
     0
100
AcDbPoint
 10
275.2109379621577
 20
299.6325126676659
 30
0.0
  0
LINE
  5
A6F
330
18
100
AcDbEntity
  8
0
  6
ByBlock
 62
     2
100
AcDbLine
 10
266.9867414769905
 20
318.7042287889084
 30
0.0
 11
263.0899666718625
 21
318.3894629418055
 31
0.0
  0
LINE
  5
A70
330
18
100
AcDbEntity
  8
0
  6
ByBlock
 62
     2
100
AcDbLine
 10
267.7617067697351
 20
309.1584459338931
 30
0.0
 11
263.8610619937424
 21
308.843367486058
 31
0.0
  0
LINE
  5
A71
330
18
100
AcDbEntity
  8
0
  6
ByBlock
 62
     2
100
AcDbLine
 10
264.5371929236578
 20
315.9982213864383
 30
0.0
 11
264.905719486959
 21
311.4358934207145
 31
0.0
  0
INSERT
  5
A72
330
18
100
AcDbEntity
  8
0
  6
ByBlock
 62
     2
100
AcDbBlockReference
  2
_OPEN
 10
264.3359085443683
 20
318.4901051314501
 30
0.0
 41
2.5
 42
2.5
 43
2.5
 50
94.61809680204579
  0
INSERT
  5
A73
330
18
100
AcDbEntity
  8
0
  6
ByBlock
 62
     2
100
AcDbBlockReference
  2
_OPEN
 10
265.1070038662484
 20
308.9440096757027
 30
0.0
 41
2.5
 42
2.5
 43
2.5
 50
274.6180968020458
  0
MTEXT
  5
A74
330
18
100
AcDbEntity
  8
0
  6
ByBlock
 62
     6
100
AcDbMText
 10
262.8525433965495
 20
313.5660941191093
 30
0.0
 40
2.5
 41
0.0
 71
     5
 72
     1
  1
\A1;10
  7
STYLE3
 11
-0.0805137517157556
 21
0.996753498004724
 31
0.0
 73
     1
 44
1.0
  0
POINT
  5
A75
330
18
100
AcDbEntity
  8
DEFPOINTS
  6
ByBlock
 62
     0
100
AcDbPoint
 10
266.9867414769905
 20
318.7042287889084
 30
0.0
 50
355.3819031979542
  0
POINT
  5
A76
330
18
100
AcDbEntity
  8
DEFPOINTS
  6
ByBlock
 62
     0
100
AcDbPoint
 10
267.7617067697351
 20
309.1584459338931
 30
0.0
 50
355.3819031979542
  0
POINT
  5
A77
330
18
100
AcDbEntity
  8
DEFPOINTS
  6
ByBlock
 62
     0
100
AcDbPoint
 10
265.1070038662484
 20
308.9440096757027
 30
0.0
 50
355.3819031979542
  0
LINE
  5
A7B
330
18
100
AcDbEntity
  8
0
  6
ByBlock
 62
     2
100
AcDbLine
 10
286.9792394300962
 20
312.3224436265081
 30
0.0
 11
287.8122318485674
 21
302.0100673028482
 31
0.0
  0
LINE
  5
A7C
330
18
100
AcDbEntity
  8
0
  6
ByBlock
 62
     2
100
AcDbLine
 10
289.9779390500288
 20
312.4595092101088
 30
0.0
 11
290.8024923425816
 21
302.2516085579955
 31
0.0
  0
LINE
  5
A7D
330
18
100
AcDbEntity
  8
0
  6
ByBlock
 62
     2
100
AcDbLine
 10
285.2197059139109
 20
303.0547247960647
 30
0.0
 11
282.7278221688991
 21
302.8534404167753
 31
0.0
  0
LINE
  5
A7E
330
18
100
AcDbEntity
  8
0
  6
ByBlock
 62
     2
100
AcDbLine
 10
293.1937338979487
 20
303.6988348097907
 30
0.0
 11
301.6780047440603
 21
304.3841601964189
 31
0.0
  0
LINE
  5
A7F
330
18
100
AcDbEntity
  8
0
  6
ByBlock
 62
     2
100
AcDbLine
 10
287.7115896589227
 20
303.2560091753541
 30
0.0
 11
290.7018501529369
 21
303.4975504305013
 31
0.0
  0
INSERT
  5
A80
330
18
100
AcDbEntity
  8
0
  6
ByBlock
 62
     2
100
AcDbBlockReference
  2
_OPEN
 10
287.7115896589227
 20
303.2560091753541
 30
0.0
 41
2.5
 42
2.5
 43
2.5
 50
4.618096802045787
  0
INSERT
  5
A81
330
18
100
AcDbEntity
  8
0
  6
ByBlock
 62
     2
100
AcDbBlockReference
  2
_OPEN
 10
290.7018501529369
 20
303.4975504305013
 30
0.0
 41
2.5
 42
2.5
 43
2.5
 50
184.6180968020458
  0
MTEXT
  5
A82
330
18
100
AcDbEntity
  8
0
  6
ByBlock
 62
     6
100
AcDbMText
 10
298.4781305716104
 20
306.66368872044
 30
0.0
 40
2.5
 41
0.0
 71
     5
 72
     1
  1
\A1;(3)
  7
STYLE3
 11
0.996753498004724
 21
0.0805137517157557
 31
0.0
 73
     1
 44
1.0
  0
POINT
  5
A83
330
18
100
AcDbEntity
  8
DEFPOINTS
  6
ByBlock
 62
     0
100
AcDbPoint
 10
286.9792394300962
 20
312.3224436265081
 30
0.0
 50
355.3819031979542
  0
POINT
  5
A84
330
18
100
AcDbEntity
  8
DEFPOINTS
  6
ByBlock
 62
     0
100
AcDbPoint
 10
289.9779390500288
 20
312.4595092101088
 30
0.0
 50
355.3819031979542
  0
POINT
  5
A85
330
18
100
AcDbEntity
  8
DEFPOINTS
  6
ByBlock
 62
     0
100
AcDbPoint
 10
290.7018501529369
 20
303.4975504305013
 30
0.0
 50
355.3819031979542
  0
LINE
  5
A86
330
18
100
AcDbEntity
  8
0
  6
ByBlock
 62
     2
100
AcDbLine
 10
296.2957973364182
 20
319.765483807491
 30
0.0
 11
295.5325221205441
 21
329.2147670063263
 31
0.0
  0
LINE
  5
A87
330
18
100
AcDbEntity
  8
0
  6
ByBlock
 62
     2
100
AcDbLine
 10
299.2775743248742
 20
320.1120501504041
 30
0.0
 11
298.5227826145581
 21
329.4563082614736
 31
0.0
  0
LINE
  5
A88
330
18
100
AcDbEntity
  8
0
  6
ByBlock
 62
     2
100
AcDbLine
 10
293.141280565177
 20
327.7675407545311
 30
0.0
 11
290.6493968201651
 21
327.5662563752417
 31
0.0
  0
LINE
  5
A89
330
18
100
AcDbEntity
  8
0
  6
ByBlock
 62
     2
100
AcDbLine
 10
301.1153085492146
 20
328.4116507682571
 30
0.0
 11
309.5995793953262
 21
329.0969761548852
 31
0.0
  0
LINE
  5
A8A
330
18
100
AcDbEntity
  8
0
  6
ByBlock
 62
     2
100
AcDbLine
 10
295.6331643101888
 20
327.9688251338204
 30
0.0
 11
298.6234248042028
 21
328.2103663889677
 31
0.0
  0
INSERT
  5
A8B
330
18
100
AcDbEntity
  8
0
  6
ByBlock
 62
     2
100
AcDbBlockReference
  2
_OPEN
 10
295.6331643101888
 20
327.9688251338204
 30
0.0
 41
2.5
 42
2.5
 43
2.5
 50
4.618096802045787
  0
INSERT
  5
A8C
330
18
100
AcDbEntity
  8
0
  6
ByBlock
 62
     2
100
AcDbBlockReference
  2
_OPEN
 10
298.6234248042028
 20
328.2103663889677
 30
0.0
 41
2.5
 42
2.5
 43
2.5
 50
184.6180968020458
  0
MTEXT
  5
A8D
330
18
100
AcDbEntity
  8
0
  6
ByBlock
 62
     6
100
AcDbMText
 10
306.3997052228763
 20
331.3765046789064
 30
0.0
 40
2.5
 41
0.0
 71
     5
 72
     1
  1
\A1;(3)
  7
STYLE3
 11
0.996753498004724
 21
0.0805137517157557
 31
0.0
 73
     1
 44
1.0
  0
POINT
  5
A8E
330
18
100
AcDbEntity
  8
DEFPOINTS
  6
ByBlock
 62
     0
100
AcDbPoint
 10
296.2957973364182
 20
319.765483807491
 30
0.0
 50
355.3819031979542
  0
POINT
  5
A8F
330
18
100
AcDbEntity
  8
DEFPOINTS
  6
ByBlock
 62
     0
100
AcDbPoint
 10
299.2775743248742
 20
320.1120501504041
 30
0.0
 50
355.3819031979542
  0
POINT
  5
A90
330
18
100
AcDbEntity
  8
DEFPOINTS
  6
ByBlock
 62
     0
100
AcDbPoint
 10
298.6234248042028
 20
328.2103663889677
 30
0.0
 50
355.3819031979542
  0
LINE
  5
A96
330
18
100
AcDbEntity
  8
0
  6
ByBlock
 62
     2
100
AcDbLine
 10
615.1297636690863
 20
314.9078076312743
 30
0.0
 11
615.1297636690863
 21
251.9670895906731
 31
0.0
  0
LINE
  5
A97
330
18
100
AcDbEntity
  8
0
  6
ByBlock
 62
     2
100
AcDbLine
 10
517.6297636690862
 20
253.2170895906731
 30
0.0
 11
612.6297636690862
 21
253.2170895906731
 31
0.0
  0
INSERT
  5
A98
330
18
100
AcDbEntity
  8
0
  6
ByBlock
 62
     2
100
AcDbBlockReference
  2
_OPEN
 10
515.1297636690863
 20
253.2170895906731
 30
0.0
 41
2.5
 42
2.5
 43
2.5
 50
180.0
  0
INSERT
  5
A99
330
18
100
AcDbEntity
  8
0
  6
ByBlock
 62
     2
100
AcDbBlockReference
  2
_OPEN
 10
615.1297636690863
 20
253.2170895906731
 30
0.0
 41
2.5
 42
2.5
 43
2.5
  0
MTEXT
  5
A9A
330
18
100
AcDbEntity
  8
0
  6
ByBlock
 62
     6
100
AcDbMText
 10
565.1297636690863
 20
255.0920895906731
 30
0.0
 40
2.5
 41
0.0
 71
     5
 72
     1
  1
\A1;100
  7
STYLE3
 73
     1
 44
1.0
  0
POINT
  5
A9B
330
18
100
AcDbEntity
  8
DEFPOINTS
  6
ByBlock
 62
     0
100
AcDbPoint
 10
515.1297636690863
 20
314.9078076312743
 30
0.0
  0
POINT
  5
A9C
330
18
100
AcDbEntity
  8
DEFPOINTS
  6
ByBlock
 62
     0
100
AcDbPoint
 10
615.1297636690863
 20
314.9078076312743
 30
0.0
  0
POINT
  5
A9D
330
18
100
AcDbEntity
  8
DEFPOINTS
  6
ByBlock
 62
     0
100
AcDbPoint
 10
615.1297636690863
 20
253.2170895906731
 30
0.0
  0
LINE
  5
A9E
330
18
100
AcDbEntity
  8
0
  6
ByBlock
 62
     2
100
AcDbLine
 10
475.1297636690862
 20
302.5003286480911
 30
0.0
 11
475.1297636690862
 21
251.9670895906731
 31
0.0
  0
LINE
  5
A9F
330
18
100
AcDbEntity
  8
0
  6
ByBlock
 62
     2
100
AcDbLine
 10
515.1297636690863
 20
314.9078076312743
 30
0.0
 11
515.1297636690863
 21
251.9670895906731
 31
0.0
  0
LINE
  5
AA0
330
18
100
AcDbEntity
  8
0
  6
ByBlock
 62
     2
100
AcDbLine
 10
477.6297636690862
 20
253.2170895906731
 30
0.0
 11
512.6297636690862
 21
253.2170895906731
 31
0.0
  0
INSERT
  5
AA1
330
18
100
AcDbEntity
  8
0
  6
ByBlock
 62
     2
100
AcDbBlockReference
  2
_OPEN
 10
475.1297636690862
 20
253.2170895906731
 30
0.0
 41
2.5
 42
2.5
 43
2.5
 50
180.0
  0
INSERT
  5
AA2
330
18
100
AcDbEntity
  8
0
  6
ByBlock
 62
     2
100
AcDbBlockReference
  2
_OPEN
 10
515.1297636690863
 20
253.2170895906731
 30
0.0
 41
2.5
 42
2.5
 43
2.5
  0
MTEXT
  5
AA3
330
18
100
AcDbEntity
  8
0
  6
ByBlock
 62
     6
100
AcDbMText
 10
495.1297636690862
 20
255.0920895906731
 30
0.0
 40
2.5
 41
0.0
 71
     5
 72
     1
  1
\A1;40
  7
STYLE3
 73
     1
 44
1.0
  0
POINT
  5
AA4
330
18
100
AcDbEntity
  8
DEFPOINTS
  6
ByBlock
 62
     0
100
AcDbPoint
 10
475.1297636690862
 20
302.5003286480911
 30
0.0
  0
POINT
  5
AA5
330
18
100
AcDbEntity
  8
DEFPOINTS
  6
ByBlock
 62
     0
100
AcDbPoint
 10
515.1297636690863
 20
314.9078076312743
 30
0.0
  0
POINT
  5
AA6
330
18
100
AcDbEntity
  8
DEFPOINTS
  6
ByBlock
 62
     0
100
AcDbPoint
 10
515.1297636690863
 20
253.2170895906731
 30
0.0
  0
LINE
  5
AAA
330
18
100
AcDbEntity
  8
ﾊｯﾁﾝｸ
  6
Continuous
100
AcDbLine
 10
499.0297290212262
 20
409.88354962082
 30
0.0
 11
499.2845407864983
 21
410.0936002304682
 31
0.0
  0
LINE
  5
AAB
330
18
100
AcDbEntity
  8
ﾊｯﾁﾝｸ
  6
Continuous
100
AcDbLine
 10
498.8602960673387
 20
408.123921116238
 30
0.0
 11
501.0441692910802
 21
409.9241672765807
 31
0.0
  0
LINE
  5
AAC
330
18
100
AcDbEntity
  8
ﾊｯﾁﾝｸ
  6
Continuous
100
AcDbLine
 10
498.6908631134512
 20
406.3642926116561
 30
0.0
 11
502.8037977956621
 21
409.7547343226933
 31
0.0
  0
LINE
  5
AAD
330
18
100
AcDbEntity
  8
ﾊｯﾁﾝｸ
  6
Continuous
100
AcDbLine
 10
498.5214301595639
 20
404.6046641070744
 30
0.0
 11
502.8863979631133
 21
408.2028658904621
 31
0.0
  0
LINE
  5
AAE
330
18
100
AcDbEntity
  8
ﾊｯﾁﾝｸ
  6
Continuous
100
AcDbLine
 10
499.7756030995014
 20
404.0185657398366
 30
0.0
 11
502.7169650092259
 21
406.4432373858803
 31
0.0
  0
LINE
  5
AAF
330
18
100
AcDbEntity
  8
ﾊｯﾁﾝｸ
  6
Continuous
100
AcDbLine
 10
501.5352316040832
 20
403.8491327859493
 30
0.0
 11
502.5475320553384
 21
404.6836088812985
 31
0.0
  0
LINE
  5
AB0
330
18
100
AcDbEntity
  8
ﾊｯﾁﾝｸ
  6
Continuous
100
AcDbLine
 10
498.528343424305
 20
404.1386631868165
 30
0.0
 11
498.4819755151773
 21
404.1949119584653
 31
0.0
  0
LINE
  5
AB1
330
18
100
AcDbEntity
  8
ﾊｯﾁﾝｸ
  6
Continuous
100
AcDbLine
 10
500.2879719288869
 20
403.969230232929
 30
0.0
 11
498.6514084690648
 21
405.9545404630472
 31
0.0
  0
LINE
  5
AB2
330
18
100
AcDbEntity
  8
ﾊｯﾁﾝｸ
  6
Continuous
100
AcDbLine
 10
502.0476004334687
 20
403.7997972790416
 30
0.0
 11
498.8208414229522
 21
407.714168967629
 31
0.0
  0
LINE
  5
AB3
330
18
100
AcDbEntity
  8
ﾊｯﾁﾝｸ
  6
Continuous
100
AcDbLine
 10
502.5884761602275
 20
405.1088296686613
 30
0.0
 11
498.9902743768396
 21
409.4737974722109
 31
0.0
  0
LINE
  5
AB4
330
18
100
AcDbEntity
  8
ﾊｯﾁﾝｸ
  6
Continuous
100
AcDbLine
 10
502.7579091141149
 20
406.8684581732432
 30
0.0
 11
500.1695547675507
 21
410.0083830765912
 31
0.0
  0
LINE
  5
AB5
330
18
100
AcDbEntity
  8
ﾊｯﾁﾝｸ
  6
Continuous
100
AcDbLine
 10
502.9273420680024
 20
408.628086677825
 30
0.0
 11
501.9291832721326
 21
409.8389501227037
 31
0.0
  0
LINE
  5
AB6
330
18
100
AcDbEntity
  8
0
  6
ByBlock
 62
     2
100
AcDbLine
 10
610.1297636690863
 20
343.6078076312743
 30
0.0
 11
627.1044239921703
 21
343.6078076312743
 31
0.0
  0
LINE
  5
AB7
330
18
100
AcDbEntity
  8
0
  6
ByBlock
 62
     2
100
AcDbLine
 10
610.1297636690863
 20
313.6078076312743
 30
0.0
 11
627.1044239921703
 21
313.6078076312743
 31
0.0
  0
LINE
  5
AB8
330
18
100
AcDbEntity
  8
0
  6
ByBlock
 62
     2
100
AcDbLine
 10
625.8544239921704
 20
341.1078076312743
 30
0.0
 11
625.8544239921704
 21
316.1078076312743
 31
0.0
  0
INSERT
  5
AB9
330
18
100
AcDbEntity
  8
0
  6
ByBlock
 62
     2
100
AcDbBlockReference
  2
_OPEN
 10
625.8544239921704
 20
343.6078076312743
 30
0.0
 41
2.5
 42
2.5
 43
2.5
 50
90.0
  0
INSERT
  5
ABA
330
18
100
AcDbEntity
  8
0
  6
ByBlock
 62
     2
100
AcDbBlockReference
  2
_OPEN
 10
625.8544239921704
 20
313.6078076312743
 30
0.0
 41
2.5
 42
2.5
 43
2.5
 50
270.0
  0
MTEXT
  5
ABB
330
18
100
AcDbEntity
  8
0
  6
ByBlock
 62
     6
100
AcDbMText
 10
623.9794239921703
 20
328.6078076312743
 30
0.0
 40
2.5
 41
0.0
 71
     5
 72
     1
  1
\A1;30
  7
STYLE3
 11
0.0000000000000001
 21
1.0
 31
0.0
 73
     1
 44
1.0
  0
POINT
  5
ABC
330
18
100
AcDbEntity
  8
DEFPOINTS
  6
ByBlock
 62
     0
100
AcDbPoint
 10
610.1297636690863
 20
343.6078076312743
 30
0.0
  0
POINT
  5
ABD
330
18
100
AcDbEntity
  8
DEFPOINTS
  6
ByBlock
 62
     0
100
AcDbPoint
 10
610.1297636690863
 20
313.6078076312743
 30
0.0
  0
POINT
  5
ABE
330
18
100
AcDbEntity
  8
DEFPOINTS
  6
ByBlock
 62
     0
100
AcDbPoint
 10
625.8544239921704
 20
313.6078076312743
 30
0.0
  0
LINE
  5
B2B
330
18
100
AcDbEntity
  8
外形線
100
AcDbLine
 10
347.9918148016056
 20
439.47886603016
 30
0.0
 11
469.9918148016055
 21
439.47886603016
 31
0.0
  0
LINE
  5
B2C
330
18
100
AcDbEntity
  8
外形線
100
AcDbLine
 10
347.9918148016056
 20
440.4788660301599
 30
0.0
 11
469.9918148016055
 21
440.4788660301599
 31
0.0
  0
TEXT
  5
B2D
330
18
100
AcDbEntity
  8
文字
100
AcDbText
 10
348.6125218016056
 20
442.95197803016
 30
0.0
 40
4.0
  1
Model No.LB-2 Inside Dial Caliper Gauge
  7
STYLE3
100
AcDbText
  0
TEXT
  5
B2E
330
18
100
AcDbEntity
  8
0
  6
Continuous
100
AcDbText
 10
566.5385232277792
 20
178.9455282888522
 30
0.0
 40
2.1
  1
Date
  7
STYLE3
100
AcDbText
  0
TEXT
  5
B2F
330
18
100
AcDbEntity
  8
0
  6
Continuous
100
AcDbText
 10
566.1551622277792
 20
182.2786112888522
 30
0.0
 40
3.0
  1
日 付
  7
STYLE3
100
AcDbText
  0
TEXT
  5
B30
330
18
100
AcDbEntity
  8
0
  6
Continuous
100
AcDbText
 10
575.2833302277792
 20
180.6936682888522
 30
0.0
 40
2.1
  1
2010.06.29
  7
STYLE3
100
AcDbText
  0
TEXT
  5
B31
330
18
100
AcDbEntity
  8
0
  6
Continuous
100
AcDbText
 10
556.4447522277792
 20
180.9850272888522
 30
0.0
 40
2.399999999999999
  1
1/1
  7
STYLE3
100
AcDbText
  0
TEXT
  5
B32
330
18
100
AcDbEntity
  8
0
  6
Continuous
100
AcDbText
 10
537.0863992277792
 20
180.6936702888522
 30
0.0
 40
2.399999999999999
  1
mm
  7
STYLE3
100
AcDbText
  0
TEXT
  5
B33
330
18
100
AcDbEntity
  8
0
  6
Continuous
100
AcDbText
 10
546.3622482277791
 20
182.1564062888522
 30
0.0
 40
3.0
  1
尺 度
  7
STYLE3
100
AcDbText
  0
TEXT
  5
B34
330
18
100
AcDbEntity
  8
0
  6
Continuous
100
AcDbText
 10
546.8254632277791
 20
179.2368842888522
 30
0.0
 40
2.1
  1
Scale
  7
STYLE3
100
AcDbText
  0
LINE
  5
B35
330
18
100
AcDbEntity
  8
外形線
100
AcDbLine
 10
594.3389222277792
 20
186.8121642888522
 30
0.0
 11
594.3389222277792
 21
177.1973862888522
 31
0.0
  0
LINE
  5
B36
330
18
100
AcDbEntity
  8
外形線
100
AcDbLine
 10
564.6065722277792
 20
186.8121642888522
 30
0.0
 11
564.6065722277792
 21
177.1973862888522
 31
0.0
  0
LINE
  5
B37
330
18
100
AcDbEntity
  8
外形線
100
AcDbLine
 10
545.0765002277791
 20
186.8121642888522
 30
0.0
 11
545.0765002277791
 21
177.1973862888522
 31
0.0
  0
TEXT
  5
B38
330
18
100
AcDbEntity
  8
0
  6
Continuous
100
AcDbText
 10
493.4821312277792
 20
178.9455262888522
 30
0.0
 40
2.1
  1
3RD Angle Projection
  7
STYLE3
100
AcDbText
  0
TEXT
  5
B39
330
18
100
AcDbEntity
  8
0
  6
Continuous
100
AcDbText
 10
496.1055732277792
 20
182.4418092888522
 30
0.0
 40
3.0
  1
三　　角　　法
  7
STYLE3
100
AcDbText
  0
LINE
  5
B3A
330
18
100
AcDbEntity
  8
外形線
100
AcDbLine
 10
492.3161552277792
 20
177.1973862888522
 30
0.0
 11
492.3161552277792
 21
197.5923692888522
 31
0.0
  0
LINE
  5
B3B
330
18
100
AcDbEntity
  8
外形線
100
AcDbLine
 10
527.5868832277792
 20
186.8121642888522
 30
0.0
 11
527.5868832277792
 21
177.1973862888522
 31
0.0
  0
TEXT
  5
B3C
330
18
100
AcDbEntity
  8
0
  6
Continuous
100
AcDbText
 10
529.0443522277792
 20
182.4477642888522
 30
0.0
 40
3.0
  1
単位
  7
STYLE3
100
AcDbText
  0
TEXT
  5
B3D
330
18
100
AcDbEntity
  8
0
  6
Continuous
100
AcDbText
 10
529.2160732277792
 20
178.9455272888522
 30
0.0
 40
2.1
  1
Unit
  7
STYLE3
100
AcDbText
  0
LINE
  5
B3E
330
18
100
AcDbEntity
  8
外形線
100
AcDbLine
 10
492.3161552277792
 20
197.5923692888522
 30
0.0
 11
633.1075732277792
 21
197.5923692888522
 31
0.0
  0
LINE
  5
B3F
330
18
100
AcDbEntity
  8
外形線
100
AcDbLine
 10
492.3161552277792
 20
186.8121642888522
 30
0.0
 11
633.1075732277792
 21
186.8121642888522
 31
0.0
  0
TEXT
  5
B40
330
18
100
AcDbEntity
  8
0
  6
Continuous
100
AcDbText
 10
493.7736222277792
 20
188.7101542888522
 30
0.0
 40
2.1
  1
Design and specifications are subject to change without notice for future improvement.
  7
STYLE3
100
AcDbText
  0
TEXT
  5
B41
330
18
100
AcDbEntity
  8
0
  6
Continuous
100
AcDbText
 10
494.0651162277792
 20
192.6393022888522
 30
0.0
 40
3.5
  1
仕様及び外観は予告なく変更される場合がございますのでご了承下さい。
  7
STYLE3
100
AcDbText
  0
TEXT
  5
B42
330
18
100
AcDbEntity
  8
0
  6
Continuous
100
AcDbText
 10
595.6878852277792
 20
182.7331662888522
 30
0.0
 40
3.0
  1
株式会社　尾崎製作所
  7
STYLE3
100
AcDbText
  0
TEXT
  5
B43
330
18
100
AcDbEntity
  8
0
  6
Continuous
100
AcDbText
 10
596.5623642277791
 20
178.9455272888522
 30
0.0
 40
2.1
  1
OZAKI MFG. CO., LTD.
  7
STYLE3
100
AcDbText
  0
ENDSEC
  0
SECTION
  2
OBJECTS
  0
DICTIONARY
  5
C
330
0
100
AcDbDictionary
281
     1
  3
ACAD_COLOR
350
AC6
  3
ACAD_GROUP
350
D
  3
ACAD_LAYOUT
350
AC9
  3
ACAD_MATERIAL
350
AC5
  3
ACAD_MLINESTYLE
350
1B
  3
ACAD_PLOTSETTINGS
350
ACA
  3
ACAD_PLOTSTYLENAME
350
AC3
  3
ACAD_TABLESTYLE
350
AC7
  3
AcDbVariableDictionary
350
AE7
  0
DICTIONARY
  5
AC6
102
{ACAD_REACTORS
330
C
102
}
330
C
100
AcDbDictionary
281
     1
  0
DICTIONARY
  5
D
102
{ACAD_REACTORS
330
C
102
}
330
C
100
AcDbDictionary
281
     1
  0
DICTIONARY
  5
AC9
102
{ACAD_REACTORS
330
C
102
}
330
C
100
AcDbDictionary
281
     1
  3
Model
350
ACB
  3
レイアウト1
350
ACC
  0
DICTIONARY
  5
AC5
102
{ACAD_REACTORS
330
C
102
}
330
C
100
AcDbDictionary
281
     1
  0
DICTIONARY
  5
1B
102
{ACAD_REACTORS
330
C
102
}
330
C
100
AcDbDictionary
281
     1
  3
STANDARD
350
1C
  0
DICTIONARY
  5
ACA
102
{ACAD_REACTORS
330
C
102
}
330
C
100
AcDbDictionary
281
     1
  0
ACDBDICTIONARYWDFLT
  5
AC3
102
{ACAD_REACTORS
330
C
102
}
330
C
100
AcDbDictionary
281
     1
  3
Normal
350
AC4
100
AcDbDictionaryWithDefault
340
AC4
  0
DICTIONARY
  5
AC7
102
{ACAD_REACTORS
330
C
102
}
330
C
100
AcDbDictionary
281
     1
  3
Standard
350
AC8
  0
DICTIONARY
  5
AE7
102
{ACAD_REACTORS
330
C
102
}
330
C
100
AcDbDictionary
281
     1
  3
CTABLESTYLE
350
AE8
  0
LAYOUT
  5
ACB
102
{ACAD_REACTORS
330
AC9
102
}
330
AC9
100
AcDbPlotSettings
  1

  2
WIDR Printer
  4

  6

 40
0.0
 41
0.0
 42
0.0
 43
0.0
 44
0.0
 45
0.0
 46
0.0
 47
0.0
 48
0.0
 49
0.0
140
0.0
141
0.0
142
1.0
143
1.0
 70
  1712
 72
     0
 73
     0
 74
     0
  7
AutoCad LT 98.ctb
 75
     0
147
1.0
 76
     0
 77
     2
 78
   300
148
0.0
149
0.0
100
AcDbLayout
  1
Model
 70
     1
 71
     0
 10
0.0
 20
0.0
 11
12.0
 21
9.0
 12
0.0
 22
0.0
 32
0.0
 14
0.0
 24
0.0
 34
0.0
 15
0.0
 25
0.0
 35
0.0
146
0.0
 13
0.0
 23
0.0
 33
0.0
 16
1.0
 26
0.0
 36
0.0
 17
0.0
 27
1.0
 37
0.0
 76
     0
330
18
  0
LAYOUT
  5
ACC
102
{ACAD_REACTORS
330
AC9
102
}
330
AC9
100
AcDbPlotSettings
  1

  2
WIDR Printer
  4

  6

 40
0.0
 41
0.0
 42
0.0
 43
0.0
 44
0.0
 45
0.0
 46
0.0
 47
0.0
 48
0.0
 49
0.0
140
0.0
141
0.0
142
1.0
143
1.0
 70
   688
 72
     0
 73
     0
 74
     5
  7
AutoCad LT 98.ctb
 75
    16
147
1.0
 76
     0
 77
     2
 78
   300
148
0.0
149
0.0
100
AcDbLayout
  1
レイアウト1
 70
     1
 71
     1
 10
0.0
 20
0.0
 11
420.0
 21
297.0
 12
0.0
 22
0.0
 32
0.0
 14
1.000000000000000E+20
 24
1.000000000000000E+20
 34
1.000000000000000E+20
 15
-1.000000000000000E+20
 25
-1.000000000000000E+20
 35
-1.000000000000000E+20
146
0.0
 13
0.0
 23
0.0
 33
0.0
 16
1.0
 26
0.0
 36
0.0
 17
0.0
 27
1.0
 37
0.0
 76
     0
330
15
  0
MLINESTYLE
  5
1C
102
{ACAD_REACTORS
330
1B
102
}
330
1B
100
AcDbMlineStyle
  2
STANDARD
 70
     0
  3

 62
   256
 51
90.0
 52
90.0
 71
     2
 49
0.5
 62
   256
  6
BYLAYER
 49
-0.5
 62
   256
  6
BYLAYER
  0
ACDBPLACEHOLDER
  5
AC4
102
{ACAD_REACTORS
330
AC3
102
}
330
AC3
  0
ACAD_PROXY_OBJECT
  5
AC8
102
{ACAD_REACTORS
330
AC7
102
}
330
AC7
100
AcDbProxyObject
 90
      499
 91
      503
 95
  2555929
 70
     0
 93
     1849
310
4214DD185B99185C992420000000000000F83F0000000000003E0FC00000000000004901028000000C1008070000C3001FDFF8000000C1003FBFF000000182007F7FE00000030400FEFFC00000060801FDFF8000000C1003FBFF000000182000000000000000C2020B0000001820100E000186003FBFF000000182007F7FE0
310
0000030400FEFFC00000060801FDFF8000000C1003FBFF000000182007F7FE0000003040000000000000012404160000003040201C00030C007F7FE00000030400FEFFC00000060801FDFF8000000C1003FBFF000000182007F7FE00000030400FEFFC000000608000
340
F
340
F
340
F
 94
        0
  0
DICTIONARYVAR
  5
AE8
102
{ACAD_REACTORS
330
AE7
102
}
330
AE7
100
DictionaryVariables
280
     0
  1
STANDARD
  0
ENDSEC
  0
EOF
