  0
SECTION
  2
HEADER
  9
$ACADVER
  1
AC1018
  9
$ACADMAINTVER
 70
     0
  9
$DWGCODEPAGE
  3
ANSI_932
  9
$INSBASE
 10
0.0
 20
0.0
 30
0.0
  9
$EXTMIN
 10
-0.4128286110385489
 20
-0.4090752353065455
 30
-0.0000457728747811
  9
$EXTMAX
 10
377.9317758321901
 20
282.9186987961628
 30
0.000030519906467
  9
$LIMMIN
 10
0.0
 20
0.0
  9
$LIMMAX
 10
420.0
 20
297.0
  9
$ORTHOMODE
 70
     0
  9
$REGENMODE
 70
     1
  9
$FILLMODE
 70
     1
  9
$QTEXTMODE
 70
     0
  9
$MIRRTEXT
 70
     1
  9
$LTSCALE
 40
1.0
  9
$ATTMODE
 70
     1
  9
$TEXTSIZE
 40
2.5
  9
$TRACEWID
 40
1.0
  9
$TEXTSTYLE
  7
STYLE3
  9
$CLAYER
  8
隠れ線2
  9
$CELTYPE
  6
BYLAYER
  9
$CECOLOR
 62
   256
  9
$CELTSCALE
 40
1.0
  9
$DISPSILH
 70
     0
  9
$DIMSCALE
 40
1.0
  9
$DIMASZ
 40
2.5
  9
$DIMEXO
 40
0.0
  9
$DIMDLI
 40
3.75
  9
$DIMRND
 40
0.0
  9
$DIMDLE
 40
0.0
  9
$DIMEXE
 40
1.25
  9
$DIMTP
 40
0.0
  9
$DIMTM
 40
0.0
  9
$DIMTXT
 40
2.5
  9
$DIMCEN
 40
2.5
  9
$DIMTSZ
 40
0.0
  9
$DIMTOL
 70
     0
  9
$DIMLIM
 70
     0
  9
$DIMTIH
 70
     0
  9
$DIMTOH
 70
     0
  9
$DIMSE1
 70
     0
  9
$DIMSE2
 70
     0
  9
$DIMTAD
 70
     1
  9
$DIMZIN
 70
     8
  9
$DIMBLK
  1

  9
$DIMASO
 70
     1
  9
$DIMSHO
 70
     1
  9
$DIMPOST
  1

  9
$DIMAPOST
  1

  9
$DIMALT
 70
     0
  9
$DIMALTD
 70
     4
  9
$DIMALTF
 40
0.0394
  9
$DIMLFAC
 40
1.0
  9
$DIMTOFL
 70
     1
  9
$DIMTVP
 40
0.0
  9
$DIMTIX
 70
     0
  9
$DIMSOXD
 70
     0
  9
$DIMSAH
 70
     1
  9
$DIMBLK1
  1
OPEN
  9
$DIMBLK2
  1
OPEN
  9
$DIMSTYLE
  2
STYLE3
  9
$DIMCLRD
 70
     2
  9
$DIMCLRE
 70
     2
  9
$DIMCLRT
 70
     6
  9
$DIMTFAC
 40
1.0
  9
$DIMGAP
 40
0.625
  9
$DIMJUST
 70
     0
  9
$DIMSD1
 70
     0
  9
$DIMSD2
 70
     0
  9
$DIMTOLJ
 70
     1
  9
$DIMTZIN
 70
     0
  9
$DIMALTZ
 70
     0
  9
$DIMALTTZ
 70
     0
  9
$DIMUPT
 70
     0
  9
$DIMDEC
 70
     2
  9
$DIMTDEC
 70
     4
  9
$DIMALTU
 70
     8
  9
$DIMALTTD
 70
     4
  9
$DIMTXSTY
  7
STYLE3
  9
$DIMAUNIT
 70
     0
  9
$DIMADEC
 70
     0
  9
$DIMALTRND
 40
0.0
  9
$DIMAZIN
 70
     0
  9
$DIMDSEP
 70
    46
  9
$DIMATFIT
 70
     3
  9
$DIMFRAC
 70
     0
  9
$DIMLDRBLK
  1

  9
$DIMLUNIT
 70
     2
  9
$DIMLWD
 70
    -2
  9
$DIMLWE
 70
    -2
  9
$DIMTMOVE
 70
     0
  9
$LUNITS
 70
     2
  9
$LUPREC
 70
     4
  9
$SKETCHINC
 40
1.0
  9
$FILLETRAD
 40
0.0
  9
$AUNITS
 70
     0
  9
$AUPREC
 70
     0
  9
$MENU
  1
.
  9
$ELEVATION
 40
0.0
  9
$PELEVATION
 40
0.0
  9
$THICKNESS
 40
0.0
  9
$LIMCHECK
 70
     0
  9
$CHAMFERA
 40
10.0
  9
$CHAMFERB
 40
10.0
  9
$CHAMFERC
 40
20.0
  9
$CHAMFERD
 40
0.0
  9
$SKPOLY
 70
     0
  9
$TDCREATE
 40
2451270.385306713
  9
$TDUCREATE
 40
2451270.010306713
  9
$TDUPDATE
 40
2455377.452326563
  9
$TDUUPDATE
 40
2455377.077326563
  9
$TDINDWG
 40
0.6072223264
  9
$TDUSRTIMER
 40
0.6072223264
  9
$USRTIMER
 70
     1
  9
$ANGBASE
 50
0.0
  9
$ANGDIR
 70
     0
  9
$PDMODE
 70
     0
  9
$PDSIZE
 40
0.0
  9
$PLINEWID
 40
0.0
  9
$SPLFRAME
 70
     0
  9
$SPLINETYPE
 70
     6
  9
$SPLINESEGS
 70
     8
  9
$HANDSEED
  5
DA3
  9
$SURFTAB1
 70
     6
  9
$SURFTAB2
 70
     6
  9
$SURFTYPE
 70
     6
  9
$SURFU
 70
     6
  9
$SURFV
 70
     6
  9
$UCSBASE
  2

  9
$UCSNAME
  2

  9
$UCSORG
 10
0.0
 20
0.0
 30
0.0
  9
$UCSXDIR
 10
1.0
 20
0.0
 30
0.0
  9
$UCSYDIR
 10
0.0
 20
1.0
 30
0.0
  9
$UCSORTHOREF
  2

  9
$UCSORTHOVIEW
 70
     0
  9
$UCSORGTOP
 10
0.0
 20
0.0
 30
0.0
  9
$UCSORGBOTTOM
 10
0.0
 20
0.0
 30
0.0
  9
$UCSORGLEFT
 10
0.0
 20
0.0
 30
0.0
  9
$UCSORGRIGHT
 10
0.0
 20
0.0
 30
0.0
  9
$UCSORGFRONT
 10
0.0
 20
0.0
 30
0.0
  9
$UCSORGBACK
 10
0.0
 20
0.0
 30
0.0
  9
$PUCSBASE
  2

  9
$PUCSNAME
  2

  9
$PUCSORG
 10
0.0
 20
0.0
 30
0.0
  9
$PUCSXDIR
 10
1.0
 20
0.0
 30
0.0
  9
$PUCSYDIR
 10
0.0
 20
1.0
 30
0.0
  9
$PUCSORTHOREF
  2

  9
$PUCSORTHOVIEW
 70
     0
  9
$PUCSORGTOP
 10
0.0
 20
0.0
 30
0.0
  9
$PUCSORGBOTTOM
 10
0.0
 20
0.0
 30
0.0
  9
$PUCSORGLEFT
 10
0.0
 20
0.0
 30
0.0
  9
$PUCSORGRIGHT
 10
0.0
 20
0.0
 30
0.0
  9
$PUCSORGFRONT
 10
0.0
 20
0.0
 30
0.0
  9
$PUCSORGBACK
 10
0.0
 20
0.0
 30
0.0
  9
$USERI1
 70
     0
  9
$USERI2
 70
     0
  9
$USERI3
 70
     0
  9
$USERI4
 70
     0
  9
$USERI5
 70
     0
  9
$USERR1
 40
0.0
  9
$USERR2
 40
0.0
  9
$USERR3
 40
0.0
  9
$USERR4
 40
0.0
  9
$USERR5
 40
0.0
  9
$WORLDVIEW
 70
     1
  9
$SHADEDGE
 70
     3
  9
$SHADEDIF
 70
    70
  9
$TILEMODE
 70
     1
  9
$MAXACTVP
 70
    48
  9
$PINSBASE
 10
0.0
 20
0.0
 30
0.0
  9
$PLIMCHECK
 70
     0
  9
$PEXTMIN
 10
1.000000000000000E+20
 20
1.000000000000000E+20
 30
1.000000000000000E+20
  9
$PEXTMAX
 10
-1.000000000000000E+20
 20
-1.000000000000000E+20
 30
-1.000000000000000E+20
  9
$PLIMMIN
 10
0.0
 20
0.0
  9
$PLIMMAX
 10
420.0
 20
297.0
  9
$UNITMODE
 70
     0
  9
$VISRETAIN
 70
     1
  9
$PLINEGEN
 70
     0
  9
$PSLTSCALE
 70
     1
  9
$TREEDEPTH
 70
  3020
  9
$CMLSTYLE
  2
STANDARD
  9
$CMLJUST
 70
     0
  9
$CMLSCALE
 40
20.0
  9
$PROXYGRAPHICS
 70
     1
  9
$MEASUREMENT
 70
     1
  9
$CELWEIGHT
370
    -1
  9
$ENDCAPS
280
     0
  9
$JOINSTYLE
280
     0
  9
$LWDISPLAY
290
     0
  9
$INSUNITS
 70
     0
  9
$HYPERLINKBASE
  1

  9
$STYLESHEET
  1

  9
$XEDIT
290
     1
  9
$CEPSNTYPE
380
     0
  9
$PSTYLEMODE
290
     1
  9
$FINGERPRINTGUID
  2
{FE51364D-BAC8-4EB7-B8D8-9E2ED79A18E3}
  9
$VERSIONGUID
  2
{5BB66EF1-24A4-4D9F-8539-86248DD4ACDB}
  9
$EXTNAMES
290
     1
  9
$PSVPSCALE
 40
0.0
  9
$OLESTARTUP
290
     0
  9
$SORTENTS
280
   127
  9
$INDEXCTL
280
     0
  9
$HIDETEXT
280
     0
  9
$XCLIPFRAME
290
     0
  9
$HALOGAP
280
     0
  9
$OBSCOLOR
 70
   257
  9
$OBSLTYPE
280
     0
  9
$INTERSECTIONDISPLAY
280
     0
  9
$INTERSECTIONCOLOR
 70
   257
  9
$DIMASSOC
280
     1
  9
$PROJECTNAME
  1

  0
ENDSEC
  0
SECTION
  2
CLASSES
  0
CLASS
  1
HATCH
  2
AcDbHatch
  3
ObjectDBX Classes
 90
        0
 91
       18
280
     0
281
     1
  0
CLASS
  1
LWPOLYLINE
  2
AcDbPolyline
  3
ObjectDBX Classes
 90
        0
 91
        4
280
     0
281
     1
  0
CLASS
  1
ACDBDICTIONARYWDFLT
  2
AcDbDictionaryWithDefault
  3
ObjectDBX Classes
 90
        0
 91
        1
280
     0
281
     0
  0
CLASS
  1
TABLESTYLE
  2
AcDbTableStyle
  3
ObjectDBX Classes
 90
     2047
 91
        1
280
     0
281
     0
  0
CLASS
  1
DICTIONARYVAR
  2
AcDbDictionaryVar
  3
ObjectDBX Classes
 90
        0
 91
        1
280
     0
281
     0
  0
ENDSEC
  0
SECTION
  2
TABLES
  0
TABLE
  2
VPORT
  5
8
330
0
100
AcDbSymbolTable
 70
     2
  0
VPORT
  5
DA2
330
8
100
AcDbSymbolTableRecord
100
AcDbViewportTableRecord
  2
*Active
 70
     0
 10
0.0
 20
0.0
 11
1.0
 21
1.0
 12
188.7594736105757
 22
141.2548117804281
 13
0.0
 23
0.0
 14
10.0
 24
10.0
 15
10.0
 25
10.0
 16
0.0
 26
0.0
 36
1.0
 17
0.0
 27
0.0
 37
0.0
 40
285.4823578644083
 41
1.530456852791878
 42
50.0
 43
0.0
 44
0.0
 50
0.0
 51
0.0
 71
     0
 72
   100
 73
     1
 74
     1
 75
     0
 76
     0
 77
     0
 78
     0
281
     0
 65
     1
110
0.0
120
0.0
130
0.0
111
1.0
121
0.0
131
0.0
112
0.0
122
1.0
132
0.0
 79
     0
146
0.0
  0
ENDTAB
  0
TABLE
  2
LTYPE
  5
5
330
0
100
AcDbSymbolTable
 70
     4
  0
LTYPE
  5
12
330
5
100
AcDbSymbolTableRecord
100
AcDbLinetypeTableRecord
  2
BYBLOCK
 70
     0
  3

 72
    65
 73
     0
 40
0.0
  0
LTYPE
  5
13
330
5
100
AcDbSymbolTableRecord
100
AcDbLinetypeTableRecord
  2
BYLAYER
 70
     0
  3

 72
    65
 73
     0
 40
0.0
  0
LTYPE
  5
14
330
5
100
AcDbSymbolTableRecord
100
AcDbLinetypeTableRecord
  2
CONTINUOUS
 70
     0
  3
Solid line
 72
    65
 73
     0
 40
0.0
  0
LTYPE
  5
22
330
5
100
AcDbSymbolTableRecord
100
AcDbLinetypeTableRecord
  2
CENTER2
 70
     0
  3
Center (.5x) ___ _ ___ _ ___ _ ___ _ ___ _ ___
 72
    65
 73
     4
 40
28.575
 49
19.05
 74
     0
 49
-3.174999999999999
 74
     0
 49
3.174999999999999
 74
     0
 49
-3.174999999999999
 74
     0
  0
LTYPE
  5
23
330
5
100
AcDbSymbolTableRecord
100
AcDbLinetypeTableRecord
  2
HIDDEN2
 70
     0
  3
Hidden (.5x) _ _ _ _ _ _ _ _ _ _ _ _ _ _ _ _ _
 72
    65
 73
     2
 40
4.762499999999999
 49
3.174999999999999
 74
     0
 49
-1.587499999999999
 74
     0
  0
LTYPE
  5
24
330
5
100
AcDbSymbolTableRecord
100
AcDbLinetypeTableRecord
  2
PHANTOM2
 70
     0
  3
Phantom (.5x) ___ _ _ ___ _ _ ___ _ _ ___ _ _
 72
    65
 73
     6
 40
31.75
 49
15.875
 74
     0
 49
-3.174999999999999
 74
     0
 49
3.174999999999999
 74
     0
 49
-3.174999999999999
 74
     0
 49
3.174999999999999
 74
     0
 49
-3.174999999999999
 74
     0
  0
ENDTAB
  0
TABLE
  2
LAYER
  5
2
330
0
100
AcDbSymbolTable
 70
    16
  0
LAYER
  5
E
330
2
100
AcDbSymbolTableRecord
100
AcDbLayerTableRecord
  2
0
 70
     0
 62
     7
  6
CONTINUOUS
370
    -3
390
D13
  0
LAYER
  5
25
330
2
100
AcDbSymbolTableRecord
100
AcDbLayerTableRecord
  2
外形線
 70
     0
 62
     7
  6
CONTINUOUS
370
    -3
390
D13
  0
LAYER
  5
26
330
2
100
AcDbSymbolTableRecord
100
AcDbLayerTableRecord
  2
寸法線
 70
     0
 62
     2
  6
CONTINUOUS
370
    -3
390
D13
  0
LAYER
  5
27
330
2
100
AcDbSymbolTableRecord
100
AcDbLayerTableRecord
  2
中心線
 70
     0
 62
     4
  6
CENTER2
370
    -3
390
D13
  0
LAYER
  5
28
330
2
100
AcDbSymbolTableRecord
100
AcDbLayerTableRecord
  2
隠れ線
 70
     0
 62
     6
  6
HIDDEN2
370
    -3
390
D13
  0
LAYER
  5
29
330
2
100
AcDbSymbolTableRecord
100
AcDbLayerTableRecord
  2
想像線
 70
     0
 62
     1
  6
PHANTOM2
370
    -3
390
D13
  0
LAYER
  5
2A
330
2
100
AcDbSymbolTableRecord
100
AcDbLayerTableRecord
  2
ﾊｯﾁﾝｸ
 70
     0
 62
     6
  6
CONTINUOUS
370
    -3
390
D13
  0
LAYER
  5
2B
330
2
100
AcDbSymbolTableRecord
100
AcDbLayerTableRecord
  2
文字
 70
     0
 62
     6
  6
CONTINUOUS
370
    -3
390
D13
  0
LAYER
  5
2C
330
2
100
AcDbSymbolTableRecord
100
AcDbLayerTableRecord
  2
目盛
 70
     0
 62
    72
  6
CONTINUOUS
370
    -3
390
D13
  0
LAYER
  5
2D
330
2
100
AcDbSymbolTableRecord
100
AcDbLayerTableRecord
  2
針
 70
     0
 62
     5
  6
CONTINUOUS
370
    -3
390
D13
  0
LAYER
  5
53
330
2
100
AcDbSymbolTableRecord
100
AcDbLayerTableRecord
  2
DEFPOINTS
 70
     0
 62
     7
  6
CONTINUOUS
290
     0
370
    -3
390
D13
  0
LAYER
  5
A5
330
2
100
AcDbSymbolTableRecord
100
AcDbLayerTableRecord
  2
C
 70
     0
 62
     7
  6
CONTINUOUS
370
    -3
390
D13
  0
LAYER
  5
1FE
330
2
100
AcDbSymbolTableRecord
100
AcDbLayerTableRecord
  2
隠れ線2
 70
     0
 62
     1
  6
HIDDEN2
370
    -3
390
D13
  0
LAYER
  5
2E1
330
2
100
AcDbSymbolTableRecord
100
AcDbLayerTableRecord
  2
ROGO
 70
     0
 62
     6
  6
CONTINUOUS
370
    -3
390
D13
  0
LAYER
  5
76D
330
2
100
AcDbSymbolTableRecord
100
AcDbLayerTableRecord
  2
握り
 70
     0
 62
     3
  6
CONTINUOUS
370
    -3
390
D13
  0
ENDTAB
  0
TABLE
  2
STYLE
  5
3
330
0
100
AcDbSymbolTable
 70
     3
  0
STYLE
  5
F
330
3
100
AcDbSymbolTableRecord
100
AcDbTextStyleTableRecord
  2
STANDARD
 70
     0
 40
0.0
 41
1.0
 50
0.0
 71
     0
 42
2.5
  3
txt
  4

  0
STYLE
  5
3F
330
3
100
AcDbSymbolTableRecord
100
AcDbTextStyleTableRecord
  2
STYLE3
 70
     0
 40
0.0
 41
1.0
 50
0.0
 71
     0
 42
2.5
  3
romans.shx
  4
bigfont.shx
  0
ENDTAB
  0
TABLE
  2
VIEW
  5
6
330
0
100
AcDbSymbolTable
 70
     0
  0
ENDTAB
  0
TABLE
  2
UCS
  5
7
330
0
100
AcDbSymbolTable
 70
     0
  0
ENDTAB
  0
TABLE
  2
APPID
  5
9
330
0
100
AcDbSymbolTable
 70
     2
  0
APPID
  5
10
330
9
100
AcDbSymbolTableRecord
100
AcDbRegAppTableRecord
  2
ACAD
 70
     0
  0
APPID
  5
D39
330
9
100
AcDbSymbolTableRecord
100
AcDbRegAppTableRecord
  2
ACAD_PSEXT
 70
     0
  0
ENDTAB
  0
TABLE
  2
DIMSTYLE
  5
A
330
0
100
AcDbSymbolTable
 70
     6
100
AcDbDimStyleTable
 71
     0
  0
DIMSTYLE
105
1D
330
A
100
AcDbSymbolTableRecord
100
AcDbDimStyleTableRecord
  2
STANDARD
 70
     0
 41
2.5
 42
0.625
 43
3.75
 44
1.25
 73
     0
 74
     0
 77
     1
 78
     8
140
2.5
141
2.5
143
0.0394
147
0.625
171
     4
172
     1
273
     8
274
     4
277
     6
340
F
  0
DIMSTYLE
105
8F
330
A
100
AcDbSymbolTableRecord
100
AcDbDimStyleTableRecord
  2
STYLE3
 70
     0
 41
2.5
 42
0.0
 43
3.75
 44
1.25
 73
     0
 74
     0
 77
     1
 78
     8
140
2.5
141
2.5
143
0.0394
147
0.625
171
     4
172
     1
173
     1
176
     2
177
     2
178
     6
271
     1
273
     8
274
     4
340
3F
341
45
343
45
344
45
  0
ENDTAB
  0
TABLE
  2
BLOCK_RECORD
  5
1
330
0
100
AcDbSymbolTable
 70
     3
  0
BLOCK_RECORD
  5
18
330
1
100
AcDbSymbolTableRecord
100
AcDbBlockTableRecord
  2
*MODEL_SPACE
340
D1A
  0
BLOCK_RECORD
  5
15
330
1
100
AcDbSymbolTableRecord
100
AcDbBlockTableRecord
  2
*PAPER_SPACE
340
D1B
  0
BLOCK_RECORD
  5
45
330
1
100
AcDbSymbolTableRecord
100
AcDbBlockTableRecord
  2
_OPEN
340
0
102
{BLKREFS
331
B47
331
B48
331
B4F
331
B52
331
C2E
331
CA8
331
CA9
331
CB1
331
CB2
331
CBA
331
CBB
331
CC3
331
CC4
331
CCF
331
CD0
331
CDA
331
CDB
331
CE3
331
CE4
331
CF8
331
CF9
331
D02
331
D03
102
}
  0
ENDTAB
  0
ENDSEC
  0
SECTION
  2
BLOCKS
  0
BLOCK
  5
19
330
18
100
AcDbEntity
  8
0
100
AcDbBlockBegin
  2
*MODEL_SPACE
 70
     0
 10
0.0
 20
0.0
 30
0.0
  3
*MODEL_SPACE
  1

  0
ENDBLK
  5
1A
330
18
100
AcDbEntity
  8
0
100
AcDbBlockEnd
  0
BLOCK
  5
16
330
15
100
AcDbEntity
 67
     1
  8
0
100
AcDbBlockBegin
  2
*PAPER_SPACE
 70
     0
 10
0.0
 20
0.0
 30
0.0
  3
*PAPER_SPACE
  1

  0
ENDBLK
  5
17
330
15
100
AcDbEntity
 67
     1
  8
0
100
AcDbBlockEnd
  0
BLOCK
  5
46
330
45
100
AcDbEntity
  8
0
100
AcDbBlockBegin
  2
_OPEN
 70
     0
 10
0.0
 20
0.0
 30
0.0
  3
_OPEN
  1

  0
LINE
  5
47
330
45
100
AcDbEntity
  8
0
  6
ByBlock
 62
     0
100
AcDbLine
 10
-1.0
 20
0.1666666666666666
 30
0.0
 11
0.0
 21
0.0
 31
0.0
  0
LINE
  5
48
330
45
100
AcDbEntity
  8
0
  6
ByBlock
 62
     0
100
AcDbLine
 10
0.0
 20
0.0
 30
0.0
 11
-1.0
 21
-0.1666666666666666
 31
0.0
  0
LINE
  5
49
330
45
100
AcDbEntity
  8
0
  6
ByBlock
 62
     0
100
AcDbLine
 10
0.0
 20
0.0
 30
0.0
 11
-1.0
 21
0.0
 31
0.0
  0
ENDBLK
  5
4A
330
45
100
AcDbEntity
  8
0
100
AcDbBlockEnd
  0
ENDSEC
  0
SECTION
  2
ENTITIES
  0
LWPOLYLINE
  5
1A0
330
18
100
AcDbEntity
  8
C
100
AcDbPolyline
 90
        5
 70
     0
 43
0.8
 10
0.0
 20
282.5
 10
377.4999999999999
 20
282.5
 10
377.4999999999999
 20
0.0
 10
0.0
 20
0.0
 10
0.0
 20
282.5
  0
LINE
  5
223
330
18
100
AcDbEntity
  8
中心線
 48
0.5
100
AcDbLine
 10
50.52805269809437
 20
136.3568116978523
 30
0.0
 11
327.427383617591
 21
136.3568116978523
 31
0.0
  0
LINE
  5
224
330
18
100
AcDbEntity
  8
中心線
 48
0.5
100
AcDbLine
 10
160.2821834481274
 20
152.3883912195008
 30
0.0
 11
160.2821834481274
 21
118.2925546799264
 31
0.0
  0
ARC
  5
226
330
18
100
AcDbEntity
  8
外形線
100
AcDbCircle
 10
160.2821834481274
 20
136.3568116978523
 30
0.0
 40
15.0
100
AcDbArc
 50
66.37443048174391
 51
122.2580503351497
  0
ARC
  5
229
330
18
100
AcDbEntity
  8
外形線
100
AcDbCircle
 10
125.6411834481274
 20
191.3568116978523
 30
0.0
 40
50.0
100
AcDbArc
 50
270.8525918817362
 51
302.2203659184701
  0
LINE
  5
22D
330
18
100
AcDbEntity
  8
外形線
100
AcDbLine
 10
196.2821834481274
 20
138.8568116978523
 30
0.0
 11
197.5163656679587
 21
138.8568116978522
 31
0.0
  0
LINE
  5
22E
330
18
100
AcDbEntity
  8
外形線
100
AcDbLine
 10
166.2935525475718
 20
150.0995713024675
 30
0.0
 11
196.2821834481274
 21
138.8568116978523
 31
0.0
  0
ARC
  5
232
330
18
100
AcDbEntity
  8
外形線
100
AcDbCircle
 10
240.2821834481274
 20
140.3568116978523
 30
0.0
 40
35.0
100
AcDbArc
 50
182.4562857235819
 51
247.7658966746322
  0
ARC
  5
235
330
18
100
AcDbEntity
  8
外形線
100
AcDbCircle
 10
217.2821834481274
 20
52.35281169785233
 30
0.0
 40
55.0
100
AcDbArc
 50
40.33333954388024
 51
71.69103265745519
  0
LINE
  5
236
330
18
100
AcDbEntity
  8
外形線
100
AcDbLine
 10
234.55994099863
 20
104.5685094718556
 30
0.0
 11
227.038470020938
 21
107.959218351147
 31
0.0
  0
ARC
  5
23A
330
18
100
AcDbEntity
  8
外形線
100
AcDbCircle
 10
221.8821834481274
 20
54.68681169785231
 30
0.0
 40
45.0
100
AcDbArc
 50
41.90724984805582
 51
86.66058869544441
  0
ARC
  5
23D
330
18
100
AcDbEntity
  8
外形線
100
AcDbCircle
 10
257.2821834481274
 20
86.35681169785232
 30
0.0
 40
2.5
100
AcDbArc
 50
220.1895858530468
 51
41.12739488987449
  0
ARC
  5
240
330
18
100
AcDbEntity
  8
外形線
100
AcDbCircle
 10
233.2403303882642
 20
249.3677944525225
 30
0.0
 40
150.0120318053927
100
AcDbArc
 50
237.6335168834439
 51
266.6611420046889
  0
ARC
  5
244
330
18
100
AcDbEntity
  8
外形線
100
AcDbCircle
 10
126.2821834481274
 20
80.35681169785233
 30
0.0
 40
50.0
100
AcDbArc
 50
57.5547968764576
 51
80.20876439269015
  0
LINE
  5
248
330
18
100
AcDbEntity
  8
外形線
100
AcDbLine
 10
78.28218344812739
 20
139.3568116978523
 30
0.0
 11
95.2821834481274
 21
139.3568116978523
 31
0.0
  0
LINE
  5
249
330
18
100
AcDbEntity
  8
外形線
100
AcDbLine
 10
78.28218344812739
 20
136.5568116978523
 30
0.0
 11
95.28218344812737
 21
136.5568116978522
 31
0.0
  0
LINE
  5
255
330
18
100
AcDbEntity
  8
外形線
100
AcDbLine
 10
95.2821834481274
 20
139.3568116978523
 30
0.0
 11
126.3851827656853
 21
141.3623473541325
 31
0.0
  0
LINE
  5
263
330
18
100
AcDbEntity
  8
外形線
100
AcDbLine
 10
78.28218344812739
 20
139.3568116978523
 30
0.0
 11
78.28218344812739
 21
136.5568116978523
 31
0.0
  0
LINE
  5
265
330
18
100
AcDbEntity
  8
外形線
100
AcDbLine
 10
95.28218344812737
 20
136.5568116978522
 30
0.0
 11
134.7851215372923
 21
129.6285078717393
 31
0.0
  0
CIRCLE
  5
26F
330
18
100
AcDbEntity
  8
隠れ線2
100
AcDbCircle
 10
178.2821834481274
 20
136.3568116978523
 30
0.0
 40
1.274999999999999
  0
ARC
  5
280
330
18
100
AcDbEntity
  8
隠れ線2
100
AcDbCircle
 10
160.2821834481274
 20
136.3568116978523
 30
0.0
 40
15.0
100
AcDbArc
 50
227.0142748133557
 51
273.9650477221687
  0
ARC
  5
283
330
18
100
AcDbEntity
  8
隠れ線2
100
AcDbCircle
 10
129.6881834481274
 20
103.3568116978523
 30
0.0
 40
30.0
100
AcDbArc
 50
47.09047810119016
 51
90.0
  0
ARC
  5
28B
330
18
100
AcDbEntity
  8
隠れ線2
100
AcDbCircle
 10
200.2821834481274
 20
191.0568116978523
 30
0.0
 40
25.0
100
AcDbArc
 50
328.1807309974273
 51
191.5369590328154
  0
ARC
  5
290
330
18
100
AcDbEntity
  8
隠れ線2
100
AcDbCircle
 10
122.7821834481274
 20
190.3568116978523
 30
0.0
 40
50.0
100
AcDbArc
 50
276.8056647851123
 51
291.0141044668696
  0
LINE
  5
296
330
18
100
AcDbEntity
  8
隠れ線2
100
AcDbLine
 10
175.7872860202956
 20
186.0568116978523
 30
0.0
 11
174.8437314147679
 21
183.9967013483981
 31
0.0
  0
ARC
  5
2A1
330
18
100
AcDbEntity
  8
隠れ線2
100
AcDbCircle
 10
238.2857597485409
 20
166.9557179338151
 30
0.0
 40
20.00420781811099
100
AcDbArc
 50
146.9146429326329
 51
163.8870415071003
  0
LINE
  5
2A3
330
18
100
AcDbEntity
  8
外形線
100
AcDbLine
 10
225.2821834481273
 20
124.6568116978523
 30
0.0
 11
209.8477611010535
 21
123.072543231992
 31
0.0
  0
LINE
  5
2A4
330
18
100
AcDbEntity
  8
外形線
100
AcDbLine
 10
78.28218344812739
 20
136.1568116978523
 30
0.0
 11
78.28218344812739
 21
133.3568116978523
 31
0.0
  0
LINE
  5
2A6
330
18
100
AcDbEntity
  8
外形線
100
AcDbLine
 10
78.28218344812739
 20
136.1568116978523
 30
0.0
 11
95.2821834481274
 21
136.1568116978523
 31
0.0
  0
LINE
  5
2A7
330
18
100
AcDbEntity
  8
外形線
100
AcDbLine
 10
78.28218344812739
 20
133.3568116978523
 30
0.0
 11
95.2821834481274
 21
133.3568116978523
 31
0.0
  0
LINE
  5
2A8
330
18
100
AcDbEntity
  8
外形線
100
AcDbLine
 10
95.2821834481274
 20
136.1568116978523
 30
0.0
 11
96.75067333029188
 21
136.3568116978523
 31
0.0
  0
LINE
  5
2A9
330
18
100
AcDbEntity
  8
外形線
100
AcDbLine
 10
95.2821834481274
 20
133.3568116978523
 30
0.0
 11
113.5275440815461
 21
133.3568116978523
 31
0.0
  0
CIRCLE
  5
2AC
330
18
100
AcDbEntity
  8
隠れ線2
100
AcDbCircle
 10
178.2821834481274
 20
134.1068116978523
 30
0.0
 40
3.75
  0
ARC
  5
2C9
330
18
100
AcDbEntity
  8
外形線
100
AcDbCircle
 10
122.7821834481274
 20
190.3568116978523
 30
0.0
 40
50.0
100
AcDbArc
 50
291.0141044668696
 51
336.9495016292033
  0
LINE
  5
2CA
330
18
100
AcDbEntity
  8
隠れ線2
100
AcDbLine
 10
96.75067333029188
 20
136.3568116978523
 30
0.0
 11
130.3500725881464
 21
140.9328594685497
 31
0.0
  0
LINE
  5
2CB
330
18
100
AcDbEntity
  8
隠れ線2
100
AcDbLine
 10
113.5275440815461
 20
133.3568116978523
 30
0.0
 11
129.6881834481274
 21
133.3568116978523
 31
0.0
  0
LINE
  5
2CC
330
18
100
AcDbEntity
  8
隠れ線2
100
AcDbLine
 10
209.8477611010535
 20
123.072543231992
 30
0.0
 11
160.2821834481274
 21
121.3568116978523
 31
0.0
  0
CIRCLE
  5
2CD
330
18
100
AcDbEntity
  8
外形線
100
AcDbCircle
 10
160.2821834481274
 20
136.3568116978523
 30
0.0
 40
9.5
  0
CIRCLE
  5
2DB
330
18
100
AcDbEntity
  8
外形線
100
AcDbCircle
 10
160.2821834481274
 20
136.3568116978523
 30
0.0
 40
8.5
  0
ARC
  5
2DF
330
18
100
AcDbEntity
  8
中心線
 48
0.3
100
AcDbCircle
 10
160.2821834481274
 20
136.3568116978523
 30
0.0
 40
18.0
100
AcDbArc
 50
335.8412200301301
 51
9.6905068676593
  0
LINE
  5
3DE
330
18
100
AcDbEntity
  8
外形線
  6
Continuous
100
AcDbLine
 10
204.2821834481274
 20
225.0568116978522
 30
0.0
 11
204.2821834481274
 21
219.0568116978522
 31
0.0
  0
LINE
  5
3DF
330
18
100
AcDbEntity
  8
外形線
  6
Continuous
100
AcDbLine
 10
196.2821834481275
 20
225.0568116978522
 30
0.0
 11
196.2821834481275
 21
219.0568116978522
 31
0.0
  0
LINE
  5
3E1
330
18
100
AcDbEntity
  8
外形線
  6
Continuous
100
AcDbLine
 10
196.2821834481274
 20
219.0568116978522
 30
0.0
 11
204.2821834481274
 21
219.0568116978522
 31
0.0
  0
LINE
  5
436
330
18
100
AcDbEntity
  8
外形線
  6
Continuous
100
AcDbLine
 10
196.5821834481274
 20
219.0568116978522
 30
0.0
 11
196.5821834481274
 21
217.1962455096241
 31
0.0
  0
LINE
  5
4A2
330
18
100
AcDbEntity
  8
外形線
  6
Continuous
100
AcDbLine
 10
203.9821834481274
 20
219.0568116978522
 30
0.0
 11
203.9821834481274
 21
217.1962455096241
 31
0.0
  0
LINE
  5
4B3
330
18
100
AcDbEntity
  8
外形線
  6
Continuous
100
AcDbLine
 10
196.5821834481274
 20
231.5568116978522
 30
0.0
 11
203.9821834481274
 21
231.5568116978522
 31
0.0
  0
ARC
  5
4B4
330
18
100
AcDbEntity
  8
外形線
  6
Continuous
100
AcDbCircle
 10
200.2821834481274
 20
225.2118116978524
 30
0.0
 40
7.344999999999885
100
AcDbArc
 50
59.75198538337817
 51
120.2480146166212
  0
LINE
  5
4B5
330
18
100
AcDbEntity
  8
外形線
  6
Continuous
100
AcDbLine
 10
196.2821834481275
 20
225.0568116978522
 30
0.0
 11
204.2821834481274
 21
225.0568116978522
 31
0.0
  0
LINE
  5
4B6
330
18
100
AcDbEntity
  8
外形線
  6
Continuous
100
AcDbLine
 10
196.5821834481274
 20
231.5568116978522
 30
0.0
 11
196.5821834481274
 21
225.0568116978522
 31
0.0
  0
LINE
  5
4B7
330
18
100
AcDbEntity
  8
外形線
  6
Continuous
100
AcDbLine
 10
203.9821834481274
 20
231.5568116978522
 30
0.0
 11
203.9821834481274
 21
225.0568116978522
 31
0.0
  0
POINT
  5
4B8
330
18
100
AcDbEntity
  8
DEFPOINTS
  6
ByBlock
 62
     0
100
AcDbPoint
 10
200.2821834481274
 20
232.5568116978523
 30
0.0
  0
CIRCLE
  5
4B9
330
18
100
AcDbEntity
  8
外形線
100
AcDbCircle
 10
200.2821834481274
 20
191.0568116978523
 30
0.0
 40
26.4
  0
HATCH
  5
60B
330
18
100
AcDbEntity
  8
ROGO
 62
     4
100
AcDbHatch
 10
0.0
 20
0.0
 30
0.0
210
0.0
220
0.0
230
1.0
  2
SOLID
 70
     1
 71
     1
 91
        1
 92
        7
 72
     0
 73
     1
 93
       11
 10
205.7285610333752
 20
198.8681957053293
 10
206.484644672237
 20
198.868591589833
 10
206.7514135043836
 20
199.4042949052132
 10
207.0187431773554
 20
198.868871243182
 10
207.7748102737151
 20
198.869267119024
 10
207.2627066474197
 20
199.8949385152546
 10
208.5050780417904
 20
200.9215285525415
 10
207.7490109454303
 20
200.9211326766993
 10
207.3951152092563
 20
200.6969239377779
 10
207.5067032024877
 20
200.9210058046504
 10
206.7506195636258
 20
200.9206099201465
 97
       11
330
748
330
720
330
721
330
60E
330
699
330
69D
330
6C6
330
6C7
330
610
330
60F
330
60D
 75
     0
 76
     1
 47
0.0514683685270805
 98
        1
 10
206.6860092480197
 20
200.0402799861507
450
        0
451
        0
460
0.0
461
0.0
452
        0
462
0.0
453
        0
470

  0
LINE
  5
60C
330
18
100
AcDbEntity
  8
目盛
100
AcDbLine
 10
207.401026700594
 20
169.1862362425333
 30
0.0
 11
206.4724819285332
 21
172.0389199975747
 31
0.0
  0
LINE
  5
60D
102
{ACAD_REACTORS
330
60B
102
}
330
18
100
AcDbEntity
  8
ROGO
 62
     4
100
AcDbLine
 10
207.2627066474197
 20
199.8949385152546
 30
0.0
 11
208.5050780417904
 21
200.9215285525415
 31
0.0
  0
LINE
  5
60E
102
{ACAD_REACTORS
330
60B
102
}
330
18
100
AcDbEntity
  8
ROGO
 62
     4
100
AcDbLine
 10
206.7506195636258
 20
200.9206099201465
 30
0.0
 11
207.5067032024877
 21
200.9210058046503
 31
0.0
  0
LINE
  5
60F
102
{ACAD_REACTORS
330
60B
102
}
330
18
100
AcDbEntity
  8
ROGO
 62
     4
100
AcDbLine
 10
207.2627066474197
 20
199.8949385152546
 30
0.0
 11
207.7748102737151
 21
198.8692671190241
 31
0.0
  0
LINE
  5
610
102
{ACAD_REACTORS
330
60B
102
}
330
18
100
AcDbEntity
  8
ROGO
 62
     4
100
AcDbLine
 10
207.0187431773554
 20
198.868871243182
 30
0.0
 11
207.7748102737151
 21
198.8692671190241
 31
0.0
  0
LINE
  5
611
330
18
100
AcDbEntity
  8
目盛
100
AcDbLine
 10
207.3781199883777
 20
212.9348299951469
 30
0.0
 11
206.4525630483448
 21
210.0811754346301
 31
0.0
  0
CIRCLE
  5
612
330
18
100
AcDbEntity
  8
外形線
100
AcDbCircle
 10
200.2821834481274
 20
191.0568116978523
 30
0.0
 40
15.5
  0
CIRCLE
  5
613
330
18
100
AcDbEntity
  8
外形線
100
AcDbCircle
 10
200.2821834481274
 20
191.0568116978523
 30
0.0
 40
23.0
  0
LINE
  5
614
330
18
100
AcDbEntity
  8
中心線
 48
0.5
100
AcDbLine
 10
170.3639744130296
 20
191.0411465588022
 30
0.0
 11
227.7099136011473
 21
191.07117282509
 31
0.0
  0
LINE
  5
615
330
18
100
AcDbEntity
  8
目盛
100
AcDbLine
 10
178.9017604438816
 20
182.5787510611552
 30
0.0
 11
180.7609276616422
 21
183.3159737252159
 31
0.0
  0
LINE
  5
616
330
18
100
AcDbEntity
  8
中心線
 48
0.2
100
AcDbLine
 10
197.5660585184984
 20
185.7311764140703
 30
0.0
 11
197.5679504443817
 21
182.1178644687991
 31
0.0
  0
LINE
  5
617
330
18
100
AcDbEntity
  8
中心線
 48
0.2
100
AcDbLine
 10
197.1660585733296
 20
185.7309669745696
 30
0.0
 11
197.1679504992128
 21
182.1176550292984
 31
0.0
  0
HATCH
  5
618
330
18
100
AcDbEntity
  8
ﾊｯﾁﾝｸ
100
AcDbHatch
 10
0.0
 20
0.0
 30
0.0
210
0.0
220
0.0
230
1.0
  2
SOLID
 70
     1
 71
     0
 91
        3
 92
        7
 72
     1
 73
     1
 93
        5
 10
197.5660585184984
 20
185.7311764140703
 42
0.0105298176880202
 10
197.3660563403096
 20
185.7352840878758
 42
0.0
 10
197.3663181396854
 20
185.2352841564147
 42
0.0
 10
197.3679412958156
 20
182.1352845813559
 42
-0.0437283108272093
 10
197.5679504443817
 20
182.1178644687991
 42
0.0
 97
        0
 92
        7
 72
     1
 73
     1
 93
        4
 10
197.3660563403098
 20
185.7352840878757
 42
0.0105298176880232
 10
197.1660585733296
 20
185.7309669745696
 42
0.0
 10
197.1679504992128
 20
182.1176550292984
 42
-0.0437283108272093
 10
197.3679412958156
 20
182.1352845813559
 42
0.0
 97
        0
 92
      137
 93
        4
 72
     1
 10
196.7735697805037
 20
183.7627475207365
 11
197.9402362872463
 21
183.7633583859468
 72
     1
 10
197.9402362872464
 20
183.7633583859467
 11
197.9394508891188
 21
185.26335818033
 72
     1
 10
197.9394508891189
 20
185.26335818033
 11
196.7727843823764
 21
185.2627473151197
 72
     1
 10
196.7727843823764
 20
185.2627473151198
 11
196.773569780504
 21
183.7627475207365
 97
        0
 75
     0
 76
     1
 47
0.0128177587452554
 98
        3
 10
197.5163643442148
 20
182.6691416178063
 10
197.4387634044824
 20
183.8739708389544
 10
197.259193148873
 20
183.8226056424513
450
        0
451
        0
460
0.0
461
0.0
452
        0
462
0.0
453
        0
470

  0
LINE
  5
619
330
18
100
AcDbEntity
  8
中心線
 48
0.5
100
AcDbLine
 10
200.2757345028197
 20
234.135053049826
 30
0.0
 11
200.281587936864
 21
106.4358460025746
 31
0.0
  0
CIRCLE
  5
61A
330
18
100
AcDbEntity
  8
外形線
100
AcDbCircle
 10
197.3685434343799
 20
180.9852847389953
 30
0.0
 40
4.75
  0
LINE
  5
61B
330
18
100
AcDbEntity
  8
中心線
 48
0.2
100
AcDbLine
 10
197.3644262687915
 20
188.8484910798458
 30
0.0
 11
197.3726413206357
 21
173.1588992085056
 31
0.0
  0
LINE
  5
61C
330
18
100
AcDbEntity
  8
目盛
100
AcDbLine
 10
181.681873691525
 20
177.5280099416571
 30
0.0
 11
184.1080010510816
 21
179.2926362576826
 31
0.0
  0
LINE
  5
61D
330
18
100
AcDbEntity
  8
目盛
100
AcDbLine
 10
181.2661018889885
 20
178.1189354371912
 30
0.0
 11
182.9196741984789
 21
179.2439681555096
 31
0.0
  0
LINE
  5
61E
330
18
100
AcDbEntity
  8
目盛
100
AcDbLine
 10
180.8690966631123
 20
178.7226290545856
 30
0.0
 11
182.5571911661569
 21
179.7951666757392
 31
0.0
  0
LINE
  5
61F
330
18
100
AcDbEntity
  8
目盛
100
AcDbLine
 10
182.1160017541476
 20
176.9504357401048
 30
0.0
 11
183.6956697275373
 21
178.1770771277351
 31
0.0
  0
LINE
  5
620
330
18
100
AcDbEntity
  8
目盛
100
AcDbLine
 10
180.491249810122
 20
179.338495021125
 30
0.0
 11
182.212200561253
 21
180.3574790799709
 31
0.0
  0
LINE
  5
621
330
18
100
AcDbEntity
  8
目盛
100
AcDbLine
 10
179.7945035047071
 20
180.6043014473923
 30
0.0
 11
182.4668095842836
 21
181.9676723496264
 31
0.0
  0
LINE
  5
622
330
18
100
AcDbEntity
  8
目盛
100
AcDbLine
 10
179.1786127120982
 20
181.9113591563205
 30
0.0
 11
181.0137058195792
 21
182.7066158990623
 31
0.0
  0
LINE
  5
623
330
18
100
AcDbEntity
  8
目盛
100
AcDbLine
 10
180.1329342192446
 20
179.9659255514548
 30
0.0
 11
181.885042847843
 21
180.93035043375
 31
0.0
  0
LINE
  5
624
330
18
100
AcDbEntity
  8
目盛
100
AcDbLine
 10
179.4762916567668
 20
181.2529927089999
 30
0.0
 11
181.2854996386243
 21
182.1054987080307
 31
0.0
  0
LINE
  5
625
330
18
100
AcDbEntity
  8
目盛
100
AcDbLine
 10
194.5739812528867
 20
168.7764071302005
 30
0.0
 11
195.0703466611683
 21
170.7138336143442
 31
0.0
  0
LINE
  5
626
330
18
100
AcDbEntity
  8
中心線
 48
0.2
100
AcDbLine
 10
190.4092692014129
 20
180.9816408711951
 30
0.0
 11
204.9372546579279
 21
180.9892477072871
 31
0.0
  0
LINE
  5
627
330
18
100
AcDbEntity
  8
目盛
100
AcDbLine
 10
185.0810460467135
 20
173.7962954337502
 30
0.0
 11
186.4028840816191
 21
175.2972098914983
 31
0.0
  0
LINE
  5
628
330
18
100
AcDbEntity
  8
目盛
100
AcDbLine
 10
185.6307128083294
 20
173.3273331919535
 30
0.0
 11
186.9047537335291
 21
174.8690269750751
 31
0.0
  0
LINE
  5
629
330
18
100
AcDbEntity
  8
目盛
100
AcDbLine
 10
186.1948388025728
 20
172.8758678049362
 30
0.0
 11
187.4198252934906
 21
174.4568194477985
 31
0.0
  0
LINE
  5
62A
330
18
100
AcDbEntity
  8
目盛
100
AcDbLine
 10
186.7728673051961
 20
172.4423448145293
 30
0.0
 11
188.5349520194917
 21
174.8703187558323
 31
0.0
  0
TEXT
  5
62B
330
18
100
AcDbEntity
  8
文字
100
AcDbText
 10
192.8620496260417
 20
173.2910330756178
 30
0.0
 40
2.0
  1
.9
 50
0.030000000000189
  7
STYLE3
100
AcDbText
  0
LINE
  5
62C
330
18
100
AcDbEntity
  8
目盛
100
AcDbLine
 10
188.5845982101391
 20
171.2536175211544
 30
0.0
 11
189.6017795351818
 21
172.9756344060847
 31
0.0
  0
LINE
  5
62D
330
18
100
AcDbEntity
  8
目盛
100
AcDbLine
 10
187.9683369010593
 20
171.6308192337526
 30
0.0
 11
189.0391061660218
 21
173.3200359697612
 31
0.0
  0
LINE
  5
62E
330
18
100
AcDbEntity
  8
目盛
100
AcDbLine
 10
187.3642278718524
 20
172.0271920555845
 30
0.0
 11
188.487528356746
 21
173.6819415896947
 31
0.0
  0
LINE
  5
62F
330
18
100
AcDbEntity
  8
目盛
100
AcDbLine
 10
193.8769534860519
 20
168.9667001288056
 30
0.0
 11
194.4339300044932
 21
170.8875793956793
 31
0.0
  0
LINE
  5
630
330
18
100
AcDbEntity
  8
目盛
100
AcDbLine
 10
191.8265169825686
 20
169.667522214019
 30
0.0
 11
192.5617923273999
 21
171.5274604300046
 31
0.0
  0
LINE
  5
631
330
18
100
AcDbEntity
  8
目盛
100
AcDbLine
 10
191.1588355247075
 20
169.943675439394
 30
0.0
 11
191.952170126744
 21
171.7796003314339
 31
0.0
  0
LINE
  5
632
330
18
100
AcDbEntity
  8
目盛
100
AcDbLine
 10
189.851133573242
 20
170.5581971469211
 30
0.0
 11
191.2117052960532
 21
173.2319294796513
 31
0.0
  0
LINE
  5
633
330
18
100
AcDbEntity
  8
目盛
100
AcDbLine
 10
190.5001577097723
 20
170.2406647812361
 30
0.0
 11
191.3507686435423
 21
172.050764513116
 31
0.0
  0
LINE
  5
634
330
18
100
AcDbEntity
  8
目盛
100
AcDbLine
 10
189.2124036235829
 20
170.8959591703401
 30
0.0
 11
190.1749931735433
 21
172.6490767814281
 31
0.0
  0
LINE
  5
635
330
18
100
AcDbEntity
  8
目盛
100
AcDbLine
 10
192.5025431623656
 20
169.4124776350045
 30
0.0
 11
193.179033621997
 21
171.2945936404696
 31
0.0
  0
LINE
  5
636
330
18
100
AcDbEntity
  8
目盛
100
AcDbLine
 10
193.1862469078777
 20
169.178793400558
 30
0.0
 11
194.1118038479104
 21
172.0324479610745
 31
0.0
  0
TEXT
  5
637
330
18
100
AcDbEntity
  8
文字
100
AcDbText
 10
187.6435182583307
 20
175.8942708984299
 30
0.0
 40
2.0
  1
.8
 50
0.030000000000189
  7
STYLE3
100
AcDbText
  0
LINE
  5
638
330
18
100
AcDbEntity
  8
目盛
100
AcDbLine
 10
184.0272452354384
 20
174.7848424346787
 30
0.0
 11
186.1474545675284
 21
176.9072732081363
 31
0.0
  0
LINE
  5
639
330
18
100
AcDbEntity
  8
目盛
100
AcDbLine
 10
183.0375952391141
 20
175.8376074643334
 30
0.0
 11
184.5371246485936
 21
177.1610165281176
 31
0.0
  0
LINE
  5
63A
330
18
100
AcDbEntity
  8
目盛
100
AcDbLine
 10
184.5463809724576
 20
174.2822917212121
 30
0.0
 11
185.9147116225159
 21
175.7409456322243
 31
0.0
  0
LINE
  5
63B
330
18
100
AcDbEntity
  8
目盛
100
AcDbLine
 10
183.5241511599534
 20
175.3034516172694
 30
0.0
 11
184.981371358925
 21
176.6733090155808
 31
0.0
  0
LINE
  5
63C
330
18
100
AcDbEntity
  8
目盛
100
AcDbLine
 10
182.5680576448733
 20
176.386782828539
 30
0.0
 11
184.1084164103736
 21
177.6624375128271
 31
0.0
  0
TEXT
  5
63D
330
18
100
AcDbEntity
  8
文字
100
AcDbText
 10
184.0899681877191
 20
179.5358231530782
 30
0.0
 40
2.0
  1
.7
 50
0.030000000000189
  7
STYLE3
100
AcDbText
  0
LINE
  5
63E
330
18
100
AcDbEntity
  8
目盛
100
AcDbLine
 10
194.5785759700789
 20
177.1409926652656
 30
0.0
 11
194.8722567557948
 21
177.5456549888163
 31
0.0
  0
LINE
  5
63F
330
18
100
AcDbEntity
  8
目盛
100
AcDbLine
 10
192.8517941555641
 20
179.5150888498992
 30
0.0
 11
193.3272414480709
 21
179.6698463119092
 31
0.0
  0
TEXT
  5
640
330
18
100
AcDbEntity
  8
文字
100
AcDbText
 10
193.9397920567112
 20
179.6562704253381
 30
0.0
 40
0.7
  1
4
 50
0.030000000000189
  7
STYLE3
100
AcDbText
  0
LINE
  5
641
330
18
100
AcDbEntity
  8
目盛
100
AcDbLine
 10
192.8502570468954
 20
182.450749894047
 30
0.0
 11
193.3258661403152
 21
182.2964904040416
 31
0.0
  0
TEXT
  5
642
330
18
100
AcDbEntity
  8
文字
100
AcDbText
 10
194.012766045144
 20
181.7754725251885
 30
0.0
 40
0.7
  1
6
 50
0.030000000000189
  7
STYLE3
100
AcDbText
  0
TEXT
  5
643
330
18
100
AcDbEntity
  8
文字
100
AcDbText
 10
204.0818209202031
 20
172.9184316594828
 30
0.0
 40
2.0
  1
.1
 50
0.030000000000189
  7
STYLE3
100
AcDbText
  0
TEXT
  5
644
330
18
100
AcDbEntity
  8
文字
100
AcDbText
 10
199.3581260930492
 20
171.6156778307306
 30
0.0
 40
2.0
  1
0
 50
0.030000000000189
  7
STYLE3
100
AcDbText
  0
LINE
  5
645
330
18
100
AcDbEntity
  8
目盛
100
AcDbLine
 10
198.1296818635485
 20
168.1577563258858
 30
0.0
 11
198.3168559143815
 21
170.1489785321439
 31
0.0
  0
LINE
  5
646
330
18
100
AcDbEntity
  8
目盛
100
AcDbLine
 10
198.8500207045492
 20
168.1014439187054
 30
0.0
 11
198.9745565952951
 21
170.0975628560223
 31
0.0
  0
LINE
  5
647
330
18
100
AcDbEntity
  8
目盛
100
AcDbLine
 10
196.6960857501972
 20
168.3380990736542
 30
0.0
 11
197.1638376238402
 21
171.3014094159409
 31
0.0
  0
LINE
  5
648
330
18
100
AcDbEntity
  8
目盛
100
AcDbLine
 10
195.2766423261272
 20
168.6081022009577
 30
0.0
 11
195.7119067715187
 21
170.5601638963399
 31
0.0
  0
LINE
  5
649
330
18
100
AcDbEntity
  8
目盛
100
AcDbLine
 10
195.9842432641301
 20
168.461951437723
 30
0.0
 11
196.3579771931734
 21
170.4267218951253
 31
0.0
  0
LINE
  5
64A
330
18
100
AcDbEntity
  8
目盛
100
AcDbLine
 10
197.4114672817379
 20
168.2366673360822
 30
0.0
 11
197.6610947744675
 21
170.2210277153666
 31
0.0
  0
LINE
  5
64B
330
18
100
AcDbEntity
  8
目盛
100
AcDbLine
 10
201.0166676368007
 20
168.0685422332626
 30
0.0
 11
200.9527994464813
 21
170.0675221867053
 31
0.0
  0
LINE
  5
64C
330
18
100
AcDbEntity
  8
目盛
100
AcDbLine
 10
199.5717729172698
 20
168.0677856880875
 30
0.0
 11
199.63354774604
 21
170.0668314280671
 31
0.0
  0
LINE
  5
64D
330
18
100
AcDbEntity
  8
目盛
100
AcDbLine
 10
200.2926554231612
 20
171.0568144394091
 30
0.0
 11
200.2942262194163
 21
168.0568148506426
 31
0.0
  0
LINE
  5
64E
330
18
100
AcDbEntity
  8
目盛
100
AcDbLine
 10
203.8920701556377
 20
168.3418668826223
 30
0.0
 11
203.4212153677017
 21
171.3046857715654
 31
0.0
  0
LINE
  5
64F
330
18
100
AcDbEntity
  8
目盛
100
AcDbLine
 10
203.1767952353972
 20
168.2396860550156
 30
0.0
 11
202.9250898625911
 21
170.2237839370014
 31
0.0
  0
LINE
  5
650
330
18
100
AcDbEntity
  8
目盛
100
AcDbLine
 10
204.6037825535257
 20
168.4664646183535
 30
0.0
 11
204.2279913269692
 21
170.4308426252666
 31
0.0
  0
LINE
  5
651
330
18
100
AcDbEntity
  8
目盛
100
AcDbLine
 10
202.4586636827926
 20
168.1600229756731
 30
0.0
 11
202.2694045319522
 21
170.1510480819496
 31
0.0
  0
LINE
  5
652
330
18
100
AcDbEntity
  8
目盛
100
AcDbLine
 10
206.7105426046556
 20
168.9734197809686
 30
0.0
 11
206.151554851914
 21
170.8937147302629
 31
0.0
  0
LINE
  5
653
330
18
100
AcDbEntity
  8
目盛
100
AcDbLine
 10
205.3112300548486
 20
168.6133562992863
 30
0.0
 11
204.8739216542642
 21
170.5649611165529
 31
0.0
  0
LINE
  5
654
330
18
100
AcDbEntity
  8
目盛
100
AcDbLine
 10
206.0137144943358
 20
168.7823969610664
 30
0.0
 11
205.5153204903176
 21
170.7193025903521
 31
0.0
  0
LINE
  5
655
330
18
100
AcDbEntity
  8
目盛
100
AcDbLine
 10
201.7383842069667
 20
168.1029562624367
 30
0.0
 11
201.6117580540242
 21
170.0989436916034
 31
0.0
  0
LINE
  5
656
330
18
100
AcDbEntity
  8
目盛
100
AcDbLine
 10
200.1625351014205
 20
177.1439164196972
 30
0.0
 11
199.8684307154163
 21
177.5482709796233
 31
0.0
  0
TEXT
  5
657
330
18
100
AcDbEntity
  8
文字
100
AcDbText
 10
200.2626636230958
 20
181.6705037550513
 30
0.0
 40
0.7
  1
4
 50
0.030000000000189
  7
STYLE3
100
AcDbText
  0
TEXT
  5
658
330
18
100
AcDbEntity
  8
文字
100
AcDbText
 10
197.0376410349825
 20
177.3316148616977
 30
0.0
 40
0.7
  1
0
 50
0.030000000000189
  7
STYLE3
100
AcDbText
  0
TEXT
  5
659
330
18
100
AcDbEntity
  8
文字
100
AcDbText
 10
195.1173759221566
 20
177.9126670920404
 30
0.0
 40
0.7
  1
2
 50
0.030000000000189
  7
STYLE3
100
AcDbText
  0
CIRCLE
  5
65A
330
18
100
AcDbEntity
  8
外形線
100
AcDbCircle
 10
197.3685434343799
 20
180.9852847389953
 30
0.0
 40
1.149999999999999
  0
LINE
  5
65B
330
18
100
AcDbEntity
  8
目盛
100
AcDbLine
 10
197.3710305284505
 20
176.2352853901151
 30
0.0
 11
197.3707687290748
 21
176.7352853215761
 31
0.0
  0
TEXT
  5
65C
330
18
100
AcDbEntity
  8
文字
100
AcDbText
 10
198.9386764497352
 20
178.0069507070392
 30
0.0
 40
0.7
  1
8
 50
0.030000000000189
  7
STYLE3
100
AcDbText
  0
TEXT
  5
65D
330
18
100
AcDbEntity
  8
文字
100
AcDbText
 10
200.2671256388198
 20
179.4626123722412
 30
0.0
 40
0.7
  1
6
 50
0.030000000000189
  7
STYLE3
100
AcDbText
  0
LINE
  5
65E
330
18
100
AcDbEntity
  8
目盛
100
AcDbLine
 10
201.8868298218648
 20
179.5198195839441
 30
0.0
 11
201.4112207284454
 21
179.6740790739493
 31
0.0
  0
LINE
  5
65F
330
18
100
AcDbEntity
  8
目盛
100
AcDbLine
 10
201.8852927131959
 20
182.4554806280918
 30
0.0
 11
201.4098454206892
 21
182.3007231660816
 31
0.0
  0
TEXT
  5
660
330
18
100
AcDbEntity
  8
文字
100
AcDbText
 10
181.6873247373521
 20
195.706212083168
 30
0.0
 40
2.0
  1
.4
 50
0.030000000000189
  7
STYLE3
100
AcDbText
  0
LINE
  5
661
330
18
100
AcDbEntity
  8
目盛
100
AcDbLine
 10
181.2525638058596
 20
203.9747672741273
 30
0.0
 11
182.90731333997
 21
202.8514667892338
 31
0.0
  0
LINE
  5
662
330
18
100
AcDbEntity
  8
目盛
100
AcDbLine
 10
182.1012395552115
 20
205.1441563434071
 30
0.0
 11
183.6821911980738
 21
203.9191698524892
 31
0.0
  0
LINE
  5
663
330
18
100
AcDbEntity
  8
目盛
100
AcDbLine
 10
180.8561909840279
 20
203.3706582449203
 30
0.0
 11
182.5454077200366
 21
202.2998889799581
 31
0.0
  0
LINE
  5
664
330
18
100
AcDbEntity
  8
目盛
100
AcDbLine
 10
181.6677165648044
 20
204.5661278407838
 30
0.0
 11
184.0956905061075
 21
202.8040431264885
 31
0.0
  0
TEXT
  5
665
330
18
100
AcDbEntity
  8
文字
100
AcDbText
 10
181.4942061780756
 20
185.0877316809291
 30
0.0
 40
2.0
  1
.6
 50
0.030000000000189
  7
STYLE3
100
AcDbText
  0
TEXT
  5
666
330
18
100
AcDbEntity
  8
文字
100
AcDbText
 10
180.4545139733049
 20
190.1428523985665
 30
0.0
 40
2.0
  1
.5
 50
0.030000000000189
  7
STYLE3
100
AcDbText
  0
LINE
  5
667
330
18
100
AcDbEntity
  8
目盛
100
AcDbLine
 10
179.7835688971962
 20
201.4878615727378
 30
0.0
 11
182.4573012299264
 21
200.1272898499268
 31
0.0
  0
LINE
  5
668
330
18
100
AcDbEntity
  8
目盛
100
AcDbLine
 10
179.4660365315114
 20
200.8388374362078
 30
0.0
 11
181.2761362633909
 21
199.9882265024377
 31
0.0
  0
LINE
  5
669
330
18
100
AcDbEntity
  8
目盛
100
AcDbLine
 10
177.5672386328976
 20
187.446924990342
 30
0.0
 11
180.5300575218406
 21
187.9177797782782
 31
0.0
  0
LINE
  5
66A
330
18
100
AcDbEntity
  8
目盛
100
AcDbLine
 10
177.3853947259481
 20
188.8803314631872
 30
0.0
 11
179.3764198322248
 21
189.0695906140276
 31
0.0
  0
LINE
  5
66B
330
18
100
AcDbEntity
  8
目盛
100
AcDbLine
 10
177.3283280127118
 20
189.6006109390133
 30
0.0
 11
179.3243154418784
 21
189.7272370919556
 31
0.0
  0
LINE
  5
66C
330
18
100
AcDbEntity
  8
目盛
100
AcDbLine
 10
177.4650578052909
 20
188.1621999105828
 30
0.0
 11
179.4491556872768
 21
188.4139052833888
 31
0.0
  0
LINE
  5
66D
330
18
100
AcDbEntity
  8
目盛
100
AcDbLine
 10
177.2939139835377
 20
190.3223275091792
 30
0.0
 11
179.2928939369804
 21
190.3861956994986
 31
0.0
  0
LINE
  5
66E
330
18
100
AcDbEntity
  8
目盛
100
AcDbLine
 10
178.64600807188
 20
183.2545097882702
 30
0.0
 11
180.5274146263364
 21
183.9329708238859
 31
0.0
  0
LINE
  5
66F
330
18
100
AcDbEntity
  8
目盛
100
AcDbLine
 10
178.1987915312438
 20
184.6284525413242
 30
0.0
 11
180.1190864805382
 21
185.1874402940658
 31
0.0
  0
LINE
  5
670
330
18
100
AcDbEntity
  8
目盛
100
AcDbLine
 10
178.4116079928083
 20
183.9379684453861
 30
0.0
 11
181.2642917478499
 21
184.8665132174469
 31
0.0
  0
LINE
  5
671
330
18
100
AcDbEntity
  8
目盛
100
AcDbLine
 10
177.8387280495613
 20
186.0277650911312
 30
0.0
 11
179.790332866828
 21
186.4650734917157
 31
0.0
  0
LINE
  5
672
330
18
100
AcDbEntity
  8
目盛
100
AcDbLine
 10
178.0077687113414
 20
185.3252806516443
 30
0.0
 11
179.9446743406273
 21
185.8236746556625
 31
0.0
  0
LINE
  5
673
330
18
100
AcDbEntity
  8
目盛
100
AcDbLine
 10
177.6918363686286
 20
186.7352125924544
 30
0.0
 11
179.6562143755416
 21
187.111003819011
 31
0.0
  0
LINE
  5
674
330
18
100
AcDbEntity
  8
目盛
100
AcDbLine
 10
177.2931574383625
 20
191.7672222287101
 30
0.0
 11
179.2922031783422
 21
191.7054473999398
 31
0.0
  0
LINE
  5
675
330
18
100
AcDbEntity
  8
目盛
100
AcDbLine
 10
177.2821866009179
 20
191.0447689265639
 30
0.0
 11
180.2821861896844
 21
191.0463397228189
 31
0.0
  0
LINE
  5
676
330
18
100
AcDbEntity
  8
目盛
100
AcDbLine
 10
178.8928939642943
 20
199.5124781634113
 30
0.0
 11
180.7528321802797
 21
198.7772028185801
 31
0.0
  0
LINE
  5
677
330
18
100
AcDbEntity
  8
目盛
100
AcDbLine
 10
178.6378493852798
 20
198.8364519836143
 30
0.0
 11
180.5199653907448
 21
198.1599615239828
 31
0.0
  0
LINE
  5
678
330
18
100
AcDbEntity
  8
目盛
100
AcDbLine
 10
178.404165150833
 20
198.1527482381021
 30
0.0
 11
181.2578197113497
 21
197.2271912980696
 31
0.0
  0
LINE
  5
679
330
18
100
AcDbEntity
  8
目盛
100
AcDbLine
 10
179.1690471896691
 20
200.1801596212723
 30
0.0
 11
181.0049720817091
 21
199.3868250192358
 31
0.0
  0
LINE
  5
67A
330
18
100
AcDbEntity
  8
目盛
100
AcDbLine
 10
177.6873231879981
 20
195.3547518818498
 30
0.0
 11
179.6520936454007
 21
194.9810179528066
 31
0.0
  0
LINE
  5
67B
330
18
100
AcDbEntity
  8
目盛
100
AcDbLine
 10
177.4620390863574
 20
193.927527864242
 30
0.0
 11
179.4463994656419
 21
193.6779003715125
 31
0.0
  0
LINE
  5
67C
330
18
100
AcDbEntity
  8
目盛
100
AcDbLine
 10
177.8334739512329
 20
196.0623528198524
 30
0.0
 11
179.7855356466151
 21
195.627088374461
 31
0.0
  0
LINE
  5
67D
330
18
100
AcDbEntity
  8
目盛
100
AcDbLine
 10
178.0017788804757
 20
196.7650138930938
 30
0.0
 11
179.9392053646194
 21
196.2686484848117
 31
0.0
  0
LINE
  5
67E
330
18
100
AcDbEntity
  8
目盛
100
AcDbLine
 10
177.3831280761609
 20
193.2093132824313
 30
0.0
 11
179.374350282419
 21
193.0221392315983
 31
0.0
  0
LINE
  5
67F
330
18
100
AcDbEntity
  8
目盛
100
AcDbLine
 10
177.5634708239293
 20
194.6429093957826
 30
0.0
 11
180.5267811662161
 21
194.1751575221395
 31
0.0
  0
LINE
  5
680
330
18
100
AcDbEntity
  8
目盛
100
AcDbLine
 10
177.3268156689803
 20
192.4889744414309
 30
0.0
 11
179.3229346062975
 21
192.3644385506851
 31
0.0
  0
LINE
  5
681
330
18
100
AcDbEntity
  8
目盛
100
AcDbLine
 10
178.1920718790808
 20
197.4620416599279
 30
0.0
 11
180.1129511459545
 21
196.9050651414865
 31
0.0
  0
LINE
  5
682
330
18
100
AcDbEntity
  8
目盛
100
AcDbLine
 10
180.1213309206151
 20
202.126591522397
 30
0.0
 11
181.8744485317033
 21
201.1640019724368
 31
0.0
  0
LINE
  5
683
330
18
100
AcDbEntity
  8
目盛
100
AcDbLine
 10
180.4789892714295
 20
202.7543969358405
 30
0.0
 11
182.2010061563599
 21
201.7372156107981
 31
0.0
  0
HATCH
  5
684
330
18
100
AcDbEntity
  8
ROGO
 62
     4
100
AcDbHatch
 10
0.0
 20
0.0
 30
0.0
210
0.0
220
0.0
230
1.0
  2
SOLID
 70
     1
 71
     1
 91
        1
 92
        5
 93
        8
 72
     1
 10
202.0011598314034
 20
200.4295479894288
 11
202.2445232812619
 21
200.9182505334347
 72
     1
 10
202.2445232812619
 20
200.9182505334347
 11
200.929487119418
 21
200.9175619820474
 72
     4
 94
        3
 73
     0
 74
     0
 95
       26
 96
       22
 40
0.0
 40
0.0
 40
0.0
 40
0.0
 40
0.2382195346592966
 40
0.3976890672662761
 40
0.5126795869788562
 40
0.5985392873135624
 40
0.7099038249249598
 40
0.7911890807496702
 40
0.9379713068542432
 40
1.057449928672889
 40
1.138714535892955
 40
1.218398644003332
 40
1.360938021870216
 40
1.461730374800158
 40
1.516014844107795
 40
1.593124329220225
 40
1.648806818593587
 40
1.729472362005593
 40
1.77512208216407
 40
1.87446099376512
 40
1.919820003751054
 40
1.919820003751054
 40
1.919820003751054
 40
1.919820003751054
 10
200.9294871194179
 20
200.9175619820474
 10
200.8486342655682
 20
200.9126956756619
 10
200.713656686675
 20
200.9045717539596
 10
200.5654946387565
 20
200.8144586602858
 10
200.4569353157962
 20
200.7620591262341
 10
200.3795286488775
 20
200.6908631650213
 10
200.3228004224368
 20
200.6173350995924
 10
200.2512811805316
 20
200.5297248920715
 10
200.1929752845665
 20
200.4277194277301
 10
200.1633152955394
 20
200.3153097413249
 10
200.1370375338329
 20
200.2257171874815
 10
200.1175669891863
 20
200.1258831161512
 10
200.1225906127669
 20
200.0180408436091
 10
200.1297562517517
 20
199.9178837707954
 10
200.161552374541
 20
199.8464005864806
 10
200.1977465446918
 20
199.7955165837979
 10
200.2420625294921
 20
199.7394758272118
 10
200.2905412288986
 20
199.7023702311816
 10
200.330656210519
 20
199.6351259709777
 10
200.4008189754906
 20
199.6265791752662
 10
200.4454233085046
 20
199.6095187378238
 10
200.459405599089
 20
199.6041707373562
 72
     1
 10
200.4594055990892
 20
199.604170737356
 11
201.5904344590544
 21
199.6047629427363
 72
     1
 10
201.5904344590544
 20
199.6047629427363
 11
201.8337953317602
 21
200.0934603115157
 72
     1
 10
201.8337953317602
 20
200.0934603115157
 11
200.99411442599
 21
200.0930206555812
 72
     4
 94
        3
 73
     0
 74
     0
 95
       16
 96
       12
 40
0.0
 40
0.0
 40
0.0
 40
0.0
 40
0.0719416665236027
 40
0.1446253590761814
 40
0.1879779149915233
 40
0.2295440936106642
 40
0.2751936323960518
 40
0.3070718656053966
 40
0.3373215422374103
 40
0.3986635435216224
 40
0.5242542460843575
 40
0.5242542460843575
 40
0.5242542460843575
 40
0.5242542460843575
 10
200.99411442599
 20
200.0930206555811
 10
200.968782789041
 20
200.100459185076
 10
200.9178582377095
 20
200.1154129670937
 10
200.9135588968679
 20
200.1880304150558
 10
200.9193372302225
 20
200.2397809186371
 10
200.9436306500894
 20
200.2774688245234
 10
200.9731123601534
 20
200.3048979159055
 10
200.9840763593798
 20
200.3406056557188
 10
201.0163448681325
 20
200.3675820274843
 10
201.0735668847432
 20
200.4129271020518
 10
201.1368657139703
 20
200.4226113518528
 10
201.1793930206984
 20
200.4291177132934
 72
     1
 10
201.1793930206988
 20
200.4291177132936
 11
202.0011598314034
 21
200.4295479894288
 97
        8
330
6E8
330
693
330
6B0
330
6CC
330
6AF
330
6AE
330
6CD
330
68B
 75
     0
 76
     1
 47
0.0514683685270805
 98
        1
 10
201.38955701273
 20
200.6254813776846
450
        0
451
        0
460
0.0
461
0.0
452
        0
462
0.0
453
        0
470

  0
HATCH
  5
685
330
18
100
AcDbEntity
  8
ROGO
 62
     4
100
AcDbHatch
 10
0.0
 20
0.0
 30
0.0
210
0.0
220
0.0
230
1.0
  2
SOLID
 70
     1
 71
     1
 91
        1
 92
        1
 93
       12
 72
     1
 10
196.1747673034348
 20
200.9150724163459
 11
197.9508502084573
 21
200.9160023712653
 72
     1
 10
197.950850208457
 20
200.9160023712653
 11
197.8021735328492
 21
200.6151221524074
 72
     1
 10
197.8021735328492
 20
200.6151221524074
 11
196.8687092385887
 21
200.6146333916015
 72
     1
 10
196.8687092385887
 20
200.6146333916015
 11
196.7524625536771
 21
200.3793824495505
 72
     1
 10
196.7524625536771
 20
200.3793824495505
 11
197.6859268479376
 21
200.3798712103565
 72
     1
 10
197.6859268479376
 20
200.3798712103565
 11
197.5667267625505
 21
200.1386434075926
 72
     1
 10
197.5667267625505
 20
200.1386434075926
 11
196.6332624682898
 21
200.1381546467862
 72
     1
 10
196.6332624682898
 20
200.1381546467862
 11
196.5170108620522
 21
199.9028937453412
 72
     1
 10
196.5170108620523
 20
199.9028937453413
 11
197.4504751563129
 21
199.9033825061476
 72
     1
 10
197.4504751563129
 20
199.9033825061476
 11
197.3018059593075
 21
199.6025174218996
 72
     1
 10
197.3018059593075
 20
199.6025174218996
 11
195.5257230542851
 21
199.6015874669802
 72
     1
 10
195.5257230542851
 20
199.6015874669802
 11
196.1747673034348
 21
200.9150724163459
 97
       12
330
6EA
330
68F
330
6B7
330
6B6
330
6B8
330
6B5
330
6BB
330
6BD
330
6BA
330
6BC
330
6B9
330
68E
 75
     0
 76
     1
 98
        1
 10
123.5721900531937
 20
110.0789492977989
450
        0
451
        0
460
0.0
461
0.0
452
        0
462
0.0
453
        0
470

  0
HATCH
  5
686
330
18
100
AcDbEntity
  8
ROGO
 62
     4
100
AcDbHatch
 10
0.0
 20
0.0
 30
0.0
210
0.0
220
0.0
230
1.0
  2
SOLID
 70
     1
 71
     1
 91
        2
 92
        7
 72
     0
 73
     1
 93
        8
 10
199.5157477419135
 20
200.9168217497728
 10
198.4653444031292
 20
200.9162717598205
 10
197.5190977638802
 20
199.6026311956327
 10
198.2463449158821
 20
199.6030119813859
 10
198.4265044213799
 20
199.8531210170534
 10
199.2563812964067
 20
199.8535555396086
 10
199.3675786116201
 20
199.6035990580297
 10
200.0997862333787
 20
199.6039824410792
 97
        8
330
6E9
330
690
330
6BF
330
6BE
330
6B1
330
6C0
330
6C1
330
692
 92
       22
 72
     0
 73
     1
 93
        3
 10
198.9396559826306
 20
200.5655110837381
 10
199.1390981349143
 20
200.1171921781267
 10
198.6165240845091
 20
200.1169185589686
 97
        3
330
6B3
330
6B2
330
6B4
 75
     0
 76
     1
 47
0.0128389261915577
 98
        2
 10
199.4336578162474
 20
200.6017368075899
 10
199.4336578162474
 20
200.6017368075899
450
        0
451
        0
460
0.0
461
0.0
452
        0
462
0.0
453
        0
470

  0
HATCH
  5
687
330
18
100
AcDbEntity
  8
ROGO
 62
     4
100
AcDbHatch
 10
0.0
 20
0.0
 30
0.0
210
0.0
220
0.0
230
1.0
  2
SOLID
 70
     1
 71
     1
 91
        2
 92
        5
 93
        6
 72
     1
 10
192.5954693091115
 20
198.8613192339542
 11
193.549270134303
 21
198.8618186429441
 72
     1
 10
193.549270134303
 20
198.8618186429441
 11
193.8831074391928
 21
199.6007273953768
 72
     1
 10
193.8831074391928
 20
199.6007273953768
 11
194.7747155851454
 21
199.6011942403529
 72
     4
 94
        3
 73
     0
 74
     0
 95
       18
 96
       14
 40
0.108740278791501
 40
0.108740278791501
 40
0.108740278791501
 40
0.108740278791501
 40
0.6623149649549278
 40
1.384304701649787
 40
2.097394834876493
 40
2.774073369849618
 40
3.428974823686337
 40
4.005208313035923
 40
4.455173659284313
 40
4.720999734343524
 40
5.086034088486724
 40
5.569973738255373
 40
6.060470601257719
 40
6.060470601257719
 40
6.060470601257719
 40
6.060470601257719
 10
194.7747155851455
 20
199.601194240353
 10
194.8374652487715
 20
199.6016943756981
 10
194.9820550222354
 20
199.6028468034893
 10
195.1842791910479
 20
199.7110155391349
 10
195.3760270570539
 20
199.8487801373043
 10
195.5304349175264
 20
200.0208580394572
 10
195.6265888099651
 20
200.2175575499992
 10
195.6414000102403
 20
200.4060354665331
 10
195.6322198361665
 20
200.5551082143963
 10
195.567126229004
 20
200.6589848880069
 10
195.4994548262637
 20
200.764408246969
 10
195.375421775757
 20
200.8556956257236
 10
195.2738128843249
 20
200.8956683202293
 10
195.222143440813
 20
200.9145736236123
 72
     1
 10
195.2221434408131
 20
200.9145736236123
 11
193.6096453488656
 21
200.9137293215085
 72
     1
 10
193.6096453488656
 20
200.9137293215085
 11
192.5954693091115
 21
198.8613192339542
 97
        6
330
691
330
6CF
330
68D
330
69D
330
6A0
330
6A5
 92
       20
 93
        4
 72
     1
 10
194.0892330760357
 20
200.0569617195014
 11
194.2470479986969
 21
200.4062660839649
 72
     1
 10
194.2470479986969
 20
200.4062660839649
 11
194.6530349421425
 21
200.4064786582509
 72
     4
 94
        3
 73
     0
 74
     0
 95
       15
 96
       11
 40
0.0
 40
0.0
 40
0.0
 40
0.0
 40
0.1539705029172671
 40
0.2241725832585841
 40
0.3038566179395799
 40
0.3581410872475101
 40
0.4439925384670307
 40
0.4954152125468173
 40
0.5836396705645014
 40
0.6130478420064005
 40
0.6130478420064005
 40
0.6130478420064005
 40
0.6130478420064005
 10
194.6530349421425
 20
200.4064786582509
 10
194.7108631305814
 20
200.4067738217011
 10
194.7950577921684
 20
200.4072035634494
 10
194.8411530746675
 20
200.3030783806793
 10
194.8205505256509
 20
200.2360116793792
 10
194.7946433532085
 20
200.1671525907294
 10
194.7488203027195
 20
200.1203470261523
 10
194.6873097741519
 20
200.0752562794979
 10
194.6291599450564
 20
200.0697712943088
 10
194.5913433985097
 20
200.0597299987816
 10
194.5818892573476
 20
200.0572196736982
 72
     1
 10
194.5818892573474
 20
200.0572196736981
 11
194.0892330760357
 21
200.0569617195014
 97
        4
330
6A1
330
6A2
330
6A4
330
6A3
 75
     0
 76
     1
 47
0.0514683685270805
 98
        2
 10
193.6185980558277
 20
200.2755451647649
 10
193.6185980558277
 20
200.2755451647649
450
        0
451
        0
460
0.0
461
0.0
452
        0
462
0.0
453
        0
470

  0
HATCH
  5
688
330
18
100
AcDbEntity
  8
ROGO
 62
     4
100
AcDbHatch
 10
0.0
 20
0.0
 30
0.0
210
0.0
220
0.0
230
1.0
  2
SOLID
 70
     1
 71
     1
 91
        1
 92
        5
 93
        8
 72
     4
 94
        3
 73
     0
 74
     0
 95
       26
 96
       22
 40
0.0
 40
0.0
 40
0.0
 40
0.0
 40
0.2382195346592879
 40
0.3976890672661911
 40
0.5126795869788559
 40
0.5985392873137131
 40
0.70990382492546
 40
0.7911890807496769
 40
0.9379713068547026
 40
1.057449928673491
 40
1.138714535893203
 40
1.218398644003503
 40
1.360938021870501
 40
1.461730374800499
 40
1.51601484410804
 40
1.593124329220533
 40
1.648806818593778
 40
1.729472362005382
 40
1.775122082164321
 40
1.874460993765244
 40
1.919820003751165
 40
1.919820003751165
 40
1.919820003751165
 40
1.919820003751165
 10
205.1605563103599
 20
200.9197773648979
 10
205.0797034565101
 20
200.9149110585125
 10
204.9447258776169
 20
200.9067871368105
 10
204.7965638296988
 20
200.8166740431357
 10
204.6880045067381
 20
200.7642745090848
 10
204.6105978398194
 20
200.6930785478715
 10
204.5538696133792
 20
200.6195504824423
 10
204.482350371473
 20
200.5319402749219
 10
204.4240444755086
 20
200.4299348105802
 10
204.3943844864813
 20
200.3175251241749
 10
204.3681067247745
 20
200.2279325703317
 10
204.3486361801281
 20
200.1280984990014
 10
204.3536598037089
 20
200.0202562264593
 10
204.3608254426938
 20
199.9200991536458
 10
204.3926215654828
 20
199.8486159693308
 10
204.4288157356338
 20
199.7977319666482
 10
204.4731317204341
 20
199.7416912100623
 10
204.5216104198402
 20
199.7045856140318
 10
204.5617254014609
 20
199.6373413538282
 10
204.6318881664326
 20
199.6287945581167
 10
204.6764924994463
 20
199.611734120674
 10
204.6904747900308
 20
199.6063861202063
 72
     1
 10
204.6904747900307
 20
199.6063861202063
 11
205.8215036499962
 21
199.6069783255866
 72
     1
 10
205.8215036499962
 20
199.6069783255866
 11
206.0648645227022
 21
200.095675694366
 72
     1
 10
206.0648645227022
 20
200.095675694366
 11
205.2251836169319
 21
200.0952360384317
 72
     4
 94
        3
 73
     0
 74
     0
 95
       16
 96
       12
 40
0.0
 40
0.0
 40
0.0
 40
0.0
 40
0.071941666523247
 40
0.1446253590759596
 40
0.1879779149910399
 40
0.2295440936104245
 40
0.2751936323957943
 40
0.3070718656050375
 40
0.3373215422371718
 40
0.398663543521331
 40
0.524254246084081
 40
0.524254246084081
 40
0.524254246084081
 40
0.524254246084081
 10
205.2251836169319
 20
200.0952360384315
 10
205.199851979983
 20
200.1026745679263
 10
205.1489274286516
 20
200.117628349944
 10
205.1446280878101
 20
200.190245797906
 10
205.1504064211644
 20
200.2419963014873
 10
205.1746998410312
 20
200.2796842073738
 10
205.2041815510954
 20
200.3071132987558
 10
205.2151455503216
 20
200.3428210385692
 10
205.2474140590744
 20
200.3697974103344
 10
205.3046360756848
 20
200.4151424849027
 10
205.367934904912
 20
200.4248267347035
 10
205.4104622116402
 20
200.431333096144
 72
     1
 10
205.4104622116402
 20
200.431333096144
 11
206.2322290223452
 21
200.4317633722792
 72
     1
 10
206.2322290223452
 20
200.4317633722792
 11
206.4755924722038
 21
200.920465916285
 72
     1
 10
206.4755924722038
 20
200.920465916285
 11
205.1605563103596
 21
200.9197773648978
 97
        8
330
6EB
330
697
330
6CE
330
6C3
330
6C4
330
6C2
330
6C5
330
68A
 75
     0
 76
     1
 47
0.0514683685270805
 98
        1
 10
205.3875996037056
 20
200.6794549083608
450
        0
451
        0
460
0.0
461
0.0
452
        0
462
0.0
453
        0
470

  0
HATCH
  5
689
330
18
100
AcDbEntity
  8
ROGO
 62
     4
100
AcDbHatch
 10
0.0
 20
0.0
 30
0.0
210
0.0
220
0.0
230
1.0
  2
SOLID
 70
     1
 71
     1
 91
        2
 92
        5
 93
        6
 72
     4
 94
        3
 73
     0
 74
     0
 95
       38
 96
       34
 40
0.0
 40
0.0
 40
0.0
 40
0.0
 40
0.1807680148265105
 40
0.2375392910068721
 40
0.310486520960507
 40
0.3712759982446107
 40
0.4225667543871455
 40
0.4906925837206445
 40
0.5255021974951799
 40
0.5647069597053689
 40
0.6224874016816804
 40
0.6879401044674854
 40
0.7303986317548253
 40
0.7765228362185615
 40
0.8277951442289925
 40
0.905603469699754
 40
0.9795294930262913
 40
1.013897332332832
 40
1.053089255535794
 40
1.099518741889448
 40
1.132570569820421
 40
1.160277520290228
 40
1.199836786293557
 40
1.243305643168955
 40
1.286774258016696
 40
1.32480935651561
 40
1.411916492917405
 40
1.446284332224154
 40
1.515020051660994
 40
1.575779369908289
 40
1.692098529535951
 40
1.835624328518863
 40
2.042896467983847
 40
2.042896467983847
 40
2.042896467983847
 40
2.042896467983847
 10
202.9737456334788
 20
200.9241095733236
 10
202.9134924728731
 20
200.9198214051553
 10
202.8343164468217
 20
200.9141865121274
 10
202.7337921104258
 20
200.8865892477218
 10
202.6790045451388
 20
200.8537460370615
 10
202.62198188097
 20
200.8295959320545
 10
202.573372682784
 20
200.7938531761903
 10
202.5241962255505
 20
200.7754226447385
 10
202.4897719936238
 20
200.7422175073302
 10
202.4499192554116
 20
200.7219245195286
 10
202.4181991181656
 20
200.6765330106681
 10
202.3827406595888
 20
200.6340905571871
 10
202.3415948313901
 20
200.6031014674575
 10
202.3078296204999
 20
200.570558804612
 10
202.2768653942899
 20
200.5203467697151
 10
202.2585587458477
 20
200.4536418005476
 10
202.2068789867741
 20
200.411505681029
 10
202.199120821931
 20
200.3608739642469
 10
202.1705386152677
 20
200.330989534352
 10
202.1581234600088
 20
200.2924258465209
 10
202.1534059787592
 20
200.2570981822903
 10
202.1477389506896
 20
200.2241039290904
 10
202.1328880641845
 20
200.1893907776885
 10
202.1377638229043
 20
200.1465230458185
 10
202.1364029960578
 20
200.1050096135741
 10
202.1372459802026
 20
200.0489665906658
 10
202.1343380115288
 20
199.9943998636577
 10
202.1577868500625
 20
199.9350322571338
 10
202.171672409295
 20
199.8821105756743
 10
202.2096627467782
 20
199.8088439150729
 10
202.2751733644698
 20
199.7243213810558
 10
202.3997168334846
 20
199.6217506145075
 10
202.519422799315
 20
199.6114013502658
 10
202.5901521535242
 20
199.6052863937448
 72
     1
 10
202.5901521535239
 20
199.605286393745
 11
203.3406058738394
 21
199.6056793304299
 72
     4
 94
        3
 73
     0
 74
     0
 95
       11
 96
        7
 40
0.1647869275458135
 40
0.1647869275458135
 40
0.1647869275458135
 40
0.1647869275458135
 40
0.2545010798212315
 40
0.5111620267764023
 40
0.7602998271033902
 40
0.8850764140209603
 40
0.8850764140209603
 40
0.8850764140209603
 40
0.8850764140209603
 10
203.340605873839
 20
199.6056793304299
 10
203.3510778783937
 20
199.6054829978885
 10
203.3915089756603
 20
199.6047249825499
 10
203.4606003107662
 20
199.6146876906369
 10
203.5332940872611
 20
199.6242381486903
 10
203.5766314654768
 20
199.6311884308239
 10
203.5906079690741
 20
199.6350866821544
 72
     4
 94
        3
 73
     0
 74
     0
 95
        9
 96
        5
 40
0.0
 40
0.0
 40
0.0
 40
0.0
 40
0.1135793343549381
 40
0.2662938392176064
 40
0.2662938392176064
 40
0.2662938392176064
 40
0.2662938392176064
 10
203.5906079690741
 20
199.6350866821544
 10
203.6270870878036
 20
199.6462681238315
 10
203.7126146587557
 20
199.6724837118086
 10
203.7832623848437
 20
199.7278330282313
 10
203.8237775260911
 20
199.7595748194677
 72
     4
 94
        3
 73
     0
 74
     0
 95
       25
 96
       21
 40
0.0
 40
0.0
 40
0.0
 40
0.0
 40
0.165525918914855
 40
0.3412380755365305
 40
0.5940540902285263
 40
0.7697671103696209
 40
0.9377330196075423
 40
1.11479469302833
 40
1.274661249598185
 40
1.574522170874768
 40
1.815540668866877
 40
2.15849091873445
 40
2.536227739636605
 40
2.738070817316548
 40
2.925680654369045
 40
3.162706124480894
 40
3.395643218188267
 40
3.648478129958861
 40
3.928509979727306
 40
4.337226830236035
 40
4.337226830236035
 40
4.337226830236035
 40
4.337226830236035
 10
203.8237775260911
 20
199.7595748194677
 10
203.8386637376475
 20
199.771889359503
 10
203.8668957072794
 20
199.8011742689631
 10
203.9169720973444
 20
199.8486408437439
 10
203.9610933108689
 20
199.9039357235897
 10
204.0155322490783
 20
199.9487600667677
 10
204.043856525203
 20
200.0035411311802
 10
204.084702514213
 20
200.0466349944954
 10
204.1189496980233
 20
200.1131741173898
 10
204.1479962836314
 20
200.1896011017663
 10
204.1756741842199
 20
200.2892168912388
 10
204.1862417918981
 20
200.4015874928744
 10
204.1704564143468
 20
200.5102923750022
 10
204.1324178945099
 20
200.5915319647539
 10
204.1044482787217
 20
200.6592387438451
 10
204.062021110118
 20
200.7233606414993
 10
204.0136192336454
 20
200.7930991142311
 10
203.9454508074564
 20
200.8507693915484
 10
203.8563647171605
 20
200.9203254450928
 10
203.7734202254856
 20
200.9229468923258
 10
203.7241993537937
 20
200.9245025100085
 72
     1
 10
203.7241993537937
 20
200.9245025100085
 11
202.9737456334784
 21
200.9241095733234
 97
        6
330
698
330
6ED
330
68C
330
6C8
330
6C9
330
6CA
 92
       20
 93
        1
 72
     3
 10
203.1465588452449
 20
200.2465039730016
 11
0.1782025952914886
 21
0.1568724203442331
 40
0.6788083417438791
 50
0.0
 51
360.0
 73
     1
 97
        1
330
6CB
 75
     0
 76
     1
 47
0.088756267210375
 98
        2
 10
203.1988259722829
 20
200.5600186533041
 10
203.1988259722829
 20
200.5600186533041
450
        0
451
        0
460
0.0
461
0.0
452
        0
462
0.0
453
        0
470

  0
LINE
  5
68A
102
{ACAD_REACTORS
330
688
102
}
330
18
100
AcDbEntity
  8
ROGO
 62
     4
100
AcDbLine
 10
206.4755924722038
 20
200.920465916285
 30
0.0
 11
206.2322290223452
 21
200.4317633722792
 31
0.0
  0
LINE
  5
68B
102
{ACAD_REACTORS
330
684
102
}
330
18
100
AcDbEntity
  8
ROGO
 62
     4
100
AcDbLine
 10
202.2445232812618
 20
200.9182505334345
 30
0.0
 11
202.0011598314034
 21
200.4295479894288
 31
0.0
  0
SPLINE
  5
68C
102
{ACAD_REACTORS
330
689
102
}
330
18
100
AcDbEntity
  8
ROGO
 62
     4
100
AcDbSpline
210
0.0
220
0.0
230
1.0
 70
     8
 71
     3
 72
    38
 73
    34
 74
    32
 42
0.0000000001
 43
0.0000000001
 44
0.0000000001
 40
0.0
 40
0.0
 40
0.0
 40
0.0
 40
0.1807680148265105
 40
0.2375392910068721
 40
0.310486520960507
 40
0.3712759982446107
 40
0.4225667543871455
 40
0.4906925837206445
 40
0.5255021974951799
 40
0.5647069597053689
 40
0.6224874016816804
 40
0.6879401044674854
 40
0.7303986317548253
 40
0.7765228362185615
 40
0.8277951442289925
 40
0.905603469699754
 40
0.9795294930262913
 40
1.013897332332832
 40
1.053089255535794
 40
1.099518741889448
 40
1.132570569820421
 40
1.160277520290228
 40
1.199836786293557
 40
1.243305643168955
 40
1.286774258016696
 40
1.32480935651561
 40
1.411916492917405
 40
1.446284332224154
 40
1.515020051660994
 40
1.575779369908289
 40
1.692098529535951
 40
1.835624328518863
 40
2.042896467983847
 40
2.042896467983847
 40
2.042896467983847
 40
2.042896467983847
 10
202.9737456334788
 20
200.9241095733236
 30
0.0
 10
202.9134924728731
 20
200.9198214051553
 30
0.0
 10
202.8343164468217
 20
200.9141865121274
 30
0.0
 10
202.7337921104258
 20
200.8865892477218
 30
0.0
 10
202.6790045451388
 20
200.8537460370615
 30
0.0
 10
202.62198188097
 20
200.8295959320545
 30
0.0
 10
202.573372682784
 20
200.7938531761903
 30
0.0
 10
202.5241962255505
 20
200.7754226447385
 30
0.0
 10
202.4897719936238
 20
200.7422175073302
 30
0.0
 10
202.4499192554116
 20
200.7219245195286
 30
0.0
 10
202.4181991181656
 20
200.6765330106681
 30
0.0
 10
202.3827406595888
 20
200.6340905571871
 30
0.0
 10
202.3415948313901
 20
200.6031014674575
 30
0.0
 10
202.3078296204999
 20
200.570558804612
 30
0.0
 10
202.2768653942899
 20
200.5203467697151
 30
0.0
 10
202.2585587458477
 20
200.4536418005476
 30
0.0
 10
202.2068789867741
 20
200.411505681029
 30
0.0
 10
202.199120821931
 20
200.3608739642469
 30
0.0
 10
202.1705386152677
 20
200.330989534352
 30
0.0
 10
202.1581234600088
 20
200.2924258465209
 30
0.0
 10
202.1534059787592
 20
200.2570981822903
 30
0.0
 10
202.1477389506896
 20
200.2241039290904
 30
0.0
 10
202.1328880641845
 20
200.1893907776885
 30
0.0
 10
202.1377638229043
 20
200.1465230458185
 30
0.0
 10
202.1364029960578
 20
200.1050096135741
 30
0.0
 10
202.1372459802026
 20
200.0489665906658
 30
0.0
 10
202.1343380115288
 20
199.9943998636577
 30
0.0
 10
202.1577868500625
 20
199.9350322571338
 30
0.0
 10
202.171672409295
 20
199.8821105756743
 30
0.0
 10
202.2096627467782
 20
199.8088439150729
 30
0.0
 10
202.2751733644698
 20
199.7243213810558
 30
0.0
 10
202.3997168334846
 20
199.6217506145075
 30
0.0
 10
202.519422799315
 20
199.6114013502658
 30
0.0
 10
202.5901521535242
 20
199.6052863937448
 30
0.0
 11
202.9737456334788
 21
200.9241095733236
 31
0.0
 11
202.7943004013139
 21
200.9022810635804
 31
0.0
 11
202.7399281575875
 21
200.8859520430556
 31
0.0
 11
202.6746885496724
 21
200.8533162970552
 31
0.0
 11
202.6203219960374
 21
200.8261200032945
 31
0.0
 11
202.5768317691609
 21
200.7989291623382
 31
0.0
 11
202.5170301108135
 21
200.7662965056692
 31
0.0
 11
202.4898508879111
 21
200.7445479642571
 31
0.0
 11
202.4572337154414
 21
200.7227963335127
 31
0.0
 11
202.4191899732068
 21
200.6793077930478
 31
0.0
 11
202.3757111262596
 21
200.6303828896743
 31
0.0
 11
202.3430967987722
 21
200.6031977433265
 31
0.0
 11
202.3104857433831
 21
200.570579323625
 31
0.0
 11
202.2833179005373
 21
200.5270964777681
 31
0.0
 11
202.2507267604054
 21
200.4564427227549
 31
0.0
 11
202.2072531763067
 21
200.3966505459213
 31
0.0
 11
202.1963943470655
 21
200.3640432736325
 31
0.0
 11
202.1746591910657
 21
200.3314305485393
 31
0.0
 11
202.1583676749786
 21
200.2879531554867
 31
0.0
 11
202.152946368062
 21
200.2553489723058
 31
0.0
 11
202.1475226435327
 21
200.2281780629252
 31
0.0
 11
202.1366666591473
 21
200.1901375170597
 31
0.0
 11
202.1366894193862
 21
200.146668666143
 31
0.0
 11
202.136712179499
 21
200.1032000572538
 31
0.0
 11
202.1367320946289
 21
200.0651649639686
 31
0.0
 11
202.1422155645485
 21
199.9782305934943
 31
0.0
 11
202.1531085340851
 21
199.9456347104216
 31
0.0
 11
202.1748953275175
 21
199.8804431867515
 31
0.0
 11
202.2021139534369
 21
199.8261215413702
 31
0.0
 11
202.2728573736445
 21
199.7337878238352
 31
0.0
 11
202.3871024010382
 21
199.6469101587568
 31
0.0
 11
202.5901521535242
 21
199.6052863937448
 31
0.0
  0
LINE
  5
68D
102
{ACAD_REACTORS
330
687
102
}
330
18
100
AcDbEntity
  8
ROGO
 62
     4
100
AcDbLine
 10
193.6096453488656
 20
200.9137293215085
 30
0.0
 11
192.5954693091115
 21
198.8613192339542
 31
0.0
  0
LINE
  5
68E
102
{ACAD_REACTORS
330
685
102
}
330
18
100
AcDbEntity
  8
ROGO
 62
     4
100
AcDbLine
 10
196.1747673034348
 20
200.9150724163459
 30
0.0
 11
195.5257230542851
 21
199.6015874669802
 31
0.0
  0
LINE
  5
68F
102
{ACAD_REACTORS
330
685
102
}
330
18
100
AcDbEntity
  8
ROGO
 62
     4
100
AcDbLine
 10
197.950850208457
 20
200.9160023712653
 30
0.0
 11
197.8021735328492
 21
200.6151221524074
 31
0.0
  0
LINE
  5
690
102
{ACAD_REACTORS
330
686
102
}
330
18
100
AcDbEntity
  8
ROGO
 62
     4
100
AcDbLine
 10
198.4653444031292
 20
200.9162717598205
 30
0.0
 11
197.5190977638802
 21
199.6026311956327
 31
0.0
  0
SPLINE
  5
691
102
{ACAD_REACTORS
330
687
102
}
330
18
100
AcDbEntity
  8
ROGO
 62
     4
100
AcDbSpline
210
0.0
220
0.0
230
1.0
 70
     8
 71
     3
 72
    18
 73
    14
 74
     0
 42
0.0000000001
 43
0.0000000001
 40
0.1087402787915014
 40
0.1087402787915014
 40
0.1087402787915014
 40
0.1087402787915014
 40
0.5992371417938475
 40
1.083176791562496
 40
1.448211145705696
 40
1.714037220764907
 40
2.164002567013297
 40
2.740236056362883
 40
3.395137510199602
 40
4.071816045172726
 40
4.784906178399433
 40
5.506895915094292
 40
6.060470601257719
 40
6.060470601257719
 40
6.060470601257719
 40
6.060470601257719
 10
195.222143440813
 20
200.9145736236123
 30
0.0
 10
195.2738128843249
 20
200.8956683202293
 30
0.0
 10
195.375421775757
 20
200.8556956257236
 30
0.0
 10
195.4994548262637
 20
200.764408246969
 30
0.0
 10
195.567126229004
 20
200.6589848880069
 30
0.0
 10
195.6322198361665
 20
200.5551082143963
 30
0.0
 10
195.6414000102403
 20
200.4060354665331
 30
0.0
 10
195.6265888099651
 20
200.2175575499992
 30
0.0
 10
195.5304349175264
 20
200.0208580394572
 30
0.0
 10
195.3760270570539
 20
199.8487801373043
 30
0.0
 10
195.1842791910479
 20
199.7110155391349
 30
0.0
 10
194.9820550222354
 20
199.6028468034893
 30
0.0
 10
194.8374652487715
 20
199.6016943756981
 30
0.0
 10
194.7747155851455
 20
199.601194240353
 30
0.0
  0
LINE
  5
692
102
{ACAD_REACTORS
330
686
102
}
330
18
100
AcDbEntity
  8
ROGO
 62
     4
100
AcDbLine
 10
199.5157477419135
 20
200.9168217497728
 30
0.0
 11
200.0997862333787
 21
199.6039824410792
 31
0.0
  0
SPLINE
  5
693
102
{ACAD_REACTORS
330
684
102
}
330
18
100
AcDbEntity
  8
ROGO
 62
     4
100
AcDbSpline
210
0.0
220
0.0
230
1.0
 70
     8
 71
     3
 72
    26
 73
    22
 74
    20
 42
0.0000000001
 43
0.0000000001
 44
0.0000000001
 40
0.0
 40
0.0
 40
0.0
 40
0.0
 40
0.2382195346592966
 40
0.3976890672662761
 40
0.5126795869788562
 40
0.5985392873135624
 40
0.7099038249249598
 40
0.7911890807496702
 40
0.9379713068542432
 40
1.057449928672889
 40
1.138714535892955
 40
1.218398644003332
 40
1.360938021870216
 40
1.461730374800158
 40
1.516014844107795
 40
1.593124329220225
 40
1.648806818593587
 40
1.729472362005593
 40
1.77512208216407
 40
1.87446099376512
 40
1.919820003751054
 40
1.919820003751054
 40
1.919820003751054
 40
1.919820003751054
 10
200.9294871194179
 20
200.9175619820474
 30
0.0
 10
200.8486342655682
 20
200.9126956756619
 30
0.0
 10
200.713656686675
 20
200.9045717539596
 30
0.0
 10
200.5654946387565
 20
200.8144586602858
 30
0.0
 10
200.4569353157962
 20
200.7620591262341
 30
0.0
 10
200.3795286488775
 20
200.6908631650213
 30
0.0
 10
200.3228004224368
 20
200.6173350995924
 30
0.0
 10
200.2512811805316
 20
200.5297248920715
 30
0.0
 10
200.1929752845665
 20
200.4277194277301
 30
0.0
 10
200.1633152955394
 20
200.3153097413249
 30
0.0
 10
200.1370375338329
 20
200.2257171874815
 30
0.0
 10
200.1175669891863
 20
200.1258831161512
 30
0.0
 10
200.1225906127669
 20
200.0180408436091
 30
0.0
 10
200.1297562517517
 20
199.9178837707954
 30
0.0
 10
200.161552374541
 20
199.8464005864806
 30
0.0
 10
200.1977465446918
 20
199.7955165837979
 30
0.0
 10
200.2420625294921
 20
199.7394758272118
 30
0.0
 10
200.2905412288986
 20
199.7023702311816
 30
0.0
 10
200.330656210519
 20
199.6351259709777
 30
0.0
 10
200.4008189754906
 20
199.6265791752662
 30
0.0
 10
200.4454233085046
 20
199.6095187378238
 30
0.0
 10
200.459405599089
 20
199.6041707373562
 30
0.0
 11
200.9294871194179
 21
200.9175619820474
 31
0.0
 11
200.6941217645308
 21
200.8807965579079
 31
0.0
 11
200.551501597431
 21
200.8094521834534
 31
0.0
 11
200.4516714171857
 21
200.7523841999953
 31
0.0
 11
200.3875057105552
 21
200.6953346580675
 31
0.0
 11
200.3162219538105
 21
200.6097736490637
 31
0.0
 11
200.2663255220479
 21
200.5456048177525
 31
0.0
 11
200.195063745255
 21
200.4172818616279
 31
0.0
 11
200.1594593887403
 21
200.3032315618964
 31
0.0
 11
200.1381019171101
 21
200.2248236873416
 31
0.0
 11
200.1238770120558
 21
200.14641954739
 31
0.0
 11
200.123951645496
 21
200.0038801890621
 31
0.0
 11
200.1382698424116
 21
199.9041100149306
 31
0.0
 11
200.1596944842356
 21
199.8542322811136
 31
0.0
 11
200.2025251093404
 21
199.7901120015802
 31
0.0
 11
200.2382119729391
 21
199.7473687285504
 31
0.0
 11
200.2953044096655
 21
199.6903829095899
 31
0.0
 11
200.3238545648503
 21
199.6547628928932
 31
0.0
 11
200.4166006901711
 21
199.619176721477
 31
0.0
 11
200.459405599089
 21
199.6041707373562
 31
0.0
  0
LINE
  5
694
330
18
100
AcDbEntity
  8
針
  6
Continuous
100
AcDbLine
 10
200.2701406768391
 20
214.0568085450622
 30
0.0
 11
200.7814428991328
 21
192.4712868657439
 31
0.0
  0
LINE
  5
695
330
18
100
AcDbEntity
  8
針
  6
Continuous
100
AcDbLine
 10
200.270140676839
 20
214.0568085450612
 30
0.0
 11
199.7814430362106
 21
192.4707632669923
 31
0.0
  0
HATCH
  5
696
330
18
100
AcDbEntity
  8
ﾊｯﾁﾝｸ
  6
Continuous
100
AcDbHatch
 10
0.0
 20
0.0
 30
0.0
210
0.0
220
0.0
230
1.0
  2
SOLID
 70
     1
 71
     0
 91
        1
 92
        1
 93
        3
 72
     1
 10
200.2701406768391
 20
214.0568085450622
 11
200.7814428991329
 21
192.471286865744
 72
     2
 10
200.2821834481276
 20
191.0568116978524
 40
1.499999999999999
 50
-649.4412206344873
 51
-610.4987793655085
 73
     1
 72
     1
 10
199.7814430362106
 20
192.4707632669923
 11
200.270140676839
 21
214.0568085450612
 97
        0
 75
     0
 76
     1
 98
        1
 10
-27.27767032081212
 20
205.1932588105137
450
        0
451
        0
460
0.0
461
0.0
452
        0
462
0.0
453
        0
470

  0
SPLINE
  5
697
102
{ACAD_REACTORS
330
688
102
}
330
18
100
AcDbEntity
  8
ROGO
 62
     4
100
AcDbSpline
210
0.0
220
0.0
230
1.0
 70
     8
 71
     3
 72
    26
 73
    22
 74
    20
 42
0.0000000001
 43
0.0000000001
 44
0.0000000001
 40
0.0
 40
0.0
 40
0.0
 40
0.0
 40
0.2382195346592879
 40
0.3976890672661911
 40
0.5126795869788559
 40
0.5985392873137131
 40
0.70990382492546
 40
0.7911890807496769
 40
0.9379713068547026
 40
1.057449928673491
 40
1.138714535893203
 40
1.218398644003503
 40
1.360938021870501
 40
1.461730374800499
 40
1.51601484410804
 40
1.593124329220533
 40
1.648806818593778
 40
1.729472362005382
 40
1.775122082164321
 40
1.874460993765244
 40
1.919820003751165
 40
1.919820003751165
 40
1.919820003751165
 40
1.919820003751165
 10
205.1605563103599
 20
200.9197773648979
 30
0.0
 10
205.0797034565101
 20
200.9149110585125
 30
0.0
 10
204.9447258776169
 20
200.9067871368105
 30
0.0
 10
204.7965638296988
 20
200.8166740431357
 30
0.0
 10
204.6880045067381
 20
200.7642745090848
 30
0.0
 10
204.6105978398194
 20
200.6930785478715
 30
0.0
 10
204.5538696133792
 20
200.6195504824423
 30
0.0
 10
204.482350371473
 20
200.5319402749219
 30
0.0
 10
204.4240444755086
 20
200.4299348105802
 30
0.0
 10
204.3943844864813
 20
200.3175251241749
 30
0.0
 10
204.3681067247745
 20
200.2279325703317
 30
0.0
 10
204.3486361801281
 20
200.1280984990014
 30
0.0
 10
204.3536598037089
 20
200.0202562264593
 30
0.0
 10
204.3608254426938
 20
199.9200991536458
 30
0.0
 10
204.3926215654828
 20
199.8486159693308
 30
0.0
 10
204.4288157356338
 20
199.7977319666482
 30
0.0
 10
204.4731317204341
 20
199.7416912100623
 30
0.0
 10
204.5216104198402
 20
199.7045856140318
 30
0.0
 10
204.5617254014609
 20
199.6373413538282
 30
0.0
 10
204.6318881664326
 20
199.6287945581167
 30
0.0
 10
204.6764924994463
 20
199.611734120674
 30
0.0
 10
204.6904747900308
 20
199.6063861202063
 30
0.0
 11
205.1605563103599
 21
200.9197773648979
 31
0.0
 11
204.9251909554728
 21
200.8830119407585
 31
0.0
 11
204.7825707883732
 21
200.8116675663037
 31
0.0
 11
204.6827406081277
 21
200.7545995828459
 31
0.0
 11
204.6185749014972
 21
200.6975500409179
 31
0.0
 11
204.5472911447525
 21
200.6119890319135
 31
0.0
 11
204.4973947129899
 21
200.5478202006029
 31
0.0
 11
204.4261329361968
 21
200.4194972444779
 31
0.0
 11
204.390528579682
 21
200.3054469447463
 31
0.0
 11
204.3691711080518
 21
200.2270390701919
 31
0.0
 11
204.3549462029976
 21
200.1486349302404
 31
0.0
 11
204.3550208364379
 21
200.0060955719124
 31
0.0
 11
204.3693390333535
 21
199.9063253977808
 31
0.0
 11
204.3907636751775
 21
199.8564476639638
 31
0.0
 11
204.4335943002824
 21
199.7923273844304
 31
0.0
 11
204.469281163881
 21
199.7495841114007
 31
0.0
 11
204.5263736006071
 21
199.6925982924404
 31
0.0
 11
204.5549237557923
 21
199.6569782757435
 31
0.0
 11
204.647669881113
 21
199.6213921043274
 31
0.0
 11
204.6904747900308
 21
199.6063861202063
 31
0.0
  0
SPLINE
  5
698
102
{ACAD_REACTORS
330
689
102
}
330
18
100
AcDbEntity
  8
ROGO
 62
     4
100
AcDbSpline
210
0.0
220
0.0
230
1.0
 70
     8
 71
     3
 72
    25
 73
    21
 74
     0
 42
0.0000000001
 43
0.0000000001
 40
0.0
 40
0.0
 40
0.0
 40
0.0
 40
0.4087168505087288
 40
0.6887487002771746
 40
0.9415836120477687
 40
1.17452070575514
 40
1.41154617586699
 40
1.599156012919487
 40
1.80099909059943
 40
2.178735911501585
 40
2.521686161369157
 40
2.762704659361267
 40
3.06256558063785
 40
3.222432137207705
 40
3.399493810628493
 40
3.567459719866414
 40
3.743172740007509
 40
3.995988754699505
 40
4.17170091132118
 40
4.337226830236035
 40
4.337226830236035
 40
4.337226830236035
 40
4.337226830236035
 10
203.7241993537937
 20
200.9245025100085
 30
0.0
 10
203.7734202254856
 20
200.9229468923258
 30
0.0
 10
203.8563647171605
 20
200.9203254450928
 30
0.0
 10
203.9454508074564
 20
200.8507693915484
 30
0.0
 10
204.0136192336454
 20
200.7930991142311
 30
0.0
 10
204.062021110118
 20
200.7233606414993
 30
0.0
 10
204.1044482787217
 20
200.6592387438451
 30
0.0
 10
204.1324178945099
 20
200.5915319647539
 30
0.0
 10
204.1704564143468
 20
200.5102923750022
 30
0.0
 10
204.1862417918981
 20
200.4015874928744
 30
0.0
 10
204.1756741842199
 20
200.2892168912388
 30
0.0
 10
204.1479962836314
 20
200.1896011017663
 30
0.0
 10
204.1189496980233
 20
200.1131741173898
 30
0.0
 10
204.084702514213
 20
200.0466349944954
 30
0.0
 10
204.043856525203
 20
200.0035411311802
 30
0.0
 10
204.0155322490783
 20
199.9487600667677
 30
0.0
 10
203.9610933108689
 20
199.9039357235897
 30
0.0
 10
203.9169720973444
 20
199.8486408437439
 30
0.0
 10
203.8668957072794
 20
199.8011742689631
 30
0.0
 10
203.8386637376475
 20
199.771889359503
 30
0.0
 10
203.8237775260911
 20
199.7595748194677
 30
0.0
  0
LINE
  5
699
102
{ACAD_REACTORS
330
60B
102
}
330
18
100
AcDbEntity
  8
ROGO
 62
     4
100
AcDbLine
 10
206.7506195636258
 20
200.9206099201465
 30
0.0
 11
205.7285610333753
 21
198.8681957053294
 31
0.0
  0
TEXT
  5
69A
330
18
100
AcDbEntity
  8
文字
100
AcDbText
 10
184.1708494665874
 20
200.5068266767249
 30
0.0
 40
2.0
  1
.3
 50
0.030000000000189
  7
STYLE3
100
AcDbText
  0
HATCH
  5
69B
330
18
100
AcDbEntity
  8
ROGO
 62
     4
100
AcDbHatch
 10
0.0
 20
0.0
 30
0.0
210
0.0
220
0.0
230
1.0
  2
SOLID
 70
     1
 71
     0
 91
        1
 92
        7
 72
     0
 73
     1
 93
        4
 10
193.6422134683066
 20
199.0675375424487
 10
193.5492701343031
 20
198.8618186429441
 10
205.7285610333753
 20
198.8681957053293
 10
205.8310071380403
 20
199.0739195804733
 97
        0
 75
     0
 76
     1
 47
0.0514683685270805
 98
        1
 10
201.3384761561327
 20
199.0171708248755
450
        0
451
        0
460
0.0
461
0.0
452
        0
462
0.0
453
        0
470

  0
LINE
  5
69C
330
18
100
AcDbEntity
  8
ROGO
 62
     4
100
AcDbLine
 10
193.6279500233451
 20
199.0675300741258
 30
0.0
 11
205.8310071380402
 21
199.0739195804734
 31
0.0
  0
LINE
  5
69D
102
{ACAD_REACTORS
330
60B
330
687
102
}
330
18
100
AcDbEntity
  8
ROGO
 62
     4
100
AcDbLine
 10
192.5954693091115
 20
198.8613192339542
 30
0.0
 11
206.484644672237
 21
198.868591589833
 31
0.0
  0
TEXT
  5
69E
330
18
100
AcDbEntity
  8
文字
100
AcDbText
 10
205.2371160049327
 20
190.6701078100555
 30
0.0
 40
1.0
  1
0.01mm
 50
0.030000000000189
  7
STYLE3
100
AcDbText
  0
LINE
  5
69F
330
18
100
AcDbEntity
  8
目盛
100
AcDbLine
 10
194.5745517673398
 20
184.8266530582938
 30
0.0
 11
194.8686561533439
 21
184.4222984983678
 31
0.0
  0
LINE
  5
6A0
102
{ACAD_REACTORS
330
687
102
}
330
18
100
AcDbEntity
  8
ROGO
 62
     4
100
AcDbLine
 10
193.8831074391928
 20
199.6007273953768
 30
0.0
 11
193.549270134303
 21
198.861818642944
 31
0.0
  0
LINE
  5
6A1
102
{ACAD_REACTORS
330
687
102
}
330
18
100
AcDbEntity
  8
ROGO
 62
     4
100
AcDbLine
 10
194.2470479986969
 20
200.4062660839649
 30
0.0
 11
194.0892330760357
 21
200.0569617195014
 31
0.0
  0
LINE
  5
6A2
102
{ACAD_REACTORS
330
687
102
}
330
18
100
AcDbEntity
  8
ROGO
 62
     4
100
AcDbLine
 10
194.6530349421425
 20
200.4064786582509
 30
0.0
 11
194.2470479986969
 21
200.4062660839649
 31
0.0
  0
LINE
  5
6A3
102
{ACAD_REACTORS
330
687
102
}
330
18
100
AcDbEntity
  8
ROGO
 62
     4
100
AcDbLine
 10
194.5818892573477
 20
200.057219673698
 30
0.0
 11
194.0892330760357
 21
200.0569617195014
 31
0.0
  0
SPLINE
  5
6A4
102
{ACAD_REACTORS
330
687
102
}
330
18
100
AcDbEntity
  8
ROGO
 62
     4
100
AcDbSpline
210
0.0
220
0.0
230
1.0
 70
     8
 71
     3
 72
    15
 73
    11
 74
     9
 42
0.0000000001
 43
0.0000000001
 44
0.0000000001
 40
0.0
 40
0.0
 40
0.0
 40
0.0
 40
0.1539705029172671
 40
0.2241725832585841
 40
0.3038566179395799
 40
0.3581410872475101
 40
0.4439925384670307
 40
0.4954152125468173
 40
0.5836396705645014
 40
0.6130478420064005
 40
0.6130478420064005
 40
0.6130478420064005
 40
0.6130478420064005
 10
194.6530349421425
 20
200.4064786582509
 30
0.0
 10
194.7108631305814
 20
200.4067738217011
 30
0.0
 10
194.7950577921684
 20
200.4072035634494
 30
0.0
 10
194.8411530746675
 20
200.3030783806793
 30
0.0
 10
194.8205505256509
 20
200.2360116793792
 30
0.0
 10
194.7946433532085
 20
200.1671525907294
 30
0.0
 10
194.7488203027195
 20
200.1203470261523
 30
0.0
 10
194.6873097741519
 20
200.0752562794979
 30
0.0
 10
194.6291599450564
 20
200.0697712943088
 30
0.0
 10
194.5913433985097
 20
200.0597299987816
 30
0.0
 10
194.5818892573476
 20
200.0572196736982
 30
0.0
 11
194.6530349421425
 21
200.4064786582509
 31
0.0
 11
194.8028436509592
 21
200.3709221323901
 31
0.0
 11
194.8314087327592
 21
200.3067943834353
 31
0.0
 11
194.8171842378583
 21
200.2283902436986
 31
0.0
 11
194.7958118396129
 21
200.1784901014014
 31
0.0
 11
194.7387824311208
 21
200.1143175352726
 31
0.0
 11
194.6960003177884
 21
200.0857871621884
 31
0.0
 11
194.6104170224273
 21
200.0643616039073
 31
0.0
 11
194.5818892573476
 21
200.0572196736982
 31
0.0
  0
LINE
  5
6A5
102
{ACAD_REACTORS
330
687
102
}
330
18
100
AcDbEntity
  8
ROGO
 62
     4
100
AcDbLine
 10
194.7747155854546
 20
199.6011942403531
 30
0.0
 11
193.8831074391928
 21
199.6007273953768
 31
0.0
  0
CIRCLE
  5
6A6
330
18
100
AcDbEntity
  8
外形線
100
AcDbCircle
 10
200.2821834481274
 20
191.0568116978523
 30
0.0
 40
1.5
  0
LINE
  5
6A7
330
18
100
AcDbEntity
  8
目盛
100
AcDbLine
 10
197.3660563403096
 20
185.7352840878758
 30
0.0
 11
197.3663181396854
 21
185.2352841564147
 31
0.0
  0
TEXT
  5
6A8
330
18
100
AcDbEntity
  8
文字
100
AcDbText
 10
198.9257885988857
 20
183.3617325332155
 30
0.0
 40
0.7
  1
2
 50
0.030000000000189
  7
STYLE3
100
AcDbText
  0
TEXT
  5
6A9
330
18
100
AcDbEntity
  8
文字
100
AcDbText
 10
197.0523037824869
 20
184.0565006518728
 30
0.0
 40
0.7
  1
0
 50
0.030000000000189
  7
STYLE3
100
AcDbText
  0
LINE
  5
6AA
330
18
100
AcDbEntity
  8
目盛
100
AcDbLine
 10
200.1585108986811
 20
184.8295768127253
 30
0.0
 11
199.8648301129654
 21
184.4249144891748
 31
0.0
  0
POINT
  5
6AB
330
18
100
AcDbEntity
  8
DEFPOINTS
  6
ByBlock
 62
     0
100
AcDbPoint
 10
200.2821834481276
 20
191.0568116978524
 30
0.0
  0
POINT
  5
6AC
330
18
100
AcDbEntity
  8
DEFPOINTS
  6
ByBlock
 62
     0
100
AcDbPoint
 10
200.2821834481276
 20
191.0568116978524
 30
0.0
  0
TEXT
  5
6AD
330
18
100
AcDbEntity
  8
文字
100
AcDbText
 10
195.2626553066611
 20
183.2994610122267
 30
0.0
 40
0.7
  1
8
 50
0.030000000000189
  7
STYLE3
100
AcDbText
  0
SPLINE
  5
6AE
102
{ACAD_REACTORS
330
684
102
}
330
18
100
AcDbEntity
  8
ROGO
 62
     4
100
AcDbSpline
210
0.0
220
0.0
230
1.0
 70
     8
 71
     3
 72
    16
 73
    12
 74
    10
 42
0.0000000001
 43
0.0000000001
 44
0.0000000001
 40
0.0
 40
0.0
 40
0.0
 40
0.0
 40
0.125590702562735
 40
0.1869327038469471
 40
0.2171823804789609
 40
0.2490606136883057
 40
0.2947101524736932
 40
0.3362763310928341
 40
0.379628887008176
 40
0.4523125795607549
 40
0.5242542460843575
 40
0.5242542460843575
 40
0.5242542460843575
 40
0.5242542460843575
 10
201.1793930206984
 20
200.4291177132934
 30
0.0
 10
201.1368657139703
 20
200.4226113518528
 30
0.0
 10
201.0735668847432
 20
200.4129271020518
 30
0.0
 10
201.0163448681325
 20
200.3675820274843
 30
0.0
 10
200.9840763593798
 20
200.3406056557188
 30
0.0
 10
200.9731123601534
 20
200.3048979159055
 30
0.0
 10
200.9436306500894
 20
200.2774688245234
 30
0.0
 10
200.9193372302225
 20
200.2397809186371
 30
0.0
 10
200.9135588968679
 20
200.1880304150558
 30
0.0
 10
200.9178582377095
 20
200.1154129670937
 30
0.0
 10
200.968782789041
 20
200.100459185076
 30
0.0
 10
200.99411442599
 20
200.0930206555811
 30
0.0
 11
201.1793930206984
 21
200.4291177132934
 31
0.0
 11
201.0581515894962
 21
200.3963527940928
 31
0.0
 11
201.0082402309965
 21
200.360691927386
 31
0.0
 11
200.9868529060145
 21
200.3392997496929
 31
0.0
 11
200.9726018792927
 21
200.3107843154524
 31
0.0
 11
200.944089040828
 21
200.2751346529855
 31
0.0
 11
200.9227091792142
 21
200.2394884929907
 31
0.0
 11
200.9155985924683
 21
200.1967230436125
 31
0.0
 11
200.9299018627685
 21
200.1254606017389
 31
0.0
 11
200.99411442599
 21
200.0930206555811
 31
0.0
  0
LINE
  5
6AF
102
{ACAD_REACTORS
330
684
102
}
330
18
100
AcDbEntity
  8
ROGO
 62
     4
100
AcDbLine
 10
200.9941144259897
 20
200.0930206555812
 30
0.0
 11
201.8337953317602
 21
200.0934603115157
 31
0.0
  0
LINE
  5
6B0
102
{ACAD_REACTORS
330
684
102
}
330
18
100
AcDbEntity
  8
ROGO
 62
     4
100
AcDbLine
 10
200.4594055990888
 20
199.604170737356
 30
0.0
 11
201.5904344590544
 21
199.6047629427363
 31
0.0
  0
LINE
  5
6B1
102
{ACAD_REACTORS
330
686
102
}
330
18
100
AcDbEntity
  8
ROGO
 62
     4
100
AcDbLine
 10
198.4265044213799
 20
199.8531210170534
 30
0.0
 11
199.2563812964067
 21
199.8535555396086
 31
0.0
  0
LINE
  5
6B2
102
{ACAD_REACTORS
330
686
102
}
330
18
100
AcDbEntity
  8
ROGO
 62
     4
100
AcDbLine
 10
198.9396559826306
 20
200.5655110837381
 30
0.0
 11
198.616524084509
 21
200.1169185589685
 31
0.0
  0
LINE
  5
6B3
102
{ACAD_REACTORS
330
686
102
}
330
18
100
AcDbEntity
  8
ROGO
 62
     4
100
AcDbLine
 10
198.616524084509
 20
200.1169185589686
 30
0.0
 11
199.1390981349143
 21
200.1171921781267
 31
0.0
  0
LINE
  5
6B4
102
{ACAD_REACTORS
330
686
102
}
330
18
100
AcDbEntity
  8
ROGO
 62
     4
100
AcDbLine
 10
198.9396559826306
 20
200.5655110837381
 30
0.0
 11
199.1390981349144
 21
200.1171921781264
 31
0.0
  0
LINE
  5
6B5
102
{ACAD_REACTORS
330
685
102
}
330
18
100
AcDbEntity
  8
ROGO
 62
     4
100
AcDbLine
 10
197.6859268479376
 20
200.3798712103565
 30
0.0
 11
197.5667267625505
 21
200.1386434075926
 31
0.0
  0
LINE
  5
6B6
102
{ACAD_REACTORS
330
685
102
}
330
18
100
AcDbEntity
  8
ROGO
 62
     4
100
AcDbLine
 10
196.8687092385887
 20
200.6146333916015
 30
0.0
 11
196.7524625536771
 21
200.3793824495505
 31
0.0
  0
LINE
  5
6B7
102
{ACAD_REACTORS
330
685
102
}
330
18
100
AcDbEntity
  8
ROGO
 62
     4
100
AcDbLine
 10
196.8687092385887
 20
200.6146333916015
 30
0.0
 11
197.8021735328492
 21
200.6151221524074
 31
0.0
  0
LINE
  5
6B8
102
{ACAD_REACTORS
330
685
102
}
330
18
100
AcDbEntity
  8
ROGO
 62
     4
100
AcDbLine
 10
196.7524625536771
 20
200.3793824495505
 30
0.0
 11
197.6859268479376
 21
200.3798712103565
 31
0.0
  0
LINE
  5
6B9
102
{ACAD_REACTORS
330
685
102
}
330
18
100
AcDbEntity
  8
ROGO
 62
     4
100
AcDbLine
 10
195.5257230542851
 20
199.6015874669802
 30
0.0
 11
197.3018059593075
 21
199.6025174218996
 31
0.0
  0
LINE
  5
6BA
102
{ACAD_REACTORS
330
685
102
}
330
18
100
AcDbEntity
  8
ROGO
 62
     4
100
AcDbLine
 10
196.5170108620523
 20
199.9028937453413
 30
0.0
 11
197.4504751563129
 21
199.9033825061476
 31
0.0
  0
LINE
  5
6BB
102
{ACAD_REACTORS
330
685
102
}
330
18
100
AcDbEntity
  8
ROGO
 62
     4
100
AcDbLine
 10
196.6332624682898
 20
200.1381546467862
 30
0.0
 11
197.5667267625505
 21
200.1386434075926
 31
0.0
  0
LINE
  5
6BC
102
{ACAD_REACTORS
330
685
102
}
330
18
100
AcDbEntity
  8
ROGO
 62
     4
100
AcDbLine
 10
197.4504751563129
 20
199.9033825061476
 30
0.0
 11
197.3018059593075
 21
199.6025174218996
 31
0.0
  0
LINE
  5
6BD
102
{ACAD_REACTORS
330
685
102
}
330
18
100
AcDbEntity
  8
ROGO
 62
     4
100
AcDbLine
 10
196.6332624682898
 20
200.1381546467862
 30
0.0
 11
196.5170108620522
 21
199.9028937453412
 31
0.0
  0
LINE
  5
6BE
102
{ACAD_REACTORS
330
686
102
}
330
18
100
AcDbEntity
  8
ROGO
 62
     4
100
AcDbLine
 10
198.4265044213799
 20
199.8531210170534
 30
0.0
 11
198.2463449158822
 21
199.603011981386
 31
0.0
  0
LINE
  5
6BF
102
{ACAD_REACTORS
330
686
102
}
330
18
100
AcDbEntity
  8
ROGO
 62
     4
100
AcDbLine
 10
197.5190977638802
 20
199.6026311956327
 30
0.0
 11
198.2463449158822
 21
199.6030119813859
 31
0.0
  0
LINE
  5
6C0
102
{ACAD_REACTORS
330
686
102
}
330
18
100
AcDbEntity
  8
ROGO
 62
     4
100
AcDbLine
 10
199.2563812964067
 20
199.8535555396086
 30
0.0
 11
199.3675786116201
 21
199.6035990580297
 31
0.0
  0
LINE
  5
6C1
102
{ACAD_REACTORS
330
686
102
}
330
18
100
AcDbEntity
  8
ROGO
 62
     4
100
AcDbLine
 10
200.0997862333787
 20
199.6039824410792
 30
0.0
 11
199.3675786116201
 21
199.6035990580297
 31
0.0
  0
SPLINE
  5
6C2
102
{ACAD_REACTORS
330
688
102
}
330
18
100
AcDbEntity
  8
ROGO
 62
     4
100
AcDbSpline
210
0.0
220
0.0
230
1.0
 70
     8
 71
     3
 72
    16
 73
    12
 74
    10
 42
0.0000000001
 43
0.0000000001
 44
0.0000000001
 40
0.0
 40
0.0
 40
0.0
 40
0.0
 40
0.1255907025627498
 40
0.1869327038469091
 40
0.2171823804790434
 40
0.2490606136882866
 40
0.2947101524736563
 40
0.336276331093041
 40
0.3796288870081213
 40
0.4523125795608339
 40
0.524254246084081
 40
0.524254246084081
 40
0.524254246084081
 40
0.524254246084081
 10
205.4104622116402
 20
200.431333096144
 30
0.0
 10
205.367934904912
 20
200.4248267347035
 30
0.0
 10
205.3046360756848
 20
200.4151424849027
 30
0.0
 10
205.2474140590744
 20
200.3697974103344
 30
0.0
 10
205.2151455503216
 20
200.3428210385692
 30
0.0
 10
205.2041815510954
 20
200.3071132987558
 30
0.0
 10
205.1746998410312
 20
200.2796842073738
 30
0.0
 10
205.1504064211644
 20
200.2419963014873
 30
0.0
 10
205.1446280878101
 20
200.190245797906
 30
0.0
 10
205.1489274286516
 20
200.117628349944
 30
0.0
 10
205.199851979983
 20
200.1026745679263
 30
0.0
 10
205.2251836169319
 20
200.0952360384315
 30
0.0
 11
205.4104622116402
 21
200.431333096144
 31
0.0
 11
205.2892207804379
 21
200.3985681769433
 31
0.0
 11
205.2393094219385
 21
200.3629073102363
 31
0.0
 11
205.2179220969564
 21
200.3415151325431
 31
0.0
 11
205.2036710702347
 21
200.3129996983027
 31
0.0
 11
205.1751582317699
 21
200.2773500358359
 31
0.0
 11
205.1537783701561
 21
200.2417038758409
 31
0.0
 11
205.1466677834104
 21
200.1989384264629
 31
0.0
 11
205.1609710537107
 21
200.1276759845891
 31
0.0
 11
205.2251836169319
 21
200.0952360384315
 31
0.0
  0
LINE
  5
6C3
102
{ACAD_REACTORS
330
688
102
}
330
18
100
AcDbEntity
  8
ROGO
 62
     4
100
AcDbLine
 10
206.0648645227022
 20
200.095675694366
 30
0.0
 11
205.8215036499962
 21
199.6069783255867
 31
0.0
  0
LINE
  5
6C4
102
{ACAD_REACTORS
330
688
102
}
330
18
100
AcDbEntity
  8
ROGO
 62
     4
100
AcDbLine
 10
205.2251836169319
 20
200.0952360384317
 30
0.0
 11
206.0648645227022
 21
200.095675694366
 31
0.0
  0
LINE
  5
6C5
102
{ACAD_REACTORS
330
688
102
}
330
18
100
AcDbEntity
  8
ROGO
 62
     4
100
AcDbLine
 10
205.4104622116402
 20
200.431333096144
 30
0.0
 11
206.2322290223452
 21
200.4317633722792
 31
0.0
  0
LINE
  5
6C6
102
{ACAD_REACTORS
330
60B
102
}
330
18
100
AcDbEntity
  8
ROGO
 62
     4
100
AcDbLine
 10
206.7514135043836
 20
199.4042949052133
 30
0.0
 11
206.484644672237
 21
198.868591589833
 31
0.0
  0
LINE
  5
6C7
102
{ACAD_REACTORS
330
60B
102
}
330
18
100
AcDbEntity
  8
ROGO
 62
     4
100
AcDbLine
 10
206.7514135043836
 20
199.4042949052133
 30
0.0
 11
207.0187431773554
 21
198.868871243182
 31
0.0
  0
LINE
  5
6C8
102
{ACAD_REACTORS
330
689
102
}
330
18
100
AcDbEntity
  8
ROGO
 62
     4
100
AcDbLine
 10
202.5901521535241
 20
199.605286393745
 30
0.0
 11
203.3406058738389
 21
199.6056793304299
 31
0.0
  0
SPLINE
  5
6C9
102
{ACAD_REACTORS
330
689
102
}
330
18
100
AcDbEntity
  8
ROGO
 62
     4
100
AcDbSpline
210
0.0
220
0.0
230
1.0
 70
     8
 71
     3
 72
    11
 73
     7
 74
     0
 42
0.0000000001
 43
0.0000000001
 40
0.1647869275458134
 40
0.1647869275458134
 40
0.1647869275458134
 40
0.1647869275458134
 40
0.2895635144633836
 40
0.5387013147903714
 40
0.7953622617455423
 40
0.8850764140209602
 40
0.8850764140209602
 40
0.8850764140209602
 40
0.8850764140209602
 10
203.5906079690741
 20
199.6350866821544
 30
0.0
 10
203.5766314654768
 20
199.6311884308239
 30
0.0
 10
203.5332940872611
 20
199.6242381486903
 30
0.0
 10
203.4606003107662
 20
199.6146876906369
 30
0.0
 10
203.3915089756603
 20
199.6047249825499
 30
0.0
 10
203.3510778783937
 20
199.6054829978885
 30
0.0
 10
203.340605873839
 20
199.6056793304299
 30
0.0
  0
SPLINE
  5
6CA
102
{ACAD_REACTORS
330
689
102
}
330
18
100
AcDbEntity
  8
ROGO
 62
     4
100
AcDbSpline
210
0.0
220
0.0
230
1.0
 70
     8
 71
     3
 72
     9
 73
     5
 74
     3
 42
0.0000000001
 43
0.0000000001
 44
0.0000000001
 40
0.0
 40
0.0
 40
0.0
 40
0.0
 40
0.1135793343549381
 40
0.2662938392176064
 40
0.2662938392176064
 40
0.2662938392176064
 40
0.2662938392176064
 10
203.5906079690741
 20
199.6350866821544
 30
0.0
 10
203.6270870878036
 20
199.6462681238315
 30
0.0
 10
203.7126146587557
 20
199.6724837118086
 30
0.0
 10
203.7832623848437
 20
199.7278330282313
 30
0.0
 10
203.8237775260911
 20
199.7595748194677
 30
0.0
 11
203.5906079690741
 21
199.6350866821544
 31
0.0
 11
203.6973384091105
 21
199.6739309656741
 31
0.0
 11
203.8237775260911
 21
199.7595748194677
 31
0.0
  0
ELLIPSE
  5
6CB
102
{ACAD_REACTORS
330
689
102
}
330
18
100
AcDbEntity
  8
ROGO
 62
     4
100
AcDbEllipse
 10
203.1465588452449
 20
200.2465039730016
 30
0.0
 11
0.1782025952914886
 21
0.1568724203442331
 31
0.0
210
0.0
220
0.0
230
1.0
 40
0.6788083417438791
 41
0.0
 42
6.283185307179586
  0
LINE
  5
6CC
102
{ACAD_REACTORS
330
684
102
}
330
18
100
AcDbEntity
  8
ROGO
 62
     4
100
AcDbLine
 10
201.8337953317602
 20
200.0934603115157
 30
0.0
 11
201.5904344590544
 21
199.6047629427363
 31
0.0
  0
LINE
  5
6CD
102
{ACAD_REACTORS
330
684
102
}
330
18
100
AcDbEntity
  8
ROGO
 62
     4
100
AcDbLine
 10
201.1793930206983
 20
200.4291177132937
 30
0.0
 11
202.0011598314034
 21
200.4295479894288
 31
0.0
  0
LINE
  5
6CE
102
{ACAD_REACTORS
330
688
102
}
330
18
100
AcDbEntity
  8
ROGO
 62
     4
100
AcDbLine
 10
204.6904747900308
 20
199.6063861202063
 30
0.0
 11
205.8215036499964
 21
199.6069783255867
 31
0.0
  0
LINE
  5
6CF
102
{ACAD_REACTORS
330
687
102
}
330
18
100
AcDbEntity
  8
ROGO
 62
     4
100
AcDbLine
 10
193.6096453488656
 20
200.9137293215085
 30
0.0
 11
195.222143440813
 21
200.9145736236123
 31
0.0
  0
TEXT
  5
6D0
330
18
100
AcDbEntity
  8
文字
100
AcDbText
 10
192.9860896733576
 20
207.0516596293956
 30
0.0
 40
2.0
  1
.1
 50
0.030000000000189
  7
STYLE3
100
AcDbText
  0
LINE
  5
6D1
330
18
100
AcDbEntity
  8
目盛
100
AcDbLine
 10
194.5506524019197
 20
213.3312264346384
 30
0.0
 11
195.0490464059375
 21
211.3943208053529
 31
0.0
  0
LINE
  5
6D2
330
18
100
AcDbEntity
  8
目盛
100
AcDbLine
 10
187.3443071874665
 20
210.0728932569912
 30
0.0
 11
188.4693399057849
 21
208.4193209475008
 31
0.0
  0
LINE
  5
6D3
330
18
100
AcDbEntity
  8
目盛
100
AcDbLine
 10
188.5638667714002
 20
210.8477453358578
 30
0.0
 11
189.5828508302461
 21
209.126794584727
 31
0.0
  0
LINE
  5
6D4
330
18
100
AcDbEntity
  8
目盛
100
AcDbLine
 10
187.9480008048606
 20
210.4698984828676
 30
0.0
 11
189.0205384260143
 21
208.7818039798229
 31
0.0
  0
LINE
  5
6D5
330
18
100
AcDbEntity
  8
目盛
100
AcDbLine
 10
189.1912973017298
 20
211.2060609267354
 30
0.0
 11
190.1557221840254
 21
209.4539522981369
 31
0.0
  0
LINE
  5
6D6
330
18
100
AcDbEntity
  8
目盛
100
AcDbLine
 10
189.8296731976674
 20
211.5444916412727
 30
0.0
 11
191.1930440999014
 21
208.8721855616961
 31
0.0
  0
TEXT
  5
6D7
330
18
100
AcDbEntity
  8
文字
100
AcDbText
 10
187.8837178726993
 20
204.8135126487886
 30
0.0
 40
2.0
  1
.2
 50
0.030000000000189
  7
STYLE3
100
AcDbText
  0
LINE
  5
6D8
330
18
100
AcDbEntity
  8
目盛
100
AcDbLine
 10
185.0629792146087
 20
208.3013999068657
 30
0.0
 11
186.386388278393
 21
206.8018704973864
 31
0.0
  0
LINE
  5
6D9
330
18
100
AcDbEntity
  8
目盛
100
AcDbLine
 10
186.1758074903801
 20
209.2229933918321
 30
0.0
 11
187.4024488780103
 21
207.6433254184425
 31
0.0
  0
LINE
  5
6DA
330
18
100
AcDbEntity
  8
目盛
100
AcDbLine
 10
186.7533816919326
 20
209.6571214544553
 30
0.0
 11
188.5180080079581
 21
207.2309940948984
 31
0.0
  0
LINE
  5
6DB
330
18
100
AcDbEntity
  8
目盛
100
AcDbLine
 10
184.5288233675449
 20
207.8148439860267
 30
0.0
 11
185.8986807658562
 21
206.3576237870551
 31
0.0
  0
LINE
  5
6DC
330
18
100
AcDbEntity
  8
目盛
100
AcDbLine
 10
185.6121545788144
 20
208.7709375011066
 30
0.0
 11
186.8878092631023
 21
207.2305787356062
 31
0.0
  0
LINE
  5
6DD
330
18
100
AcDbEntity
  8
目盛
100
AcDbLine
 10
184.010214184954
 20
207.3117499105414
 30
0.0
 11
186.1326449584115
 21
205.1915405784514
 31
0.0
  0
LINE
  5
6DE
330
18
100
AcDbEntity
  8
目盛
100
AcDbLine
 10
183.0216671840252
 20
206.2579490992662
 30
0.0
 11
184.5225816417734
 21
204.9361110643607
 31
0.0
  0
LINE
  5
6DF
330
18
100
AcDbEntity
  8
目盛
100
AcDbLine
 10
183.5076634714873
 20
206.7926141735222
 30
0.0
 11
184.9663173824995
 21
205.4242835234638
 31
0.0
  0
LINE
  5
6E0
330
18
100
AcDbEntity
  8
目盛
100
AcDbLine
 10
182.5527049422287
 20
205.7082823376506
 30
0.0
 11
184.0943987253503
 21
204.4342414124507
 31
0.0
  0
LINE
  5
6E1
330
18
100
AcDbEntity
  8
目盛
100
AcDbLine
 10
191.1367309065955
 20
212.1603824338814
 30
0.0
 11
191.9319876493375
 21
210.3252893264006
 31
0.0
  0
LINE
  5
6E2
330
18
100
AcDbEntity
  8
目盛
100
AcDbLine
 10
191.8041228114304
 20
212.4372347020983
 30
0.0
 11
192.541345475491
 21
210.5780674843379
 31
0.0
  0
LINE
  5
6E3
330
18
100
AcDbEntity
  8
目盛
100
AcDbLine
 10
190.4783644592749
 20
211.8627034892132
 30
0.0
 11
191.3308704583058
 21
210.0534955073558
 31
0.0
  0
LINE
  5
6E4
330
18
100
AcDbEntity
  8
目盛
100
AcDbLine
 10
192.4798815385452
 20
212.6929870740997
 30
0.0
 11
193.1583425741612
 21
210.8115805196433
 31
0.0
  0
LINE
  5
6E5
330
18
100
AcDbEntity
  8
目盛
100
AcDbLine
 10
193.1633401956613
 20
212.9273871531718
 30
0.0
 11
194.0918849677219
 21
210.0747033981301
 31
0.0
  0
LINE
  5
6E6
330
18
100
AcDbEntity
  8
目盛
100
AcDbLine
 10
193.8538242915994
 20
213.140203614736
 30
0.0
 11
194.412812044341
 21
211.2199086654417
 31
0.0
  0
TEXT
  5
6E7
330
18
100
AcDbEntity
  8
文字
100
AcDbText
 10
199.2915596525916
 20
207.9777006728436
 30
0.0
 40
2.0
  1
0
 50
0.030000000000189
  7
STYLE3
100
AcDbText
  0
LINE
  5
6E8
102
{ACAD_REACTORS
330
684
102
}
330
18
100
AcDbEntity
  8
ROGO
 62
     4
100
AcDbLine
 10
200.9294871194181
 20
200.9175619820474
 30
0.0
 11
202.2445232812618
 21
200.9182505334347
 31
0.0
  0
LINE
  5
6E9
102
{ACAD_REACTORS
330
686
102
}
330
18
100
AcDbEntity
  8
ROGO
 62
     4
100
AcDbLine
 10
198.4653444031292
 20
200.9162717598205
 30
0.0
 11
199.5157477419135
 21
200.9168217497728
 31
0.0
  0
LINE
  5
6EA
102
{ACAD_REACTORS
330
685
102
}
330
18
100
AcDbEntity
  8
ROGO
 62
     4
100
AcDbLine
 10
196.1747673034348
 20
200.9150724163459
 30
0.0
 11
197.9508502084573
 21
200.9160023712653
 31
0.0
  0
LINE
  5
6EB
102
{ACAD_REACTORS
330
688
102
}
330
18
100
AcDbEntity
  8
ROGO
 62
     4
100
AcDbLine
 10
205.1605563103601
 20
200.9197773648978
 30
0.0
 11
206.4755924722038
 21
200.920465916285
 31
0.0
  0
TEXT
  5
6EC
330
18
100
AcDbEntity
  8
文字
100
AcDbText
 10
203.9720014121429
 20
207.2058589468788
 30
0.0
 40
2.0
  1
.9
 50
0.030000000000189
  7
STYLE3
100
AcDbText
  0
LINE
  5
6ED
102
{ACAD_REACTORS
330
689
102
}
330
18
100
AcDbEntity
  8
ROGO
 62
     4
100
AcDbLine
 10
202.9737456334788
 20
200.9241095733234
 30
0.0
 11
203.7241993537937
 21
200.9245025100085
 31
0.0
  0
LINE
  5
6EE
330
18
100
AcDbEntity
  8
目盛
100
AcDbLine
 10
200.9925939789853
 20
214.0458377076172
 30
0.0
 11
200.930819150215
 21
212.0467919676376
 31
0.0
  0
LINE
  5
6EF
330
18
100
AcDbEntity
  8
目盛
100
AcDbLine
 10
200.2701406768391
 20
214.0568085450622
 30
0.0
 11
200.2717114730941
 21
211.0568089562956
 31
0.0
  0
LINE
  5
6F0
330
18
100
AcDbEntity
  8
目盛
100
AcDbLine
 10
195.2531368414065
 20
213.5002670964185
 30
0.0
 11
195.6904452419909
 21
211.5486622791518
 31
0.0
  0
LINE
  5
6F1
330
18
100
AcDbEntity
  8
目盛
100
AcDbLine
 10
196.6722967406173
 20
213.7717565130823
 30
0.0
 11
197.1431515285535
 21
210.8089376241391
 31
0.0
  0
LINE
  5
6F2
330
18
100
AcDbEntity
  8
目盛
100
AcDbLine
 10
198.1057032134623
 20
213.9536004200315
 30
0.0
 11
198.2949623643028
 21
211.962575313755
 31
0.0
  0
LINE
  5
6F3
330
18
100
AcDbEntity
  8
目盛
100
AcDbLine
 10
199.5476992594544
 20
214.0450811624421
 30
0.0
 11
199.6115674497737
 21
212.0461012089994
 31
0.0
  0
LINE
  5
6F4
330
18
100
AcDbEntity
  8
目盛
100
AcDbLine
 10
197.3875716608582
 20
213.8739373406892
 30
0.0
 11
197.639277033664
 21
211.8898394587032
 31
0.0
  0
LINE
  5
6F5
330
18
100
AcDbEntity
  8
目盛
100
AcDbLine
 10
195.9605843427296
 20
213.6471587773513
 30
0.0
 11
196.336375569286
 21
211.6827807704384
 31
0.0
  0
LINE
  5
6F6
330
18
100
AcDbEntity
  8
目盛
100
AcDbLine
 10
198.8259826892885
 20
214.0106671332679
 30
0.0
 11
198.952608842231
 21
212.0146797041014
 31
0.0
  0
LINE
  5
6F7
330
18
100
AcDbEntity
  8
目盛
100
AcDbLine
 10
205.2877245701278
 20
213.5055211947468
 30
0.0
 11
204.8524601247365
 21
211.5534594993647
 31
0.0
  0
LINE
  5
6F8
330
18
100
AcDbEntity
  8
目盛
100
AcDbLine
 10
206.6874134102033
 20
213.1469232668989
 30
0.0
 11
206.1304368917619
 21
211.2260440000252
 31
0.0
  0
LINE
  5
6F9
330
18
100
AcDbEntity
  8
目盛
100
AcDbLine
 10
205.9903856433689
 20
213.3372162655042
 30
0.0
 11
205.494020235087
 21
211.3997897813606
 31
0.0
  0
LINE
  5
6FA
330
18
100
AcDbEntity
  8
目盛
100
AcDbLine
 10
201.7143461917063
 20
214.0121794769995
 30
0.0
 11
201.5898103009603
 21
212.0160605396823
 31
0.0
  0
LINE
  5
6FB
330
18
100
AcDbEntity
  8
目盛
100
AcDbLine
 10
202.4346850327066
 20
213.9558670698189
 30
0.0
 11
202.2475109818737
 21
211.9646448635608
 31
0.0
  0
LINE
  5
6FC
330
18
100
AcDbEntity
  8
目盛
100
AcDbLine
 10
203.868281146058
 20
213.7755243220504
 30
0.0
 11
203.4005292724148
 21
210.8122139797636
 31
0.0
  0
LINE
  5
6FD
330
18
100
AcDbEntity
  8
目盛
100
AcDbLine
 10
204.580123632125
 20
213.651671957982
 30
0.0
 11
204.2063897030821
 21
211.6869015005795
 31
0.0
  0
LINE
  5
6FE
330
18
100
AcDbEntity
  8
目盛
100
AcDbLine
 10
203.1528996145173
 20
213.8769560596224
 30
0.0
 11
202.903272121788
 21
211.8925956803381
 31
0.0
  0
LINE
  5
6FF
330
18
100
AcDbEntity
  8
目盛
100
AcDbLine
 10
221.6714729319606
 20
182.6011452322933
 30
0.0
 11
219.8115347159753
 21
183.3364205771245
 31
0.0
  0
LINE
  5
700
330
18
100
AcDbEntity
  8
目盛
100
AcDbLine
 10
220.0853776248253
 20
179.359226459864
 30
0.0
 11
218.3633607398951
 21
180.3764077849066
 31
0.0
  0
LINE
  5
701
330
18
100
AcDbEntity
  8
目盛
100
AcDbLine
 10
219.7081759122274
 20
178.7429651507844
 30
0.0
 11
218.0189591762187
 21
179.8137344157467
 31
0.0
  0
LINE
  5
702
330
18
100
AcDbEntity
  8
目盛
100
AcDbLine
 10
221.3953197065857
 20
181.9334637744322
 30
0.0
 11
219.5593948145459
 21
182.7267983764688
 31
0.0
  0
LINE
  5
703
330
18
100
AcDbEntity
  8
目盛
100
AcDbLine
 10
220.7807979990588
 20
180.6257618229669
 30
0.0
 11
218.1070656663285
 21
181.9863335457779
 31
0.0
  0
LINE
  5
704
330
18
100
AcDbEntity
  8
目盛
100
AcDbLine
 10
221.0983303647439
 20
181.2747859594971
 30
0.0
 11
219.2882306328643
 21
182.1253968932671
 31
0.0
  0
LINE
  5
705
330
18
100
AcDbEntity
  8
目盛
100
AcDbLine
 10
220.4430359756401
 20
179.9870318733076
 30
0.0
 11
218.6899183645519
 21
180.9496214232679
 31
0.0
  0
LINE
  5
706
330
18
100
AcDbEntity
  8
目盛
100
AcDbLine
 10
215.5013876816462
 20
173.812223488839
 30
0.0
 11
214.177978617862
 21
175.3117528983184
 31
0.0
  0
LINE
  5
707
330
18
100
AcDbEntity
  8
目盛
100
AcDbLine
 10
214.3885594058751
 20
172.8906300038727
 30
0.0
 11
213.1619180182447
 21
174.4702979772622
 31
0.0
  0
LINE
  5
708
330
18
100
AcDbEntity
  8
目盛
100
AcDbLine
 10
214.9522123174409
 20
173.3426858945984
 30
0.0
 11
213.676557633153
 21
174.8830446600986
 31
0.0
  0
LINE
  5
709
330
18
100
AcDbEntity
  8
目盛
100
AcDbLine
 10
213.8109852043228
 20
172.4565019412497
 30
0.0
 11
212.0463588882971
 21
174.8826293008064
 31
0.0
  0
LINE
  5
70A
330
18
100
AcDbEntity
  8
目盛
100
AcDbLine
 10
213.2200597087886
 20
172.0407301387133
 30
0.0
 11
212.0950269904702
 21
173.6943024482037
 31
0.0
  0
LINE
  5
70B
330
18
100
AcDbEntity
  8
目盛
100
AcDbLine
 10
212.6163660913945
 20
171.6437249128372
 30
0.0
 11
211.543828470241
 21
173.331819415882
 31
0.0
  0
LINE
  5
70C
330
18
100
AcDbEntity
  8
目盛
100
AcDbLine
 10
210.7346936985877
 20
170.569131754432
 30
0.0
 11
209.3713227963536
 21
173.2414378340085
 31
0.0
  0
LINE
  5
70D
330
18
100
AcDbEntity
  8
目盛
100
AcDbLine
 10
208.0844853577097
 20
169.4206363216049
 30
0.0
 11
207.4060243220938
 21
171.3020428760613
 31
0.0
  0
LINE
  5
70E
330
18
100
AcDbEntity
  8
目盛
100
AcDbLine
 10
208.7602440848248
 20
169.6763886936064
 30
0.0
 11
208.0230214207641
 21
171.535555911367
 31
0.0
  0
LINE
  5
70F
330
18
100
AcDbEntity
  8
目盛
100
AcDbLine
 10
209.4276359896594
 20
169.9532409618229
 30
0.0
 11
208.6323792469175
 21
171.7883340693038
 31
0.0
  0
LINE
  5
710
330
18
100
AcDbEntity
  8
目盛
100
AcDbLine
 10
210.0860024369799
 20
170.2509199064916
 30
0.0
 11
209.2334964379494
 21
172.060127888349
 31
0.0
  0
LINE
  5
711
330
18
100
AcDbEntity
  8
目盛
100
AcDbLine
 10
211.3730695945251
 20
170.9075624689693
 30
0.0
 11
210.4086447122297
 21
172.659671097568
 31
0.0
  0
LINE
  5
712
330
18
100
AcDbEntity
  8
目盛
100
AcDbLine
 10
212.0005001248548
 20
171.2658780598468
 30
0.0
 11
210.9815160660089
 21
172.9868288109777
 31
0.0
  0
TEXT
  5
713
330
18
100
AcDbEntity
  8
文字
100
AcDbText
 10
212.8725256517247
 20
179.6433212887394
 30
0.0
 40
2.0
  1
.3
 50
0.030000000000189
  7
STYLE3
100
AcDbText
  0
TEXT
  5
714
330
18
100
AcDbEntity
  8
文字
100
AcDbText
 10
209.5022395835656
 20
175.7950116437383
 30
0.0
 40
2.0
  1
.2
 50
0.030000000000189
  7
STYLE3
100
AcDbText
  0
LINE
  5
715
330
18
100
AcDbEntity
  8
目盛
100
AcDbLine
 10
219.3118030903953
 20
178.1388561215773
 30
0.0
 11
217.6570535562851
 21
179.2621566064708
 31
0.0
  0
LINE
  5
716
330
18
100
AcDbEntity
  8
目盛
100
AcDbLine
 10
218.4631273410436
 20
176.9694670522976
 30
0.0
 11
216.8821756981812
 21
178.1944535432155
 31
0.0
  0
LINE
  5
717
330
18
100
AcDbEntity
  8
目盛
100
AcDbLine
 10
217.5426997122296
 20
175.8556742964382
 30
0.0
 11
216.0417852544815
 21
177.1775123313439
 31
0.0
  0
LINE
  5
718
330
18
100
AcDbEntity
  8
目盛
100
AcDbLine
 10
216.554152711301
 20
174.8018734851634
 30
0.0
 11
214.4317219378436
 21
176.9220828172533
 31
0.0
  0
LINE
  5
719
330
18
100
AcDbEntity
  8
目盛
100
AcDbLine
 10
216.0355435287106
 20
174.298779409678
 30
0.0
 11
214.6656861303991
 21
175.7559996086498
 31
0.0
  0
LINE
  5
71A
330
18
100
AcDbEntity
  8
目盛
100
AcDbLine
 10
217.0567034247679
 20
175.3210092221826
 30
0.0
 11
215.5980495137557
 21
176.6893398722408
 31
0.0
  0
LINE
  5
71B
330
18
100
AcDbEntity
  8
目盛
100
AcDbLine
 10
218.0116619540266
 20
176.4053410580542
 30
0.0
 11
216.4699681709051
 21
177.6793819832541
 31
0.0
  0
LINE
  5
71C
330
18
100
AcDbEntity
  8
目盛
100
AcDbLine
 10
218.8966503314506
 20
177.5474955549209
 30
0.0
 11
216.4686763901479
 21
179.3095802692165
 31
0.0
  0
LINE
  5
71D
330
18
100
AcDbEntity
  8
目盛
100
AcDbLine
 10
220.7698633915479
 20
201.5093219483122
 30
0.0
 11
218.0975573119713
 21
200.1459510460782
 31
0.0
  0
LINE
  5
71E
330
18
100
AcDbEntity
  8
目盛
100
AcDbLine
 10
221.0880752394885
 20
200.8606306867047
 30
0.0
 11
219.278867257631
 21
200.0081246876744
 31
0.0
  0
TEXT
  5
71F
330
18
100
AcDbEntity
  8
文字
100
AcDbText
 10
213.2823412421902
 20
200.431014754968
 30
0.0
 40
2.0
  1
.7
 50
0.030000000000189
  7
STYLE3
100
AcDbText
  0
LINE
  5
720
102
{ACAD_REACTORS
330
60B
102
}
330
18
100
AcDbEntity
  8
ROGO
 62
     4
100
AcDbLine
 10
207.3951152092563
 20
200.6969239377779
 30
0.0
 11
207.7490109454303
 21
200.9211326766993
 31
0.0
  0
LINE
  5
721
102
{ACAD_REACTORS
330
60B
102
}
330
18
100
AcDbEntity
  8
ROGO
 62
     4
100
AcDbLine
 10
207.5067032024877
 20
200.9210058046503
 30
0.0
 11
207.3951152092563
 21
200.6969239377779
 31
0.0
  0
LINE
  5
722
330
18
100
AcDbEntity
  8
目盛
100
AcDbLine
 10
222.1527589034468
 20
198.1756549503187
 30
0.0
 11
219.3000751484053
 21
197.2471101782579
 31
0.0
  0
LINE
  5
723
330
18
100
AcDbEntity
  8
目盛
100
AcDbLine
 10
221.3857541841568
 20
200.2022642393841
 30
0.0
 11
219.5506610766758
 21
199.4070074966422
 31
0.0
  0
LINE
  5
724
330
18
100
AcDbEntity
  8
目盛
100
AcDbLine
 10
222.160201745422
 20
183.9608751576026
 30
0.0
 11
219.3065471849052
 21
184.8864320976351
 31
0.0
  0
TEXT
  5
725
330
18
100
AcDbEntity
  8
文字
100
AcDbText
 10
216.451323935543
 20
189.9673337919103
 30
0.0
 40
2.0
  1
.5
 50
0.030000000000189
  7
STYLE3
100
AcDbText
  0
TEXT
  5
726
330
18
100
AcDbEntity
  8
文字
100
AcDbText
 10
215.416900221173
 20
184.7507905843038
 30
0.0
 40
2.0
  1
.4
 50
0.030000000000189
  7
STYLE3
100
AcDbText
  0
TEXT
  5
727
330
18
100
AcDbEntity
  8
文字
100
AcDbText
 10
215.8928318994015
 20
195.5736757322448
 30
0.0
 40
2.0
  1
.6
 50
0.030000000000189
  7
STYLE3
100
AcDbText
  0
LINE
  5
728
330
18
100
AcDbEntity
  8
目盛
100
AcDbLine
 10
223.2712094578924
 20
190.3464011669945
 30
0.0
 11
221.2721637179128
 21
190.4081759957648
 31
0.0
  0
LINE
  5
729
330
18
100
AcDbEntity
  8
目盛
100
AcDbLine
 10
223.2375512272745
 20
189.6246489542738
 30
0.0
 11
221.2414322899575
 21
189.7491848450199
 31
0.0
  0
LINE
  5
72A
330
18
100
AcDbEntity
  8
目盛
100
AcDbLine
 10
223.2704529127173
 20
191.7912958865254
 30
0.0
 11
221.2714729592747
 21
191.7274276962059
 31
0.0
  0
LINE
  5
72B
330
18
100
AcDbEntity
  8
目盛
100
AcDbLine
 10
220.282180706571
 20
191.067283672886
 30
0.0
 11
223.2821802953374
 21
191.068854469141
 31
0.0
  0
LINE
  5
72C
330
18
100
AcDbEntity
  8
目盛
100
AcDbLine
 10
223.181238820094
 20
188.9043101132734
 30
0.0
 11
221.190016613836
 21
189.0914841641063
 31
0.0
  0
LINE
  5
72D
330
18
100
AcDbEntity
  8
目盛
100
AcDbLine
 10
223.1023278098976
 20
188.186095531463
 30
0.0
 11
221.1179674306134
 21
188.4357230241924
 31
0.0
  0
LINE
  5
72E
330
18
100
AcDbEntity
  8
目盛
100
AcDbLine
 10
222.3722950171741
 20
184.6515817357767
 30
0.0
 11
220.4514157503004
 21
185.2085582542179
 31
0.0
  0
LINE
  5
72F
330
18
100
AcDbEntity
  8
目盛
100
AcDbLine
 10
221.9265175109753
 20
183.2771714120903
 30
0.0
 11
220.0444015055101
 21
183.9536618717218
 31
0.0
  0
LINE
  5
730
330
18
100
AcDbEntity
  8
目盛
100
AcDbLine
 10
222.5625880157795
 20
185.3486095026111
 30
0.0
 11
220.6251615316359
 21
185.8449749108929
 31
0.0
  0
LINE
  5
731
330
18
100
AcDbEntity
  8
目盛
100
AcDbLine
 10
223.0008960723256
 20
187.470713999922
 30
0.0
 11
220.0375857300389
 21
187.9384658735649
 31
0.0
  0
LINE
  5
732
330
18
100
AcDbEntity
  8
目盛
100
AcDbLine
 10
222.7308929450221
 20
186.0512705758521
 30
0.0
 11
220.7788312496399
 21
186.4865350212435
 31
0.0
  0
LINE
  5
733
330
18
100
AcDbEntity
  8
目盛
100
AcDbLine
 10
222.8770437082572
 20
186.7588715138549
 30
0.0
 11
220.9122732508546
 21
187.1326054428982
 31
0.0
  0
LINE
  5
734
330
18
100
AcDbEntity
  8
目盛
100
AcDbLine
 10
222.7256388466938
 20
196.0858583045732
 30
0.0
 11
220.774034029427
 21
195.6485499039888
 31
0.0
  0
LINE
  5
735
330
18
100
AcDbEntity
  8
目盛
100
AcDbLine
 10
222.9971282633575
 20
194.6666984053624
 30
0.0
 11
220.0343093744143
 21
194.1958436174262
 31
0.0
  0
LINE
  5
736
330
18
100
AcDbEntity
  8
目盛
100
AcDbLine
 10
223.1789721703067
 20
193.2332919325174
 30
0.0
 11
221.1879470640303
 21
193.044032781677
 31
0.0
  0
LINE
  5
737
330
18
100
AcDbEntity
  8
目盛
100
AcDbLine
 10
223.236038883543
 20
192.5130124566917
 30
0.0
 11
221.2400514543765
 21
192.3863863037491
 31
0.0
  0
LINE
  5
738
330
18
100
AcDbEntity
  8
目盛
100
AcDbLine
 10
222.8725305276264
 20
195.3784108032502
 30
0.0
 11
220.9081525207134
 21
195.0026195766939
 31
0.0
  0
LINE
  5
739
330
18
100
AcDbEntity
  8
目盛
100
AcDbLine
 10
223.0993090909644
 20
193.951423485122
 30
0.0
 11
221.1152112089783
 21
193.6997181123161
 31
0.0
  0
LINE
  5
73A
330
18
100
AcDbEntity
  8
目盛
100
AcDbLine
 10
222.3655753650111
 20
197.4851708543804
 30
0.0
 11
220.4452804157169
 21
196.9261831016388
 31
0.0
  0
LINE
  5
73B
330
18
100
AcDbEntity
  8
目盛
100
AcDbLine
 10
222.5565981849138
 20
196.7883427440604
 30
0.0
 11
220.6196925556281
 21
196.2899487400424
 31
0.0
  0
LINE
  5
73C
330
18
100
AcDbEntity
  8
目盛
100
AcDbLine
 10
221.9183588243748
 20
198.8591136074345
 30
0.0
 11
220.0369522699185
 21
198.1806525718186
 31
0.0
  0
LINE
  5
73D
330
18
100
AcDbEntity
  8
目盛
100
AcDbLine
 10
221.6626064523734
 20
199.5348723345495
 30
0.0
 11
219.8034392346129
 21
198.797649670489
 31
0.0
  0
LINE
  5
73E
330
18
100
AcDbEntity
  8
目盛
100
AcDbLine
 10
220.0731170861332
 20
202.7751283745794
 30
0.0
 11
218.3521663350022
 21
201.7561443157336
 31
0.0
  0
LINE
  5
73F
330
18
100
AcDbEntity
  8
目盛
100
AcDbLine
 10
220.4314326770107
 20
202.1476978442501
 30
0.0
 11
218.6793240484122
 21
201.1832729619545
 31
0.0
  0
LINE
  5
740
330
18
100
AcDbEntity
  8
目盛
100
AcDbLine
 10
219.695270233143
 20
203.390994341119
 30
0.0
 11
218.0071757300979
 21
202.3184567199655
 31
0.0
  0
LINE
  5
741
330
18
100
AcDbEntity
  8
目盛
100
AcDbLine
 10
210.7132333230131
 20
211.5554262487836
 30
0.0
 11
209.3526616002021
 21
208.8816939160532
 31
0.0
  0
LINE
  5
742
330
18
100
AcDbEntity
  8
目盛
100
AcDbLine
 10
211.9797686861159
 20
210.86000587455
 30
0.0
 11
210.9625873610735
 21
209.1379889896198
 31
0.0
  0
LINE
  5
743
330
18
100
AcDbEntity
  8
目盛
100
AcDbLine
 10
213.2001390244026
 20
210.0864313401202
 30
0.0
 11
212.076838539509
 21
208.4316818060099
 31
0.0
  0
LINE
  5
744
330
18
100
AcDbEntity
  8
目盛
100
AcDbLine
 10
211.3519632726726
 20
211.2176642253646
 30
0.0
 11
210.389373722712
 21
209.4645466142767
 31
0.0
  0
LINE
  5
745
330
18
100
AcDbEntity
  8
目盛
100
AcDbLine
 10
212.5960299951959
 20
210.4828041619522
 30
0.0
 11
211.5252607302333
 21
208.7935874259433
 31
0.0
  0
LINE
  5
746
330
18
100
AcDbEntity
  8
目盛
100
AcDbLine
 10
213.7914995910592
 20
209.6712785811754
 30
0.0
 11
212.0294148767636
 21
207.2433046398724
 31
0.0
  0
LINE
  5
747
330
18
100
AcDbEntity
  8
目盛
100
AcDbLine
 10
214.3695280936824
 20
209.2377555907682
 30
0.0
 11
213.1445416027644
 21
207.656803947906
 31
0.0
  0
LINE
  5
748
102
{ACAD_REACTORS
330
60B
102
}
330
18
100
AcDbEntity
  8
ROGO
 62
     4
100
AcDbLine
 10
207.7490109454303
 20
200.9211326766993
 30
0.0
 11
208.5050780417904
 21
200.9215285525415
 31
0.0
  0
TEXT
  5
749
330
18
100
AcDbEntity
  8
文字
100
AcDbText
 10
209.5001316880091
 20
204.511046348701
 30
0.0
 40
2.0
  1
.8
 50
0.030000000000189
  7
STYLE3
100
AcDbText
  0
LINE
  5
74A
330
18
100
AcDbEntity
  8
目盛
100
AcDbLine
 10
216.5371216608166
 20
207.3287809610257
 30
0.0
 11
214.4169123287267
 21
205.2063501875683
 31
0.0
  0
LINE
  5
74B
330
18
100
AcDbEntity
  8
目盛
100
AcDbLine
 10
217.5267716571409
 20
206.2760159313711
 30
0.0
 11
216.0272422476614
 21
204.9526068675867
 31
0.0
  0
LINE
  5
74C
330
18
100
AcDbEntity
  8
目盛
100
AcDbLine
 10
218.4483651421072
 20
205.1631876555998
 30
0.0
 11
216.8686971687178
 21
203.9365462679694
 31
0.0
  0
LINE
  5
74D
330
18
100
AcDbEntity
  8
目盛
100
AcDbLine
 10
217.9963092513817
 20
205.7268405671656
 30
0.0
 11
216.4559504858812
 21
204.4511858828775
 31
0.0
  0
LINE
  5
74E
330
18
100
AcDbEntity
  8
目盛
100
AcDbLine
 10
218.8824932047303
 20
204.5856134540474
 30
0.0
 11
216.4563658451735
 21
202.8209871380219
 31
0.0
  0
LINE
  5
74F
330
18
100
AcDbEntity
  8
目盛
100
AcDbLine
 10
215.4833208495416
 20
208.3173279619544
 30
0.0
 11
214.1614828146359
 21
206.8164135042063
 31
0.0
  0
LINE
  5
750
330
18
100
AcDbEntity
  8
目盛
100
AcDbLine
 10
216.0179859237974
 20
207.8313316744925
 30
0.0
 11
214.6496552737392
 21
206.3726777634804
 31
0.0
  0
LINE
  5
751
330
18
100
AcDbEntity
  8
目盛
100
AcDbLine
 10
217.0402157363018
 20
206.8101717784353
 30
0.0
 11
215.5829955373303
 21
205.4403143801238
 31
0.0
  0
LINE
  5
752
330
18
100
AcDbEntity
  8
目盛
100
AcDbLine
 10
214.9336540879259
 20
208.7862902037512
 30
0.0
 11
213.659613162726
 21
207.2445964206297
 31
0.0
  0
LINE
  5
753
330
18
100
AcDbEntity
  8
目盛
100
AcDbLine
 10
219.2982650072666
 20
203.9946879585133
 30
0.0
 11
217.644692697776
 21
202.8696552401949
 31
0.0
  0
LINE
  5
754
330
18
100
AcDbEntity
  8
目盛
100
AcDbLine
 10
210.0642091864832
 20
211.8729586144687
 30
0.0
 11
209.2135982527131
 21
210.0628588825888
 31
0.0
  0
LINE
  5
755
330
18
100
AcDbEntity
  8
目盛
100
AcDbLine
 10
208.0618237338896
 20
212.7011457606999
 30
0.0
 11
207.3853332742581
 21
210.8190297552349
 31
0.0
  0
LINE
  5
756
330
18
100
AcDbEntity
  8
目盛
100
AcDbLine
 10
208.7378499136867
 20
212.4461011816856
 30
0.0
 11
208.0025745688555
 21
210.5861629657001
 31
0.0
  0
LINE
  5
757
330
18
100
AcDbEntity
  8
目盛
100
AcDbLine
 10
209.4055313715477
 20
212.1699479563106
 30
0.0
 11
208.6121967695113
 21
210.3340230642706
 31
0.0
  0
LINE
  5
762
330
18
100
AcDbEntity
  8
外形線
100
AcDbLine
 10
174.8437314147679
 20
183.9967013483981
 30
0.0
 11
168.790189451964
 21
170.7796979281739
 31
0.0
  0
ARC
  5
763
330
18
100
AcDbEntity
  8
外形線
100
AcDbCircle
 10
241.7635124204087
 20
167.2143014257309
 30
0.0
 40
23.30519745874253
100
AcDbArc
 50
166.8720563669733
 51
225.857785375959
  0
LINE
  5
81B
330
18
100
AcDbEntity
  8
握り
100
AcDbLine
 10
321.6088333642696
 20
150.5568116978523
 30
0.0
 11
324.7821834481274
 21
150.5568116978523
 31
0.0
  0
LINE
  5
81C
330
18
100
AcDbEntity
  8
握り
100
AcDbLine
 10
301.6088333642695
 20
150.5568116978523
 30
0.0
 11
308.9555335319853
 21
150.5568116978523
 31
0.0
  0
LINE
  5
81D
330
18
100
AcDbEntity
  8
握り
100
AcDbLine
 10
298.9555335319852
 20
150.5568116978523
 30
0.0
 11
298.9555335319852
 21
143.0101116978524
 31
0.0
  0
LINE
  5
81E
330
18
100
AcDbEntity
  8
握り
100
AcDbLine
 10
311.6088333642697
 20
150.5568116978523
 30
0.0
 11
318.9555335319852
 21
150.5568116978523
 31
0.0
  0
LINE
  5
81F
330
18
100
AcDbEntity
  8
握り
100
AcDbLine
 10
298.9555335319853
 20
140.3568116978523
 30
0.0
 11
298.9555335319851
 21
132.3568116978523
 31
0.0
  0
LINE
  5
820
330
18
100
AcDbEntity
  8
握り
100
AcDbLine
 10
281.6088333642696
 20
150.5568116978523
 30
0.0
 11
288.9555335319852
 21
150.5568116978523
 31
0.0
  0
LINE
  5
821
330
18
100
AcDbEntity
  8
握り
100
AcDbLine
 10
281.6088333642697
 20
143.0101116978523
 30
0.0
 11
288.9555335319852
 21
143.0101116978523
 31
0.0
  0
LINE
  5
822
330
18
100
AcDbEntity
  8
握り
100
AcDbLine
 10
281.6088333642696
 20
150.5568116978523
 30
0.0
 11
281.6088333642697
 21
143.0101116978523
 31
0.0
  0
LINE
  5
823
330
18
100
AcDbEntity
  8
握り
100
AcDbLine
 10
288.9555335319852
 20
150.5568116978523
 30
0.0
 11
288.9555335319853
 21
143.0101116978523
 31
0.0
  0
LINE
  5
824
330
18
100
AcDbEntity
  8
握り
100
AcDbLine
 10
291.6088333642696
 20
150.5568116978523
 30
0.0
 11
291.6088333642697
 21
143.0101116978523
 31
0.0
  0
LINE
  5
825
330
18
100
AcDbEntity
  8
握り
100
AcDbLine
 10
271.6088333642697
 20
150.5568116978523
 30
0.0
 11
278.9555335319852
 21
150.5568116978523
 31
0.0
  0
LINE
  5
826
330
18
100
AcDbEntity
  8
握り
100
AcDbLine
 10
271.6088333642696
 20
143.0101116978523
 30
0.0
 11
278.9555335319853
 21
143.0101116978523
 31
0.0
  0
LINE
  5
827
330
18
100
AcDbEntity
  8
握り
100
AcDbLine
 10
268.9555335319852
 20
150.5568116978523
 30
0.0
 11
268.9555335319854
 21
143.0101116978523
 31
0.0
  0
LINE
  5
828
330
18
100
AcDbEntity
  8
握り
100
AcDbLine
 10
271.6088333642696
 20
150.5568116978523
 30
0.0
 11
271.6088333642697
 21
143.0101116978523
 31
0.0
  0
LINE
  5
829
330
18
100
AcDbEntity
  8
握り
100
AcDbLine
 10
278.9555335319852
 20
150.5568116978523
 30
0.0
 11
278.9555335319853
 21
143.0101116978523
 31
0.0
  0
LINE
  5
82A
330
18
100
AcDbEntity
  8
握り
100
AcDbLine
 10
281.6088333642696
 20
129.7035116978523
 30
0.0
 11
288.9555335319852
 21
129.7035116978523
 31
0.0
  0
LINE
  5
82B
330
18
100
AcDbEntity
  8
握り
100
AcDbLine
 10
271.6088333642693
 20
129.7035116978523
 30
0.0
 11
278.9555335319852
 21
129.7035116978523
 31
0.0
  0
LINE
  5
82C
330
18
100
AcDbEntity
  8
握り
100
AcDbLine
 10
291.6088333642697
 20
150.5568116978523
 30
0.0
 11
298.9555335319851
 21
150.5568116978523
 31
0.0
  0
LINE
  5
82D
330
18
100
AcDbEntity
  8
握り
100
AcDbLine
 10
291.6088333642697
 20
143.0101116978523
 30
0.0
 11
298.9555335319851
 21
143.0101116978523
 31
0.0
  0
LINE
  5
82E
330
18
100
AcDbEntity
  8
握り
100
AcDbLine
 10
291.6088333642696
 20
129.7035116978523
 30
0.0
 11
298.9555335319851
 21
129.7035116978523
 31
0.0
  0
ARC
  5
82F
330
18
100
AcDbEntity
  8
握り
100
AcDbCircle
 10
324.7821834481274
 20
122.6568116978523
 30
0.0
 40
0.5
100
AcDbArc
 50
270.0
 51
0.0
  0
ARC
  5
830
330
18
100
AcDbEntity
  8
握り
100
AcDbCircle
 10
320.2821834481274
 20
122.8568116978523
 30
0.0
 40
1.5
100
AcDbArc
 50
207.8181392846543
 51
332.1818607153458
  0
LINE
  5
831
330
18
100
AcDbEntity
  8
握り
100
AcDbLine
 10
321.6088333642696
 20
122.1568116978523
 30
0.0
 11
324.7821834481274
 21
122.1568116978523
 31
0.0
  0
ARC
  5
832
330
18
100
AcDbEntity
  8
握り
100
AcDbCircle
 10
310.2821834481274
 20
122.8568116978523
 30
0.0
 40
1.5
100
AcDbArc
 50
207.8181392846543
 51
332.1818607153458
  0
ARC
  5
833
330
18
100
AcDbEntity
  8
握り
100
AcDbCircle
 10
300.2821834481274
 20
122.8568116978523
 30
0.0
 40
1.5
100
AcDbArc
 50
207.8181392846543
 51
332.1818607153458
  0
LINE
  5
834
330
18
100
AcDbEntity
  8
握り
100
AcDbLine
 10
301.6088333642695
 20
122.1568116978523
 30
0.0
 11
308.9555335319853
 21
122.1568116978523
 31
0.0
  0
LINE
  5
835
330
18
100
AcDbEntity
  8
握り
100
AcDbLine
 10
311.6088333642697
 20
122.1568116978523
 30
0.0
 11
318.9555335319852
 21
122.1568116978523
 31
0.0
  0
ARC
  5
836
330
18
100
AcDbEntity
  8
握り
100
AcDbCircle
 10
290.2821834481274
 20
122.8568116978523
 30
0.0
 40
1.5
100
AcDbArc
 50
207.8181392846543
 51
332.1818607153458
  0
LINE
  5
837
330
18
100
AcDbEntity
  8
握り
100
AcDbLine
 10
281.6088333642696
 20
122.1568116978523
 30
0.0
 11
288.9555335319852
 21
122.1568116978523
 31
0.0
  0
LINE
  5
838
330
18
100
AcDbEntity
  8
握り
100
AcDbLine
 10
271.6088333642697
 20
122.1568116978523
 30
0.0
 11
278.9555335319852
 21
122.1568116978523
 31
0.0
  0
ARC
  5
839
330
18
100
AcDbEntity
  8
握り
100
AcDbCircle
 10
270.2821834481274
 20
122.8568116978523
 30
0.0
 40
1.5
100
AcDbArc
 50
207.8181392846543
 51
332.1818607153458
  0
ARC
  5
83A
330
18
100
AcDbEntity
  8
握り
100
AcDbCircle
 10
280.2821834481274
 20
122.8568116978523
 30
0.0
 40
1.5
100
AcDbArc
 50
207.8181392846543
 51
332.1818607153458
  0
LINE
  5
83B
330
18
100
AcDbEntity
  8
握り
100
AcDbLine
 10
291.6088333642697
 20
122.1568116978523
 30
0.0
 11
298.9555335319851
 21
122.1568116978523
 31
0.0
  0
LINE
  5
83C
330
18
100
AcDbEntity
  8
握り
100
AcDbLine
 10
325.2821834481274
 20
150.0568116978523
 30
0.0
 11
325.2821834481274
 21
122.6568116978523
 31
0.0
  0
LINE
  5
83D
330
18
100
AcDbEntity
  8
握り
100
AcDbLine
 10
301.6088333642696
 20
150.5568116978523
 30
0.0
 11
301.6088333642696
 21
122.1568116978523
 31
0.0
  0
LINE
  5
83E
330
18
100
AcDbEntity
  8
握り
100
AcDbLine
 10
308.9555335319852
 20
150.5568116978523
 30
0.0
 11
308.9555335319852
 21
122.1568116978523
 31
0.0
  0
LINE
  5
83F
330
18
100
AcDbEntity
  8
握り
100
AcDbLine
 10
311.6088333642696
 20
150.5568116978523
 30
0.0
 11
311.6088333642696
 21
122.1568116978523
 31
0.0
  0
LINE
  5
840
330
18
100
AcDbEntity
  8
握り
100
AcDbLine
 10
318.9555335319852
 20
150.5568116978523
 30
0.0
 11
318.9555335319852
 21
122.1568116978523
 31
0.0
  0
LINE
  5
841
330
18
100
AcDbEntity
  8
握り
100
AcDbLine
 10
321.6088333642696
 20
150.5568116978523
 30
0.0
 11
321.6088333642696
 21
122.1568116978523
 31
0.0
  0
LINE
  5
842
330
18
100
AcDbEntity
  8
握り
100
AcDbLine
 10
298.9555335319851
 20
129.7035116978523
 30
0.0
 11
298.9555335319852
 21
122.1568116978523
 31
0.0
  0
LINE
  5
843
330
18
100
AcDbEntity
  8
握り
100
AcDbLine
 10
268.9555335319851
 20
129.7035116978523
 30
0.0
 11
268.9555335319852
 21
122.1568116978523
 31
0.0
  0
LINE
  5
844
330
18
100
AcDbEntity
  8
握り
100
AcDbLine
 10
271.6088333642694
 20
129.7035116978523
 30
0.0
 11
271.6088333642696
 21
122.1568116978523
 31
0.0
  0
LINE
  5
845
330
18
100
AcDbEntity
  8
握り
100
AcDbLine
 10
278.9555335319852
 20
129.7035116978523
 30
0.0
 11
278.9555335319852
 21
122.1568116978523
 31
0.0
  0
LINE
  5
846
330
18
100
AcDbEntity
  8
握り
100
AcDbLine
 10
281.6088333642696
 20
129.7035116978523
 30
0.0
 11
281.6088333642696
 21
122.1568116978523
 31
0.0
  0
LINE
  5
847
330
18
100
AcDbEntity
  8
握り
100
AcDbLine
 10
288.9555335319853
 20
129.7035116978523
 30
0.0
 11
288.9555335319852
 21
122.1568116978523
 31
0.0
  0
LINE
  5
848
330
18
100
AcDbEntity
  8
握り
100
AcDbLine
 10
291.6088333642696
 20
129.7035116978523
 30
0.0
 11
291.6088333642696
 21
122.1568116978523
 31
0.0
  0
LINE
  5
849
330
18
100
AcDbEntity
  8
握り
100
AcDbLine
 10
251.6088333642696
 20
150.5568116978523
 30
0.0
 11
258.9555335319852
 21
150.5568116978523
 31
0.0
  0
LINE
  5
84A
330
18
100
AcDbEntity
  8
握り
100
AcDbLine
 10
251.6088333642697
 20
143.0101116978523
 30
0.0
 11
258.9555335319854
 21
143.0101116978523
 31
0.0
  0
LINE
  5
84B
330
18
100
AcDbEntity
  8
握り
100
AcDbLine
 10
251.6088333642696
 20
150.5568116978523
 30
0.0
 11
251.6088333642696
 21
143.0101116978523
 31
0.0
  0
LINE
  5
84C
330
18
100
AcDbEntity
  8
握り
100
AcDbLine
 10
258.9555335319852
 20
150.5568116978523
 30
0.0
 11
258.9555335319853
 21
143.0101116978523
 31
0.0
  0
LINE
  5
84D
330
18
100
AcDbEntity
  8
握り
100
AcDbLine
 10
261.6088333642696
 20
150.5568116978523
 30
0.0
 11
261.6088333642697
 21
143.0101116978523
 31
0.0
  0
LINE
  5
84E
330
18
100
AcDbEntity
  8
握り
100
AcDbLine
 10
231.6088333642696
 20
150.5568116978523
 30
0.0
 11
238.9555335319853
 21
150.5568116978523
 31
0.0
  0
LINE
  5
84F
330
18
100
AcDbEntity
  8
握り
100
AcDbLine
 10
241.6088333642696
 20
150.5568116978523
 30
0.0
 11
248.9555335319852
 21
150.5568116978523
 31
0.0
  0
LINE
  5
850
330
18
100
AcDbEntity
  8
握り
100
AcDbLine
 10
251.6088333642696
 20
129.7035116978523
 30
0.0
 11
258.9555335319853
 21
129.7035116978523
 31
0.0
  0
LINE
  5
851
330
18
100
AcDbEntity
  8
握り
100
AcDbLine
 10
251.6088333642696
 20
140.3568116978523
 30
0.0
 11
251.6088333642696
 21
132.3568116978523
 31
0.0
  0
LINE
  5
852
330
18
100
AcDbEntity
  8
握り
100
AcDbLine
 10
225.7821834481274
 20
150.5568116978523
 30
0.0
 11
228.9555335319852
 21
150.5568116978523
 31
0.0
  0
ARC
  5
853
330
18
100
AcDbEntity
  8
握り
100
AcDbCircle
 10
260.2821834481274
 20
122.8568116978523
 30
0.0
 40
1.5
100
AcDbArc
 50
207.8181392846543
 51
332.1818607153458
  0
ARC
  5
854
330
18
100
AcDbEntity
  8
握り
100
AcDbCircle
 10
250.2821834481274
 20
122.8568116978523
 30
0.0
 40
1.5
100
AcDbArc
 50
207.8181392846543
 51
332.1818607153458
  0
LINE
  5
855
330
18
100
AcDbEntity
  8
握り
100
AcDbLine
 10
251.6088333642696
 20
122.1568116978523
 30
0.0
 11
258.9555335319852
 21
122.1568116978523
 31
0.0
  0
ARC
  5
856
330
18
100
AcDbEntity
  8
握り
100
AcDbCircle
 10
240.2821834481274
 20
122.8568116978523
 30
0.0
 40
1.5
100
AcDbArc
 50
207.8181392846543
 51
332.1818607153458
  0
ARC
  5
857
330
18
100
AcDbEntity
  8
握り
100
AcDbCircle
 10
230.2821834481274
 20
122.8568116978523
 30
0.0
 40
1.5
100
AcDbArc
 50
207.8181392846543
 51
332.1818607153458
  0
LINE
  5
858
330
18
100
AcDbEntity
  8
握り
100
AcDbLine
 10
231.6088333642696
 20
122.1568116978524
 30
0.0
 11
238.9555335319853
 21
122.1568116978523
 31
0.0
  0
LINE
  5
859
330
18
100
AcDbEntity
  8
握り
100
AcDbLine
 10
241.6088333642696
 20
122.1568116978523
 30
0.0
 11
248.9555335319852
 21
122.1568116978523
 31
0.0
  0
ARC
  5
85A
330
18
100
AcDbEntity
  8
握り
100
AcDbCircle
 10
225.7821834481274
 20
122.6568116978523
 30
0.0
 40
0.5
100
AcDbArc
 50
180.0
 51
270.0
  0
LINE
  5
85B
330
18
100
AcDbEntity
  8
握り
100
AcDbLine
 10
225.7821834481274
 20
122.1568116978523
 30
0.0
 11
228.9555335319853
 21
122.1568116978524
 31
0.0
  0
LINE
  5
85C
330
18
100
AcDbEntity
  8
握り
100
AcDbLine
 10
225.2821834481274
 20
150.0568116978523
 30
0.0
 11
225.2821834481274
 21
122.6568116978523
 31
0.0
  0
LINE
  5
85D
330
18
100
AcDbEntity
  8
握り
100
AcDbLine
 10
231.6088333642696
 20
150.5568116978523
 30
0.0
 11
231.6088333642696
 21
122.1568116978523
 31
0.0
  0
LINE
  5
85E
330
18
100
AcDbEntity
  8
握り
100
AcDbLine
 10
228.9555335319852
 20
150.5568116978523
 30
0.0
 11
228.9555335319852
 21
122.1568116978523
 31
0.0
  0
LINE
  5
85F
330
18
100
AcDbEntity
  8
握り
100
AcDbLine
 10
238.9555335319852
 20
150.5568116978523
 30
0.0
 11
238.9555335319852
 21
122.1568116978523
 31
0.0
  0
LINE
  5
860
330
18
100
AcDbEntity
  8
握り
100
AcDbLine
 10
241.6088333642696
 20
150.5568116978523
 30
0.0
 11
241.6088333642696
 21
122.1568116978523
 31
0.0
  0
LINE
  5
861
330
18
100
AcDbEntity
  8
握り
100
AcDbLine
 10
248.9555335319852
 20
150.5568116978523
 30
0.0
 11
248.9555335319852
 21
122.1568116978523
 31
0.0
  0
LINE
  5
862
330
18
100
AcDbEntity
  8
握り
100
AcDbLine
 10
251.6088333642696
 20
129.7035116978523
 30
0.0
 11
251.6088333642696
 21
122.1568116978523
 31
0.0
  0
LINE
  5
863
330
18
100
AcDbEntity
  8
握り
100
AcDbLine
 10
258.9555335319852
 20
129.7035116978523
 30
0.0
 11
258.9555335319852
 21
122.1568116978523
 31
0.0
  0
LINE
  5
864
330
18
100
AcDbEntity
  8
握り
100
AcDbLine
 10
261.6088333642695
 20
129.7035116978523
 30
0.0
 11
261.6088333642696
 21
122.1568116978523
 31
0.0
  0
LINE
  5
865
330
18
100
AcDbEntity
  8
握り
100
AcDbLine
 10
261.6088333642696
 20
150.5568116978523
 30
0.0
 11
268.9555335319852
 21
150.5568116978523
 31
0.0
  0
LINE
  5
866
330
18
100
AcDbEntity
  8
握り
100
AcDbLine
 10
261.6088333642696
 20
122.1568116978523
 30
0.0
 11
268.9555335319852
 21
122.1568116978523
 31
0.0
  0
LINE
  5
867
330
18
100
AcDbEntity
  8
握り
100
AcDbLine
 10
251.6088333642696
 20
140.3568116978523
 30
0.0
 11
298.9555335319853
 21
140.3568116978523
 31
0.0
  0
LINE
  5
868
330
18
100
AcDbEntity
  8
握り
100
AcDbLine
 10
251.6088333642696
 20
132.3568116978523
 30
0.0
 11
298.9555335319851
 21
132.3568116978523
 31
0.0
  0
LINE
  5
869
330
18
100
AcDbEntity
  8
握り
100
AcDbLine
 10
261.6088333642697
 20
143.0101116978523
 30
0.0
 11
268.9555335319854
 21
143.0101116978523
 31
0.0
  0
LINE
  5
86A
330
18
100
AcDbEntity
  8
握り
100
AcDbLine
 10
261.6088333642696
 20
129.7035116978523
 30
0.0
 11
268.955533531985
 21
129.7035116978523
 31
0.0
  0
ARC
  5
86B
330
18
100
AcDbEntity
  8
握り
100
AcDbCircle
 10
324.7821834481274
 20
150.0568116978523
 30
0.0
 40
0.5
100
AcDbArc
 50
0.0
 51
90.0
  0
ARC
  5
86C
330
18
100
AcDbEntity
  8
握り
100
AcDbCircle
 10
225.7821834481274
 20
150.0568116978523
 30
0.0
 40
0.5
100
AcDbArc
 50
90.0
 51
180.0
  0
ARC
  5
86D
330
18
100
AcDbEntity
  8
握り
100
AcDbCircle
 10
230.2821834481274
 20
149.8568116978523
 30
0.0
 40
1.5
100
AcDbArc
 50
27.81813928465427
 51
152.1818607153457
  0
ARC
  5
86E
330
18
100
AcDbEntity
  8
握り
100
AcDbCircle
 10
240.2821834481274
 20
149.8568116978523
 30
0.0
 40
1.5
100
AcDbArc
 50
27.81813928465427
 51
152.1818607153457
  0
ARC
  5
86F
330
18
100
AcDbEntity
  8
握り
100
AcDbCircle
 10
250.2821834481274
 20
149.8568116978523
 30
0.0
 40
1.5
100
AcDbArc
 50
27.81813928465427
 51
152.1818607153457
  0
ARC
  5
870
330
18
100
AcDbEntity
  8
握り
100
AcDbCircle
 10
260.2821834481274
 20
149.8568116978523
 30
0.0
 40
1.5
100
AcDbArc
 50
27.81813928465427
 51
152.1818607153457
  0
ARC
  5
871
330
18
100
AcDbEntity
  8
握り
100
AcDbCircle
 10
270.2821834481274
 20
149.8568116978523
 30
0.0
 40
1.5
100
AcDbArc
 50
27.81813928465427
 51
152.1818607153457
  0
ARC
  5
872
330
18
100
AcDbEntity
  8
握り
100
AcDbCircle
 10
280.2821834481274
 20
149.8568116978523
 30
0.0
 40
1.5
100
AcDbArc
 50
27.81813928465427
 51
152.1818607153457
  0
ARC
  5
873
330
18
100
AcDbEntity
  8
握り
100
AcDbCircle
 10
290.2821834481274
 20
149.8568116978523
 30
0.0
 40
1.5
100
AcDbArc
 50
27.81813928465427
 51
152.1818607153457
  0
ARC
  5
874
330
18
100
AcDbEntity
  8
握り
100
AcDbCircle
 10
300.2821834481274
 20
149.8568116978523
 30
0.0
 40
1.5
100
AcDbArc
 50
27.81813928465427
 51
152.1818607153457
  0
ARC
  5
875
330
18
100
AcDbEntity
  8
握り
100
AcDbCircle
 10
310.2821834481274
 20
149.8568116978523
 30
0.0
 40
1.5
100
AcDbArc
 50
27.81813928465427
 51
152.1818607153457
  0
ARC
  5
876
330
18
100
AcDbEntity
  8
握り
100
AcDbCircle
 10
320.2821834481274
 20
149.8568116978523
 30
0.0
 40
1.5
100
AcDbArc
 50
27.81813928465427
 51
152.1818607153457
  0
HATCH
  5
877
330
18
100
AcDbEntity
  8
ROGO
 62
     4
100
AcDbHatch
 10
0.0
 20
0.0
 30
0.0
210
0.0
220
0.0
230
1.0
  2
SOLID
 70
     1
 71
     1
 91
        2
 92
        5
 93
        6
 72
     4
 94
        3
 73
     0
 74
     0
 95
       38
 96
       34
 40
0.0
 40
0.0
 40
0.0
 40
0.0
 40
0.2582400211805774
 40
0.3393418442955424
 40
0.443552172800835
 40
0.530394283206717
 40
0.6036667919818254
 40
0.7009894053152177
 40
0.7507174249931042
 40
0.8067242281503032
 40
0.8892677166883521
 40
0.9827715778106668
 40
1.043426616793024
 40
1.109318337455068
 40
1.182564491755753
 40
1.293719242428883
 40
1.399327847180614
 40
1.448424760475743
 40
1.50441322219426
 40
1.570741059842362
 40
1.617957956886697
 40
1.657539314700464
 40
1.714052551848318
 40
1.776150918813051
 40
1.838248940024221
 40
1.892584795022379
 40
2.017023561310864
 40
2.066120474605993
 40
2.164314359515976
 40
2.251113385583432
 40
2.417283613623161
 40
2.622320469312984
 40
2.918423525691272
 40
2.918423525691272
 40
2.918423525691272
 40
2.918423525691272
 10
269.5872721391272
 20
137.0767259250559
 10
269.501192999662
 20
137.0706450406261
 10
269.3880801916317
 20
137.062654418073
 10
269.244453373761
 20
137.0233049520659
 10
269.1661608674167
 20
136.976427067126
 10
269.084681865535
 20
136.9419695746967
 10
269.0152134278422
 20
136.8909448614836
 10
268.944947569705
 20
136.86465231835
 10
268.8957452648826
 20
136.8172421635321
 10
268.838797610407
 20
136.7882819947107
 10
268.7934491820708
 20
136.7234607175473
 10
268.7427625013112
 20
136.6628551723209
 10
268.6839595750153
 20
136.6186158272102
 10
268.6356992242161
 20
136.5721515715497
 10
268.5914270628957
 20
136.5004432641442
 10
268.5652248163655
 20
136.4051641574503
 10
268.491365081495
 20
136.3450083656144
 10
268.4802441179477
 20
136.2726831546485
 10
268.4393900462395
 20
136.2300124972333
 10
268.4216252670168
 20
136.1749308086833
 10
268.4148595839828
 20
136.1244662525108
 10
268.406739151065
 20
136.0773358504704
 10
268.3854976364471
 20
136.0277567494163
 10
268.3924309401063
 20
135.966513493795
 10
268.3904558500461
 20
135.9072096166143
 10
268.3916181928649
 20
135.8271475357407
 10
268.3874231366564
 20
135.7491972544272
 10
268.4208770659636
 20
135.6643688599009
 10
268.4406739911105
 20
135.5887560818058
 10
268.49489109103
 20
135.4840610214466
 10
268.5884144521984
 20
135.3632655590052
 10
268.7662569465092
 20
135.2166427543013
 10
268.937257704451
 20
135.2017685532765
 10
269.0382950512085
 20
135.1929799968704
 72
     1
 10
269.0382950512084
 20
135.1929799968704
 11
270.1103719414738
 21
135.1929799968704
 72
     4
 94
        3
 73
     0
 74
     0
 95
       11
 96
        7
 40
0.1647869275458135
 40
0.1647869275458135
 40
0.1647869275458135
 40
0.1647869275458135
 40
0.2545010798212315
 40
0.5111620267764023
 40
0.7602998271033902
 40
0.8850764140209603
 40
0.8850764140209603
 40
0.8850764140209603
 40
0.8850764140209603
 10
270.1103719414733
 20
135.1929799968704
 10
270.1253317990731
 20
135.192691688809
 10
270.1830899345425
 20
135.1915785675136
 10
270.2817992803945
 20
135.2057593254917
 10
270.3856546620205
 20
135.2193484603107
 10
270.4475703926406
 20
135.2292450171449
 10
270.467539739499
 20
135.2348034924541
 72
     4
 94
        3
 73
     0
 74
     0
 95
        9
 96
        5
 40
0.0
 40
0.0
 40
0.0
 40
0.0
 40
0.1622561919360204
 40
0.3804197703110171
 40
0.3804197703110171
 40
0.3804197703110171
 40
0.3804197703110171
 10
270.467539739499
 20
135.2348034924541
 10
270.5196611228104
 20
135.2507496920587
 10
270.6418629594924
 20
135.2881365524215
 10
270.7428296698306
 20
135.3671541492421
 10
270.8007321779105
 20
135.4124692538249
 72
     4
 94
        3
 73
     0
 74
     0
 95
       25
 96
       21
 40
0.0
 40
0.0
 40
0.0
 40
0.0
 40
0.165525918914855
 40
0.3412380755365305
 40
0.5940540902285263
 40
0.7697671103696209
 40
0.9377330196075423
 40
1.11479469302833
 40
1.274661249598185
 40
1.574522170874768
 40
1.815540668866877
 40
2.15849091873445
 40
2.536227739636605
 40
2.738070817316548
 40
2.925680654369045
 40
3.162706124480894
 40
3.395643218188267
 40
3.648478129958861
 40
3.928509979727306
 40
4.337226830236035
 40
4.337226830236035
 40
4.337226830236035
 40
4.337226830236035
 10
270.8007321779105
 20
135.4124692538249
 10
270.8220074027588
 20
135.4300503166044
 10
270.8623606874786
 20
135.4718647783497
 10
270.9339338826782
 20
135.5396367045477
 10
270.9970055395447
 20
135.6185963766249
 10
271.0748089691408
 20
135.6825904235869
 10
271.1153131913394
 20
135.7608278897977
 10
271.1736968303453
 20
135.8223599905106
 10
271.2226711430844
 20
135.9173902504972
 10
271.2642234269415
 20
136.0265499149888
 10
271.3038377919379
 20
136.1688374631366
 10
271.319018425276
 20
136.3293589674874
 10
271.2965492000657
 20
136.4846634423888
 10
271.2422692319588
 20
136.600748436013
 10
271.2023632880029
 20
136.6974933141073
 10
271.1418010185137
 20
136.7891277479319
 10
271.0727076544271
 20
136.8887903284092
 10
270.9753673390566
 20
136.9712274174307
 10
270.8481535410265
 20
137.0706598308242
 10
270.7296633871428
 20
137.0744667972614
 10
270.659349029392
 20
137.0767259250559
 72
     1
 10
270.6593490293921
 20
137.0767259250559
 11
269.5872721391271
 21
137.0767259250558
 97
        6
330
87D
330
87C
330
87E
330
87B
330
87A
330
879
 92
       20
 93
        1
 72
     3
 10
269.833641274314
 20
136.1085887933145
 11
0.2546924415247531
 21
0.2239701316915159
 40
0.6788083417438792
 50
0.0
 51
360.0
 73
     1
 97
        1
330
878
 75
     0
 76
     1
 47
0.088756267210375
 98
        2
 10
269.9085430968406
 20
136.5564277509202
 10
269.9085430968406
 20
136.5564277509202
450
        0
451
        0
460
0.0
461
0.0
452
        0
462
0.0
453
        0
470

  0
ELLIPSE
  5
878
102
{ACAD_REACTORS
330
877
102
}
330
18
100
AcDbEntity
  8
ROGO
 62
     4
100
AcDbEllipse
 10
269.833641274314
 20
136.1085887933145
 30
0.0
 11
0.2546924415247531
 21
0.2239701316915159
 31
0.0
210
0.0
220
0.0
230
1.0
 40
0.6788083417438792
 41
0.0
 42
6.283185307179586
  0
SPLINE
  5
879
102
{ACAD_REACTORS
330
877
102
}
330
18
100
AcDbEntity
  8
ROGO
 62
     4
100
AcDbSpline
210
0.0
220
0.0
230
1.0
 70
     8
 71
     3
 72
     9
 73
     5
 74
     3
 42
0.0000000001
 43
0.0000000001
 44
0.0000000001
 40
0.0
 40
0.0
 40
0.0
 40
0.0
 40
0.1622561919360204
 40
0.3804197703110171
 40
0.3804197703110171
 40
0.3804197703110171
 40
0.3804197703110171
 10
270.467539739499
 20
135.2348034924541
 30
0.0
 10
270.5196611228104
 20
135.2507496920587
 30
0.0
 10
270.6418629594924
 20
135.2881365524215
 30
0.0
 10
270.7428296698306
 20
135.3671541492421
 30
0.0
 10
270.8007321779105
 20
135.4124692538249
 30
0.0
 11
270.467539739499
 21
135.2348034924541
 31
0.0
 11
270.6200408312485
 21
135.290215484268
 31
0.0
 11
270.8007321779105
 21
135.4124692538249
 31
0.0
  0
SPLINE
  5
87A
102
{ACAD_REACTORS
330
877
102
}
330
18
100
AcDbEntity
  8
ROGO
 62
     4
100
AcDbSpline
210
0.0
220
0.0
230
1.0
 70
     8
 71
     3
 72
    11
 73
     7
 74
     0
 42
0.0000000001
 43
0.0000000001
 40
0.1647869275458134
 40
0.1647869275458134
 40
0.1647869275458134
 40
0.1647869275458134
 40
0.2895635144633836
 40
0.5387013147903714
 40
0.7953622617455423
 40
0.8850764140209602
 40
0.8850764140209602
 40
0.8850764140209602
 40
0.8850764140209602
 10
270.467539739499
 20
135.2348034924541
 30
0.0
 10
270.4475703926406
 20
135.2292450171449
 30
0.0
 10
270.3856546620205
 20
135.2193484603107
 30
0.0
 10
270.2817992803945
 20
135.2057593254917
 30
0.0
 10
270.1830899345425
 20
135.1915785675136
 30
0.0
 10
270.1253317990731
 20
135.192691688809
 30
0.0
 10
270.1103719414733
 20
135.1929799968704
 30
0.0
  0
LINE
  5
87B
102
{ACAD_REACTORS
330
877
102
}
330
18
100
AcDbEntity
  8
ROGO
 62
     4
100
AcDbLine
 10
269.0382950512085
 20
135.1929799968704
 30
0.0
 11
270.1103719414732
 21
135.1929799968704
 31
0.0
  0
LINE
  5
87C
102
{ACAD_REACTORS
330
877
102
}
330
18
100
AcDbEntity
  8
ROGO
 62
     4
100
AcDbLine
 10
269.5872721391272
 20
137.0767259250559
 30
0.0
 11
270.659349029392
 21
137.0767259250559
 31
0.0
  0
SPLINE
  5
87D
102
{ACAD_REACTORS
330
877
102
}
330
18
100
AcDbEntity
  8
ROGO
 62
     4
100
AcDbSpline
210
0.0
220
0.0
230
1.0
 70
     8
 71
     3
 72
    25
 73
    21
 74
     0
 42
0.0000000001
 43
0.0000000001
 40
0.0
 40
0.0
 40
0.0
 40
0.0
 40
0.4087168505087288
 40
0.6887487002771746
 40
0.9415836120477687
 40
1.17452070575514
 40
1.41154617586699
 40
1.599156012919487
 40
1.80099909059943
 40
2.178735911501585
 40
2.521686161369157
 40
2.762704659361267
 40
3.06256558063785
 40
3.222432137207705
 40
3.399493810628493
 40
3.567459719866414
 40
3.743172740007509
 40
3.995988754699505
 40
4.17170091132118
 40
4.337226830236035
 40
4.337226830236035
 40
4.337226830236035
 40
4.337226830236035
 10
270.659349029392
 20
137.0767259250559
 30
0.0
 10
270.7296633871428
 20
137.0744667972614
 30
0.0
 10
270.8481535410265
 20
137.0706598308242
 30
0.0
 10
270.9753673390566
 20
136.9712274174307
 30
0.0
 10
271.0727076544271
 20
136.8887903284092
 30
0.0
 10
271.1418010185137
 20
136.7891277479319
 30
0.0
 10
271.2023632880029
 20
136.6974933141073
 30
0.0
 10
271.2422692319588
 20
136.600748436013
 30
0.0
 10
271.2965492000657
 20
136.4846634423888
 30
0.0
 10
271.319018425276
 20
136.3293589674874
 30
0.0
 10
271.3038377919379
 20
136.1688374631366
 30
0.0
 10
271.2642234269415
 20
136.0265499149888
 30
0.0
 10
271.2226711430844
 20
135.9173902504972
 30
0.0
 10
271.1736968303453
 20
135.8223599905106
 30
0.0
 10
271.1153131913394
 20
135.7608278897977
 30
0.0
 10
271.0748089691408
 20
135.6825904235869
 30
0.0
 10
270.9970055395447
 20
135.6185963766249
 30
0.0
 10
270.9339338826782
 20
135.5396367045477
 30
0.0
 10
270.8623606874786
 20
135.4718647783497
 30
0.0
 10
270.8220074027588
 20
135.4300503166044
 30
0.0
 10
270.8007321779105
 20
135.4124692538249
 30
0.0
  0
SPLINE
  5
87E
102
{ACAD_REACTORS
330
877
102
}
330
18
100
AcDbEntity
  8
ROGO
 62
     4
100
AcDbSpline
210
0.0
220
0.0
230
1.0
 70
     8
 71
     3
 72
    38
 73
    34
 74
    32
 42
0.0000000001
 43
0.0000000001
 44
0.0000000001
 40
0.0
 40
0.0
 40
0.0
 40
0.0
 40
0.2582400211805774
 40
0.3393418442955424
 40
0.443552172800835
 40
0.530394283206717
 40
0.6036667919818254
 40
0.7009894053152177
 40
0.7507174249931042
 40
0.8067242281503032
 40
0.8892677166883521
 40
0.9827715778106668
 40
1.043426616793024
 40
1.109318337455068
 40
1.182564491755753
 40
1.293719242428883
 40
1.399327847180614
 40
1.448424760475743
 40
1.50441322219426
 40
1.570741059842362
 40
1.617957956886697
 40
1.657539314700464
 40
1.714052551848318
 40
1.776150918813051
 40
1.838248940024221
 40
1.892584795022379
 40
2.017023561310864
 40
2.066120474605993
 40
2.164314359515976
 40
2.251113385583432
 40
2.417283613623161
 40
2.622320469312984
 40
2.918423525691272
 40
2.918423525691272
 40
2.918423525691272
 40
2.918423525691272
 10
269.5872721391272
 20
137.0767259250559
 30
0.0
 10
269.501192999662
 20
137.0706450406261
 30
0.0
 10
269.3880801916317
 20
137.062654418073
 30
0.0
 10
269.244453373761
 20
137.0233049520659
 30
0.0
 10
269.1661608674167
 20
136.976427067126
 30
0.0
 10
269.084681865535
 20
136.9419695746967
 30
0.0
 10
269.0152134278422
 20
136.8909448614836
 30
0.0
 10
268.944947569705
 20
136.86465231835
 30
0.0
 10
268.8957452648826
 20
136.8172421635321
 30
0.0
 10
268.838797610407
 20
136.7882819947107
 30
0.0
 10
268.7934491820708
 20
136.7234607175473
 30
0.0
 10
268.7427625013112
 20
136.6628551723209
 30
0.0
 10
268.6839595750153
 20
136.6186158272102
 30
0.0
 10
268.6356992242161
 20
136.5721515715497
 30
0.0
 10
268.5914270628957
 20
136.5004432641442
 30
0.0
 10
268.5652248163655
 20
136.4051641574503
 30
0.0
 10
268.491365081495
 20
136.3450083656144
 30
0.0
 10
268.4802441179477
 20
136.2726831546485
 30
0.0
 10
268.4393900462395
 20
136.2300124972333
 30
0.0
 10
268.4216252670168
 20
136.1749308086833
 30
0.0
 10
268.4148595839828
 20
136.1244662525108
 30
0.0
 10
268.406739151065
 20
136.0773358504704
 30
0.0
 10
268.3854976364471
 20
136.0277567494163
 30
0.0
 10
268.3924309401063
 20
135.966513493795
 30
0.0
 10
268.3904558500461
 20
135.9072096166143
 30
0.0
 10
268.3916181928649
 20
135.8271475357407
 30
0.0
 10
268.3874231366564
 20
135.7491972544272
 30
0.0
 10
268.4208770659636
 20
135.6643688599009
 30
0.0
 10
268.4406739911105
 20
135.5887560818058
 30
0.0
 10
268.49489109103
 20
135.4840610214466
 30
0.0
 10
268.5884144521984
 20
135.3632655590052
 30
0.0
 10
268.7662569465092
 20
135.2166427543013
 30
0.0
 10
268.937257704451
 20
135.2017685532765
 30
0.0
 10
269.0382950512085
 20
135.1929799968704
 30
0.0
 11
269.5872721391272
 21
137.0767259250559
 31
0.0
 11
269.3309055149168
 21
137.0456765686967
 31
0.0
 11
269.2532186775909
 21
137.0223900700577
 31
0.0
 11
269.1599948390081
 21
136.9758163812725
 31
0.0
 11
269.0823080016821
 21
136.9370052044539
 31
0.0
 11
269.0201587759602
 21
136.8981936818818
 31
0.0
 11
268.9347034380058
 21
136.8516203388502
 31
0.0
 11
268.8958597141692
 21
136.8205713282445
 31
0.0
 11
268.8492474897042
 21
136.7895219718854
 31
0.0
 11
268.7948667646108
 21
136.7274239506742
 31
0.0
 11
268.7327175388889
 21
136.65756376325
 31
0.0
 11
268.6861053144238
 21
136.6187522406779
 31
0.0
 11
268.639493700306
 21
136.5721788976463
 31
0.0
 11
268.6006499764694
 21
136.5100808764351
 31
0.0
 11
268.5540383623518
 21
136.4091713326518
 31
0.0
 11
268.4918885262825
 21
136.323786467048
 31
0.0
 11
268.4763515250257
 21
136.2772127782629
 31
0.0
 11
268.4452769121648
 21
136.2306394352312
 31
0.0
 11
268.4219707999323
 21
136.1685410682665
 31
0.0
 11
268.4142016889566
 21
136.1219677252348
 31
0.0
 11
268.4064331883281
 21
136.0831562026627
 31
0.0
 11
268.3908961870713
 21
136.0288206934181
 31
0.0
 11
268.3908961870713
 21
135.9667223264533
 31
0.0
 11
268.3908961870713
 21
135.9046243052421
 31
0.0
 11
268.3908961870713
 21
135.850288450244
 31
0.0
 11
268.3986646876998
 21
135.7260924078216
 31
0.0
 11
268.4142016889566
 21
135.6795187190364
 31
0.0
 11
268.4452769121648
 21
135.5863716872197
 31
0.0
 11
268.4841200256542
 21
135.5087489878289
 31
0.0
 11
268.5851129752126
 21
135.3767907791935
 31
0.0
 11
268.748255150493
 21
135.2525943910176
 31
0.0
 11
269.0382950512085
 21
135.1929799968704
 31
0.0
  0
HATCH
  5
87F
330
18
100
AcDbEntity
  8
ROGO
 62
     4
100
AcDbHatch
 10
0.0
 20
0.0
 30
0.0
210
0.0
220
0.0
230
1.0
  2
SOLID
 70
     1
 71
     1
 91
        2
 92
        7
 72
     0
 73
     1
 93
        8
 10
264.647270377062
 20
137.0689013262383
 10
263.1466939731027
 20
137.0689013262383
 10
261.7939306443897
 20
135.1929799968704
 10
262.8328552896633
 20
135.1929799968704
 10
263.0904130576361
 20
135.5501438112858
 10
264.2759516130423
 20
135.5501438112858
 10
264.4346179317121
 20
135.1929799968704
 10
265.4806289633239
 20
135.1929799968705
 97
        8
330
8A6
330
8AC
330
8A7
330
8A8
330
8AA
330
880
330
8A5
330
882
 92
       22
 72
     0
 73
     1
 93
        3
 10
264.1086014621843
 20
135.9268552565659
 10
263.362067002129
 20
135.9268552565659
 10
263.8240194825767
 20
136.567459930593
 97
        3
330
8A9
330
8AB
330
881
 75
     0
 76
     1
 47
0.0128389261915577
 98
        2
 10
264.5297633877823
 20
136.6188414450825
 10
264.5297633877823
 20
136.6188414450825
450
        0
451
        0
460
0.0
461
0.0
452
        0
462
0.0
453
        0
470

  0
LINE
  5
880
102
{ACAD_REACTORS
330
87F
102
}
330
18
100
AcDbEntity
  8
ROGO
 62
     4
100
AcDbLine
 10
264.2759516130423
 20
135.5501438112858
 30
0.0
 11
264.4346179317122
 21
135.1929799968704
 31
0.0
  0
LINE
  5
881
102
{ACAD_REACTORS
330
87F
102
}
330
18
100
AcDbEntity
  8
ROGO
 62
     4
100
AcDbLine
 10
263.8240194825767
 20
136.5674599305929
 30
0.0
 11
264.1086014621843
 21
135.9268552565659
 31
0.0
  0
LINE
  5
882
102
{ACAD_REACTORS
330
87F
102
}
330
18
100
AcDbEntity
  8
ROGO
 62
     4
100
AcDbLine
 10
264.6472703770619
 20
137.0689013262383
 30
0.0
 11
265.4806289633238
 21
135.1929799968704
 31
0.0
  0
HATCH
  5
883
330
18
100
AcDbEntity
  8
ROGO
 62
     4
100
AcDbHatch
 10
0.0
 20
0.0
 30
0.0
210
0.0
220
0.0
230
1.0
  2
SOLID
 70
     1
 71
     1
 91
        2
 92
        5
 93
        6
 72
     1
 10
254.7596221731528
 20
134.1376459192297
 11
256.1221949673477
 21
134.1376459192297
 72
     1
 10
256.1221949673477
 20
134.1376459192297
 11
256.5996580399598
 21
135.1929799968704
 72
     1
 10
256.5996580399598
 20
135.1929799968704
 11
257.8733841373487
 21
135.1929799968704
 72
     4
 94
        3
 73
     0
 74
     0
 95
       18
 96
       14
 40
0.108740278791501
 40
0.108740278791501
 40
0.108740278791501
 40
0.108740278791501
 40
0.6623149649549278
 40
1.384304701649787
 40
2.097394834876493
 40
2.774073369849618
 40
3.428974823686337
 40
4.005208313035923
 40
4.455173659284313
 40
4.720999734343524
 40
5.086034088486724
 40
5.569973738255373
 40
6.060470601257719
 40
6.060470601257719
 40
6.060470601257719
 40
6.060470601257719
 10
257.8733841373486
 20
135.1929799968704
 10
257.9630268757695
 20
135.1936475392006
 10
258.1695845287033
 20
135.1951857114986
 10
258.4585570688565
 20
135.3495611922063
 10
258.7325856018465
 20
135.5462243069801
 10
258.9532969433912
 20
135.7919343509828
 10
259.0908067589286
 20
136.0728616902981
 10
259.1121065947102
 20
136.3421047411148
 10
259.0991035682661
 20
136.5550726470526
 10
259.0061904132046
 20
136.7035165646281
 10
258.9095958504549
 20
136.8541719605892
 10
258.7324740853876
 20
136.9846752602912
 10
258.587348445601
 20
137.0418551050273
 10
258.513549106121
 20
137.0689013262383
 72
     1
 10
258.513549106121
 20
137.0689013262383
 11
256.2099800875708
 21
137.0689013262383
 72
     1
 10
256.2099800875708
 20
137.0689013262383
 11
254.7596221731528
 21
134.1376459192297
 97
        6
330
8BE
330
8C1
330
8BF
330
8C0
330
8B8
330
8BD
 92
       20
 93
        4
 72
     1
 10
256.8944644575456
 20
135.8445890460972
 11
257.1201755951991
 21
136.3434771673621
 72
     1
 10
257.1201755951991
 20
136.3434771673621
 11
257.7001570224812
 21
136.3434771673621
 72
     4
 94
        3
 73
     0
 74
     0
 95
       15
 96
       11
 40
0.0
 40
0.0
 40
0.0
 40
0.0
 40
0.2199578613106558
 40
0.3202465475123651
 40
0.4340808827708152
 40
0.5116301246390283
 40
0.634275054953107
 40
0.7077360179240892
 40
0.8337709579493377
 40
0.875782631437913
 40
0.875782631437913
 40
0.875782631437913
 40
0.875782631437913
 10
257.7001570224812
 20
136.343477167362
 10
257.7827689297087
 20
136.343855573994
 10
257.9030473226488
 20
136.3444065132365
 10
257.9688198317409
 20
136.1956217933372
 10
257.9393374571218
 20
136.0998276438552
 10
257.902275709373
 20
136.0014769092155
 10
257.8367792071698
 20
135.9346461016878
 10
257.748873307748
 20
135.8702767679207
 10
257.6657980319542
 20
135.8624845718358
 10
257.6117668905647
 20
135.8481681526155
 10
257.5982590987514
 20
135.8445890460971
 72
     1
 10
257.5982590987515
 20
135.8445890460971
 11
256.8944644575456
 21
135.8445890460972
 97
        4
330
8BC
330
8BA
330
8BB
330
8B9
 75
     0
 76
     1
 47
0.0514683685270805
 98
        2
 10
256.2222923065807
 20
136.1572031021111
 10
256.2222923065807
 20
136.1572031021111
450
        0
451
        0
460
0.0
461
0.0
452
        0
462
0.0
453
        0
470

  0
HATCH
  5
884
330
18
100
AcDbEntity
  8
ROGO
 62
     4
100
AcDbHatch
 10
0.0
 20
0.0
 30
0.0
210
0.0
220
0.0
230
1.0
  2
SOLID
 70
     1
 71
     1
 91
        1
 92
        7
 72
     0
 73
     1
 93
       11
 10
273.5211843510378
 20
134.1376459192297
 10
274.6013039831867
 20
134.1376459192297
 10
274.982802967709
 20
134.9027367222577
 10
275.3643019522315
 20
134.1376459192297
 10
276.4443979522314
 20
134.1376459192297
 10
275.7135886438959
 20
135.603273622734
 10
277.4891725657976
 20
137.0689013262383
 10
276.4090765657977
 20
137.0689013262383
 10
275.9033435899708
 20
136.7488678850645
 10
276.0629225998578
 20
137.0689013262383
 10
274.982802967709
 20
137.0689013262383
 97
       11
330
88C
330
891
330
892
330
894
330
893
330
8C0
330
88E
330
890
330
88B
330
88F
330
88D
 75
     0
 76
     1
 47
0.0514683685270805
 98
        1
 10
274.8898440442749
 20
135.8113356356076
450
        0
451
        0
460
0.0
461
0.0
452
        0
462
0.0
453
        0
470

  0
HATCH
  5
885
330
18
100
AcDbEntity
  8
ROGO
 62
     4
100
AcDbHatch
 10
0.0
 20
0.0
 30
0.0
210
0.0
220
0.0
230
1.0
  2
SOLID
 70
     1
 71
     0
 91
        1
 92
        7
 72
     0
 73
     1
 93
        4
 10
256.2551250179506
 20
134.4314604996458
 10
256.1221949673477
 20
134.1376459192297
 10
273.5211843510378
 20
134.1376459192297
 10
273.6676897901609
 20
134.4314604996458
 97
        0
 75
     0
 76
     1
 47
0.0514683685270805
 98
        1
 10
267.2497468192195
 20
134.3537512650675
450
        0
451
        0
460
0.0
461
0.0
452
        0
462
0.0
453
        0
470

  0
HATCH
  5
886
330
18
100
AcDbEntity
  8
ROGO
 62
     4
100
AcDbHatch
 10
0.0
 20
0.0
 30
0.0
210
0.0
220
0.0
230
1.0
  2
SOLID
 70
     1
 71
     1
 91
        1
 92
        5
 93
        8
 72
     4
 94
        3
 73
     0
 74
     0
 95
       26
 96
       22
 40
0.0
 40
0.0
 40
0.0
 40
0.0
 40
0.3403136209416859
 40
0.5681272389515052
 40
0.7323994099695983
 40
0.8550561247335963
 40
1.014148321321381
 40
1.13027011535639
 40
1.339959009792003
 40
1.510642755247356
 40
1.626735051276114
 40
1.740569491433573
 40
1.94419717410045
 40
2.088186249714629
 40
2.165735491582895
 40
2.275891898886364
 40
2.355438312276665
 40
2.470674802864995
 40
2.535888688806186
 40
2.677801419664424
 40
2.74260000535881
 40
2.74260000535881
 40
2.74260000535881
 40
2.74260000535881
 10
272.7112837230969
 20
137.0689013262383
 10
272.5957760220132
 20
137.0620099387167
 10
272.4029448590618
 20
137.0505053008642
 10
272.1912174151878
 20
136.9218831524952
 10
272.0360934946019
 20
136.8471078877202
 10
271.9254593025673
 20
136.7454572856923
 10
271.8443639913279
 20
136.6404596392331
 10
271.7421281274743
 20
136.5153557133398
 10
271.6587577018945
 20
136.3696772541046
 10
271.6163022125613
 20
136.2091141954428
 10
271.5786955430559
 20
136.0811445060729
 10
271.5508058073805
 20
135.9385389876551
 10
271.5579017456847
 20
135.7844748617662
 10
271.5680634540909
 20
135.6413879889036
 10
271.6134330111251
 20
135.5392453847226
 10
271.6651009002538
 20
135.4665268891094
 10
271.7283675229037
 20
135.3864355281112
 10
271.7975950433572
 20
135.3333912790679
 10
271.8548518535152
 20
135.2372980574385
 10
271.9550779681758
 20
135.2250358693297
 10
272.0187856739983
 20
135.2006304552197
 10
272.0387563718004
 20
135.1929799968704
 72
     1
 10
272.0387563718005
 20
135.1929799968704
 11
273.6545121075213
 21
135.1929799968704
 72
     1
 10
273.6545121075213
 20
135.1929799968704
 11
274.0025359942054
 21
135.8909369659285
 72
     1
 10
274.0025359942054
 20
135.8909369659285
 11
272.8029916786737
 21
135.8909369659284
 72
     4
 94
        3
 73
     0
 74
     0
 95
       16
 96
       12
 40
0.0
 40
0.0
 40
0.0
 40
0.0
 40
0.1027738093187964
 40
0.2066076558227444
 40
0.268539878558716
 40
0.3279201337292112
 40
0.3931337605654557
 40
0.4386740937218511
 40
0.4818879174817272
 40
0.569519347887583
 40
0.7489346372632488
 40
0.7489346372632488
 40
0.7489346372632488
 40
0.7489346372632488
 10
272.8029916786737
 20
135.8909369659284
 10
272.7668091948569
 20
135.9015823831978
 10
272.6940710311871
 20
135.9229830174826
 10
272.6879834342617
 20
136.0267254305358
 10
272.69627690435
 20
136.1006503890489
 10
272.7310099756032
 20
136.1544720757861
 10
272.7731472154041
 20
136.1936344344086
 10
272.7888367786205
 20
136.2446372832403
 10
272.8349548202266
 20
136.2831508151209
 10
272.9167344650707
 20
136.3478866822292
 10
273.0071685953728
 20
136.3616739754942
 10
273.0679267491177
 20
136.3709369659285
 72
     1
 10
273.0679267491177
 20
136.3709369659285
 11
274.2418794967622
 21
136.3709369659285
 72
     1
 10
274.2418794967622
 20
136.3709369659285
 11
274.5899070689632
 21
137.0689013262383
 72
     1
 10
274.5899070689632
 20
137.0689013262383
 11
272.7112837230969
 21
137.0689013262383
 97
        8
330
89B
330
899
330
89C
330
898
330
897
330
89A
330
896
330
895
 75
     0
 76
     1
 47
0.0514683685270805
 98
        1
 10
273.0354514797896
 20
136.7254137502681
450
        0
451
        0
460
0.0
461
0.0
452
        0
462
0.0
453
        0
470

  0
HATCH
  5
887
330
18
100
AcDbEntity
  8
ROGO
 62
     4
100
AcDbHatch
 10
0.0
 20
0.0
 30
0.0
210
0.0
220
0.0
230
1.0
  2
SOLID
 70
     1
 71
     1
 91
        1
 92
        5
 93
        8
 72
     1
 10
268.1974941097224
 20
136.3709369659285
 11
268.5455216819232
 21
137.0689013262383
 72
     1
 10
268.5455216819232
 20
137.0689013262383
 11
266.6668983360573
 21
137.0689013262383
 72
     4
 94
        3
 73
     0
 74
     0
 95
       26
 96
       22
 40
0.0
 40
0.0
 40
0.0
 40
0.0
 40
0.3403136209417982
 40
0.5681272389515159
 40
0.7323994099697078
 40
0.8550561247337057
 40
1.014148321321447
 40
1.13027011535643
 40
1.339959009791999
 40
1.510642755247373
 40
1.626735051276186
 40
1.740569491433665
 40
1.944197174100541
 40
2.088186249714737
 40
2.16573549158295
 40
2.275891898886404
 40
2.355438312276705
 40
2.470674802865115
 40
2.535888688806235
 40
2.677801419664453
 40
2.742600005358966
 40
2.742600005358966
 40
2.742600005358966
 40
2.742600005358966
 10
266.6668983360572
 20
137.0689013262383
 10
266.5513906349734
 20
137.0620099387167
 10
266.3585594720221
 20
137.0505053008643
 10
266.1468320281481
 20
136.9218831524952
 10
265.9917081075621
 20
136.8471078877202
 10
265.8810739155275
 20
136.7454572856923
 10
265.7999786042881
 20
136.6404596392332
 10
265.6977427404346
 20
136.5153557133397
 10
265.6143723148546
 20
136.3696772541048
 10
265.5719168255216
 20
136.2091141954428
 10
265.5343101560163
 20
136.0811445060729
 10
265.5064204203406
 20
135.9385389876552
 10
265.5135163586447
 20
135.7844748617661
 10
265.5236780670511
 20
135.6413879889035
 10
265.5690476240855
 20
135.5392453847227
 10
265.620715513214
 20
135.4665268891093
 10
265.6839821358639
 20
135.3864355281112
 10
265.7532096563175
 20
135.3333912790679
 10
265.8104664664754
 20
135.2372980574385
 10
265.910692581136
 20
135.2250358693297
 10
265.9744002869587
 20
135.2006304552197
 10
265.9943709847607
 20
135.1929799968704
 72
     1
 10
265.9943709847607
 20
135.1929799968704
 11
267.6101267204816
 21
135.1929799968704
 72
     1
 10
267.6101267204816
 20
135.1929799968704
 11
267.9581506071655
 21
135.8909369659285
 72
     1
 10
267.9581506071655
 20
135.8909369659285
 11
266.758606291634
 21
135.8909369659284
 72
     4
 94
        3
 73
     0
 74
     0
 95
       16
 96
       12
 40
0.0
 40
0.0
 40
0.0
 40
0.0
 40
0.1027738093189234
 40
0.2066076558227377
 40
0.2685398785587465
 40
0.3279201337292418
 40
0.3931337605655129
 40
0.4386740937218573
 40
0.4818879174818138
 40
0.5695193478876036
 40
0.7489346372632694
 40
0.7489346372632694
 40
0.7489346372632694
 40
0.7489346372632694
 10
266.758606291634
 20
135.8909369659284
 10
266.7224238078172
 20
135.9015823831978
 10
266.6496856441471
 20
135.9229830174826
 10
266.643598047222
 20
136.0267254305358
 10
266.6518915173102
 20
136.1006503890489
 10
266.6866245885633
 20
136.1544720757862
 10
266.7287618283645
 20
136.1936344344086
 10
266.7444513915807
 20
136.2446372832403
 10
266.7905694331868
 20
136.2831508151211
 10
266.872349078031
 20
136.3478866822291
 10
266.962783208333
 20
136.3616739754941
 10
267.0235413620779
 20
136.3709369659285
 72
     1
 10
267.0235413620779
 20
136.3709369659285
 11
268.1974941097224
 21
136.3709369659285
 97
        8
330
89D
330
8A0
330
8A4
330
89E
330
8A1
330
89F
330
8A2
330
8A3
 75
     0
 76
     1
 47
0.0514683685270805
 98
        1
 10
267.3239224749242
 20
136.6512992457426
450
        0
451
        0
460
0.0
461
0.0
452
        0
462
0.0
453
        0
470

  0
HATCH
  5
888
330
18
100
AcDbEntity
  8
ROGO
 62
     4
100
AcDbHatch
 10
0.0
 20
0.0
 30
0.0
210
0.0
220
0.0
230
1.0
  2
SOLID
 70
     1
 71
     1
 91
        1
 92
        1
 93
       12
 72
     1
 10
259.8744405249861
 20
137.0689013262383
 11
262.4117021656775
 21
137.0689013262383
 72
     1
 10
262.4117021656775
 20
137.0689013262383
 11
262.1990818860567
 21
136.6391837109638
 72
     1
 10
262.1990818860567
 20
136.6391837109638
 11
260.8655612828882
 21
136.6391837109638
 72
     1
 10
260.8655612828882
 20
136.6391837109638
 11
260.6993186456359
 21
136.3031979349865
 72
     1
 10
260.6993186456359
 20
136.3031979349865
 11
262.0328392488045
 21
136.3031979349865
 72
     1
 10
262.0328392488045
 20
136.3031979349865
 11
261.8623729979133
 21
135.9586759968704
 72
     1
 10
261.8623729979133
 20
135.9586759968705
 11
260.5288523947448
 21
135.9586759968704
 72
     1
 10
260.5288523947448
 20
135.9586759968704
 11
260.3626027195785
 21
135.6226759968704
 72
     1
 10
260.3626027195785
 20
135.6226759968704
 11
261.6961233227471
 21
135.6226759968704
 72
     1
 10
261.6961233227471
 20
135.6226759968704
 11
261.4835137381631
 21
135.1929799968704
 72
     1
 10
261.4835137381631
 20
135.1929799968704
 11
258.9462520974716
 21
135.1929799968704
 72
     1
 10
258.9462520974718
 20
135.1929799968704
 11
259.8744405249861
 21
137.0689013262383
 97
       12
330
88A
330
8B6
330
8B3
330
8B4
330
8B2
330
8AF
330
8B0
330
8AD
330
8B1
330
8AE
330
8B5
330
8B7
 75
     0
 76
     1
 98
        1
 10
156.0885419839733
 20
7.35733554322212
450
        0
451
        0
460
0.0
461
0.0
452
        0
462
0.0
453
        0
470

  0
LINE
  5
889
330
18
100
AcDbEntity
  8
ROGO
 62
     4
100
AcDbLine
 10
256.2347486652125
 20
134.4314604996458
 30
0.0
 11
273.6676897901608
 21
134.4314604996458
 31
0.0
  0
LINE
  5
88A
102
{ACAD_REACTORS
330
888
102
}
330
18
100
AcDbEntity
  8
ROGO
 62
     4
100
AcDbLine
 10
259.8744405249861
 20
137.0689013262383
 30
0.0
 11
262.4117021656775
 21
137.0689013262383
 31
0.0
  0
LINE
  5
88B
102
{ACAD_REACTORS
330
884
102
}
330
18
100
AcDbEntity
  8
ROGO
 62
     4
100
AcDbLine
 10
275.3643019522315
 20
134.1376459192297
 30
0.0
 11
276.4443979522314
 21
134.1376459192297
 31
0.0
  0
LINE
  5
88C
102
{ACAD_REACTORS
330
884
102
}
330
18
100
AcDbEntity
  8
ROGO
 62
     4
100
AcDbLine
 10
276.4090765657977
 20
137.0689013262383
 30
0.0
 11
277.4891725657976
 21
137.0689013262383
 31
0.0
  0
LINE
  5
88D
102
{ACAD_REACTORS
330
884
102
}
330
18
100
AcDbEntity
  8
ROGO
 62
     4
100
AcDbLine
 10
275.7135886438959
 20
135.603273622734
 30
0.0
 11
277.4891725657976
 21
137.0689013262383
 31
0.0
  0
LINE
  5
88E
102
{ACAD_REACTORS
330
884
102
}
330
18
100
AcDbEntity
  8
ROGO
 62
     4
100
AcDbLine
 10
274.982802967709
 20
134.9027367222576
 30
0.0
 11
274.6013039831867
 21
134.1376459192297
 31
0.0
  0
LINE
  5
88F
102
{ACAD_REACTORS
330
884
102
}
330
18
100
AcDbEntity
  8
ROGO
 62
     4
100
AcDbLine
 10
275.7135886438959
 20
135.603273622734
 30
0.0
 11
276.4443979522314
 21
134.1376459192297
 31
0.0
  0
LINE
  5
890
102
{ACAD_REACTORS
330
884
102
}
330
18
100
AcDbEntity
  8
ROGO
 62
     4
100
AcDbLine
 10
274.982802967709
 20
134.9027367222576
 30
0.0
 11
275.3643019522315
 21
134.1376459192297
 31
0.0
  0
LINE
  5
891
102
{ACAD_REACTORS
330
884
102
}
330
18
100
AcDbEntity
  8
ROGO
 62
     4
100
AcDbLine
 10
275.9033435899707
 20
136.7488678850645
 30
0.0
 11
276.4090765657977
 21
137.0689013262383
 31
0.0
  0
LINE
  5
892
102
{ACAD_REACTORS
330
884
102
}
330
18
100
AcDbEntity
  8
ROGO
 62
     4
100
AcDbLine
 10
276.0629225998579
 20
137.0689013262383
 30
0.0
 11
275.9033435899707
 21
136.7488678850645
 31
0.0
  0
LINE
  5
893
102
{ACAD_REACTORS
330
884
102
}
330
18
100
AcDbEntity
  8
ROGO
 62
     4
100
AcDbLine
 10
274.982802967709
 20
137.0689013262383
 30
0.0
 11
273.5211843510378
 21
134.1376459192297
 31
0.0
  0
LINE
  5
894
102
{ACAD_REACTORS
330
884
102
}
330
18
100
AcDbEntity
  8
ROGO
 62
     4
100
AcDbLine
 10
274.982802967709
 20
137.0689013262383
 30
0.0
 11
276.0629225998579
 21
137.0689013262383
 31
0.0
  0
LINE
  5
895
102
{ACAD_REACTORS
330
886
102
}
330
18
100
AcDbEntity
  8
ROGO
 62
     4
100
AcDbLine
 10
274.5899070689632
 20
137.0689013262383
 30
0.0
 11
274.2418794967622
 21
136.3709369659285
 31
0.0
  0
LINE
  5
896
102
{ACAD_REACTORS
330
886
102
}
330
18
100
AcDbEntity
  8
ROGO
 62
     4
100
AcDbLine
 10
273.0679267491177
 20
136.3709369659285
 30
0.0
 11
274.2418794967622
 21
136.3709369659285
 31
0.0
  0
LINE
  5
897
102
{ACAD_REACTORS
330
886
102
}
330
18
100
AcDbEntity
  8
ROGO
 62
     4
100
AcDbLine
 10
272.8029916786736
 20
135.8909369659284
 30
0.0
 11
274.0025359942054
 21
135.8909369659284
 31
0.0
  0
LINE
  5
898
102
{ACAD_REACTORS
330
886
102
}
330
18
100
AcDbEntity
  8
ROGO
 62
     4
100
AcDbLine
 10
274.0025359942054
 20
135.8909369659284
 30
0.0
 11
273.6545121075213
 21
135.1929799968704
 31
0.0
  0
SPLINE
  5
899
102
{ACAD_REACTORS
330
886
102
}
330
18
100
AcDbEntity
  8
ROGO
 62
     4
100
AcDbSpline
210
0.0
220
0.0
230
1.0
 70
     8
 71
     3
 72
    26
 73
    22
 74
    20
 42
0.0000000001
 43
0.0000000001
 44
0.0000000001
 40
0.0
 40
0.0
 40
0.0
 40
0.0
 40
0.3403136209416859
 40
0.5681272389515052
 40
0.7323994099695983
 40
0.8550561247335963
 40
1.014148321321381
 40
1.13027011535639
 40
1.339959009792003
 40
1.510642755247356
 40
1.626735051276114
 40
1.740569491433573
 40
1.94419717410045
 40
2.088186249714629
 40
2.165735491582895
 40
2.275891898886364
 40
2.355438312276665
 40
2.470674802864995
 40
2.535888688806186
 40
2.677801419664424
 40
2.74260000535881
 40
2.74260000535881
 40
2.74260000535881
 40
2.74260000535881
 10
272.7112837230969
 20
137.0689013262383
 30
0.0
 10
272.5957760220132
 20
137.0620099387167
 30
0.0
 10
272.4029448590618
 20
137.0505053008642
 30
0.0
 10
272.1912174151878
 20
136.9218831524952
 30
0.0
 10
272.0360934946019
 20
136.8471078877202
 30
0.0
 10
271.9254593025673
 20
136.7454572856923
 30
0.0
 10
271.8443639913279
 20
136.6404596392331
 30
0.0
 10
271.7421281274743
 20
136.5153557133398
 30
0.0
 10
271.6587577018945
 20
136.3696772541046
 30
0.0
 10
271.6163022125613
 20
136.2091141954428
 30
0.0
 10
271.5786955430559
 20
136.0811445060729
 30
0.0
 10
271.5508058073805
 20
135.9385389876551
 30
0.0
 10
271.5579017456847
 20
135.7844748617662
 30
0.0
 10
271.5680634540909
 20
135.6413879889036
 30
0.0
 10
271.6134330111251
 20
135.5392453847226
 30
0.0
 10
271.6651009002538
 20
135.4665268891094
 30
0.0
 10
271.7283675229037
 20
135.3864355281112
 30
0.0
 10
271.7975950433572
 20
135.3333912790679
 30
0.0
 10
271.8548518535152
 20
135.2372980574385
 30
0.0
 10
271.9550779681758
 20
135.2250358693297
 30
0.0
 10
272.0187856739983
 20
135.2006304552197
 30
0.0
 10
272.0387563718004
 20
135.1929799968704
 30
0.0
 11
272.7112837230969
 21
137.0689013262383
 31
0.0
 11
272.3750200474486
 21
137.0165553518187
 31
0.0
 11
272.1712236140557
 21
136.9147415104853
 31
0.0
 11
272.0285664036475
 21
136.8332905038032
 31
0.0
 11
271.9368584480707
 21
136.7518391651977
 31
0.0
 11
271.834960524341
 21
136.6296624892129
 31
0.0
 11
271.7636319191367
 21
136.5380300652052
 31
0.0
 11
271.6617334094737
 21
136.3547648852662
 31
0.0
 11
271.6107847405754
 21
136.1918625399787
 31
0.0
 11
271.5802154220498
 21
136.0798672813196
 31
0.0
 11
271.5598354857438
 21
135.9678720226605
 31
0.0
 11
271.5598354857438
 21
135.7642443399936
 31
0.0
 11
271.5802154220498
 21
135.6217048293575
 31
0.0
 11
271.6107847405754
 21
135.5504349080777
 31
0.0
 11
271.6719233776265
 21
135.4588024840699
 31
0.0
 11
271.7228726324582
 21
135.3977139801158
 31
0.0
 11
271.8043906198818
 21
135.3162629734337
 31
0.0
 11
271.8451499065606
 21
135.2653558868053
 31
0.0
 11
271.9776177347493
 21
135.2144491321003
 31
0.0
 11
272.0387563718004
 21
135.1929799968704
 31
0.0
  0
SPLINE
  5
89A
102
{ACAD_REACTORS
330
886
102
}
330
18
100
AcDbEntity
  8
ROGO
 62
     4
100
AcDbSpline
210
0.0
220
0.0
230
1.0
 70
     8
 71
     3
 72
    16
 73
    12
 74
    10
 42
0.0000000001
 43
0.0000000001
 44
0.0000000001
 40
0.0
 40
0.0
 40
0.0
 40
0.0
 40
0.1794152893756658
 40
0.2670467197815217
 40
0.3102605435413978
 40
0.3558008766977931
 40
0.4210145035340376
 40
0.4803947587045328
 40
0.5423269814405045
 40
0.6461608279444525
 40
0.7489346372632488
 40
0.7489346372632488
 40
0.7489346372632488
 40
0.7489346372632488
 10
273.0679267491177
 20
136.3709369659285
 30
0.0
 10
273.0071685953728
 20
136.3616739754942
 30
0.0
 10
272.9167344650707
 20
136.3478866822292
 30
0.0
 10
272.8349548202266
 20
136.2831508151209
 30
0.0
 10
272.7888367786205
 20
136.2446372832403
 30
0.0
 10
272.7731472154041
 20
136.1936344344086
 30
0.0
 10
272.7310099756032
 20
136.1544720757861
 30
0.0
 10
272.69627690435
 20
136.1006503890489
 30
0.0
 10
272.6879834342617
 20
136.0267254305358
 30
0.0
 10
272.6940710311871
 20
135.9229830174826
 30
0.0
 10
272.7668091948569
 20
135.9015823831978
 30
0.0
 10
272.8029916786737
 20
135.8909369659284
 30
0.0
 11
273.0679267491177
 21
136.3709369659285
 31
0.0
 11
272.8947002201838
 21
136.3242206332892
 31
0.0
 11
272.8233716149797
 21
136.2733138785841
 31
0.0
 11
272.7928022964542
 21
136.2427696266071
 31
0.0
 11
272.7724223601481
 21
136.2020439573044
 31
0.0
 11
272.7316630734696
 21
136.1511372025994
 31
0.0
 11
272.7010937549439
 21
136.100230115971
 31
0.0
 11
272.6909037867908
 21
136.0391419439402
 31
0.0
 11
272.7112837230969
 21
135.9373277706834
 31
0.0
 11
272.8029916786737
 21
135.8909369659284
 31
0.0
  0
LINE
  5
89B
102
{ACAD_REACTORS
330
886
102
}
330
18
100
AcDbEntity
  8
ROGO
 62
     4
100
AcDbLine
 10
272.7112837230975
 20
137.0689013262383
 30
0.0
 11
274.5899070689632
 21
137.0689013262383
 31
0.0
  0
LINE
  5
89C
102
{ACAD_REACTORS
330
886
102
}
330
18
100
AcDbEntity
  8
ROGO
 62
     4
100
AcDbLine
 10
272.0387563718004
 20
135.1929799968704
 30
0.0
 11
273.6545121075213
 21
135.1929799968704
 31
0.0
  0
LINE
  5
89D
102
{ACAD_REACTORS
330
887
102
}
330
18
100
AcDbEntity
  8
ROGO
 62
     4
100
AcDbLine
 10
266.6668983360578
 20
137.0689013262383
 30
0.0
 11
268.5455216819233
 21
137.0689013262383
 31
0.0
  0
LINE
  5
89E
102
{ACAD_REACTORS
330
887
102
}
330
18
100
AcDbEntity
  8
ROGO
 62
     4
100
AcDbLine
 10
267.9581506071655
 20
135.8909369659284
 30
0.0
 11
267.6101267204815
 21
135.1929799968704
 31
0.0
  0
SPLINE
  5
89F
102
{ACAD_REACTORS
330
887
102
}
330
18
100
AcDbEntity
  8
ROGO
 62
     4
100
AcDbSpline
210
0.0
220
0.0
230
1.0
 70
     8
 71
     3
 72
    16
 73
    12
 74
    10
 42
0.0000000001
 43
0.0000000001
 44
0.0000000001
 40
0.0
 40
0.0
 40
0.0
 40
0.0
 40
0.1794152893756658
 40
0.2670467197814556
 40
0.3102605435414121
 40
0.3558008766977565
 40
0.4210145035340276
 40
0.4803947587045229
 40
0.5423269814405317
 40
0.646160827944346
 40
0.7489346372632694
 40
0.7489346372632694
 40
0.7489346372632694
 40
0.7489346372632694
 10
267.0235413620779
 20
136.3709369659285
 30
0.0
 10
266.962783208333
 20
136.3616739754941
 30
0.0
 10
266.872349078031
 20
136.3478866822291
 30
0.0
 10
266.7905694331868
 20
136.2831508151211
 30
0.0
 10
266.7444513915807
 20
136.2446372832403
 30
0.0
 10
266.7287618283645
 20
136.1936344344086
 30
0.0
 10
266.6866245885633
 20
136.1544720757862
 30
0.0
 10
266.6518915173102
 20
136.1006503890489
 30
0.0
 10
266.643598047222
 20
136.0267254305358
 30
0.0
 10
266.6496856441471
 20
135.9229830174826
 30
0.0
 10
266.7224238078172
 20
135.9015823831978
 30
0.0
 10
266.758606291634
 20
135.8909369659284
 30
0.0
 11
267.0235413620779
 21
136.3709369659285
 31
0.0
 11
266.850314833144
 21
136.3242206332892
 31
0.0
 11
266.7789862279398
 21
136.2733138785842
 31
0.0
 11
266.7484169094143
 21
136.2427696266071
 31
0.0
 11
266.7280369731084
 21
136.2020439573044
 31
0.0
 11
266.6872776864297
 21
136.1511372025994
 31
0.0
 11
266.6567083679041
 21
136.100230115971
 31
0.0
 11
266.6465183997511
 21
136.0391419439402
 31
0.0
 11
266.6668983360571
 21
135.9373277706835
 31
0.0
 11
266.758606291634
 21
135.8909369659284
 31
0.0
  0
SPLINE
  5
8A0
102
{ACAD_REACTORS
330
887
102
}
330
18
100
AcDbEntity
  8
ROGO
 62
     4
100
AcDbSpline
210
0.0
220
0.0
230
1.0
 70
     8
 71
     3
 72
    26
 73
    22
 74
    20
 42
0.0000000001
 43
0.0000000001
 44
0.0000000001
 40
0.0
 40
0.0
 40
0.0
 40
0.0
 40
0.3403136209417982
 40
0.5681272389515159
 40
0.7323994099697078
 40
0.8550561247337057
 40
1.014148321321447
 40
1.13027011535643
 40
1.339959009791999
 40
1.510642755247373
 40
1.626735051276186
 40
1.740569491433665
 40
1.944197174100541
 40
2.088186249714737
 40
2.16573549158295
 40
2.275891898886404
 40
2.355438312276705
 40
2.470674802865115
 40
2.535888688806235
 40
2.677801419664453
 40
2.742600005358966
 40
2.742600005358966
 40
2.742600005358966
 40
2.742600005358966
 10
266.6668983360572
 20
137.0689013262383
 30
0.0
 10
266.5513906349734
 20
137.0620099387167
 30
0.0
 10
266.3585594720221
 20
137.0505053008643
 30
0.0
 10
266.1468320281481
 20
136.9218831524952
 30
0.0
 10
265.9917081075621
 20
136.8471078877202
 30
0.0
 10
265.8810739155275
 20
136.7454572856923
 30
0.0
 10
265.7999786042881
 20
136.6404596392332
 30
0.0
 10
265.6977427404346
 20
136.5153557133397
 30
0.0
 10
265.6143723148546
 20
136.3696772541048
 30
0.0
 10
265.5719168255216
 20
136.2091141954428
 30
0.0
 10
265.5343101560163
 20
136.0811445060729
 30
0.0
 10
265.5064204203406
 20
135.9385389876552
 30
0.0
 10
265.5135163586447
 20
135.7844748617661
 30
0.0
 10
265.5236780670511
 20
135.6413879889035
 30
0.0
 10
265.5690476240855
 20
135.5392453847227
 30
0.0
 10
265.620715513214
 20
135.4665268891093
 30
0.0
 10
265.6839821358639
 20
135.3864355281112
 30
0.0
 10
265.7532096563175
 20
135.3333912790679
 30
0.0
 10
265.8104664664754
 20
135.2372980574385
 30
0.0
 10
265.910692581136
 20
135.2250358693297
 30
0.0
 10
265.9744002869587
 20
135.2006304552197
 30
0.0
 10
265.9943709847607
 20
135.1929799968704
 30
0.0
 11
266.6668983360572
 21
137.0689013262383
 31
0.0
 11
266.3306346604088
 21
137.0165553518187
 31
0.0
 11
266.1268382270161
 21
136.9147415104853
 31
0.0
 11
265.9841810166077
 21
136.8332905038032
 31
0.0
 11
265.8924730610308
 21
136.7518391651977
 31
0.0
 11
265.7905751373012
 21
136.6296624892129
 31
0.0
 11
265.719246532097
 21
136.5380300652052
 31
0.0
 11
265.6173480224338
 21
136.3547648852663
 31
0.0
 11
265.5663993535356
 21
136.1918625399788
 31
0.0
 11
265.5358300350101
 21
136.0798672813196
 31
0.0
 11
265.515450098704
 21
135.9678720226605
 31
0.0
 11
265.515450098704
 21
135.7642443399936
 31
0.0
 11
265.5358300350101
 21
135.6217048293575
 31
0.0
 11
265.5663993535356
 21
135.5504349080777
 31
0.0
 11
265.6275379905867
 21
135.4588024840699
 31
0.0
 11
265.6784872454184
 21
135.3977139801158
 31
0.0
 11
265.7600052328421
 21
135.3162629734337
 31
0.0
 11
265.8007645195207
 21
135.2653558868053
 31
0.0
 11
265.9332323477094
 21
135.2144491321003
 31
0.0
 11
265.9943709847607
 21
135.1929799968704
 31
0.0
  0
LINE
  5
8A1
102
{ACAD_REACTORS
330
887
102
}
330
18
100
AcDbEntity
  8
ROGO
 62
     4
100
AcDbLine
 10
266.7586062916339
 20
135.8909369659284
 30
0.0
 11
267.9581506071656
 21
135.8909369659284
 31
0.0
  0
LINE
  5
8A2
102
{ACAD_REACTORS
330
887
102
}
330
18
100
AcDbEntity
  8
ROGO
 62
     4
100
AcDbLine
 10
267.0235413620778
 20
136.3709369659285
 30
0.0
 11
268.1974941097224
 21
136.3709369659285
 31
0.0
  0
LINE
  5
8A3
102
{ACAD_REACTORS
330
887
102
}
330
18
100
AcDbEntity
  8
ROGO
 62
     4
100
AcDbLine
 10
268.5455216819232
 20
137.0689013262383
 30
0.0
 11
268.1974941097224
 21
136.3709369659285
 31
0.0
  0
LINE
  5
8A4
102
{ACAD_REACTORS
330
887
102
}
330
18
100
AcDbEntity
  8
ROGO
 62
     4
100
AcDbLine
 10
265.9943709847606
 20
135.1929799968704
 30
0.0
 11
267.6101267204815
 21
135.1929799968704
 31
0.0
  0
LINE
  5
8A5
102
{ACAD_REACTORS
330
87F
102
}
330
18
100
AcDbEntity
  8
ROGO
 62
     4
100
AcDbLine
 10
265.4806289633238
 20
135.1929799968705
 30
0.0
 11
264.4346179317122
 21
135.1929799968704
 31
0.0
  0
LINE
  5
8A6
102
{ACAD_REACTORS
330
87F
102
}
330
18
100
AcDbEntity
  8
ROGO
 62
     4
100
AcDbLine
 10
263.1466939731027
 20
137.0689013262383
 30
0.0
 11
264.6472703770619
 21
137.0689013262383
 31
0.0
  0
LINE
  5
8A7
102
{ACAD_REACTORS
330
87F
102
}
330
18
100
AcDbEntity
  8
ROGO
 62
     4
100
AcDbLine
 10
261.7939306443897
 20
135.1929799968704
 30
0.0
 11
262.8328552896634
 21
135.1929799968704
 31
0.0
  0
LINE
  5
8A8
102
{ACAD_REACTORS
330
87F
102
}
330
18
100
AcDbEntity
  8
ROGO
 62
     4
100
AcDbLine
 10
263.090413057636
 20
135.5501438112858
 30
0.0
 11
262.8328552896634
 21
135.1929799968705
 31
0.0
  0
LINE
  5
8A9
102
{ACAD_REACTORS
330
87F
102
}
330
18
100
AcDbEntity
  8
ROGO
 62
     4
100
AcDbLine
 10
263.3620670021291
 20
135.9268552565659
 30
0.0
 11
264.1086014621843
 21
135.9268552565659
 31
0.0
  0
LINE
  5
8AA
102
{ACAD_REACTORS
330
87F
102
}
330
18
100
AcDbEntity
  8
ROGO
 62
     4
100
AcDbLine
 10
263.090413057636
 20
135.5501438112858
 30
0.0
 11
264.2759516130423
 21
135.5501438112858
 31
0.0
  0
LINE
  5
8AB
102
{ACAD_REACTORS
330
87F
102
}
330
18
100
AcDbEntity
  8
ROGO
 62
     4
100
AcDbLine
 10
263.8240194825765
 20
136.5674599305928
 30
0.0
 11
263.362067002129
 21
135.9268552565659
 31
0.0
  0
LINE
  5
8AC
102
{ACAD_REACTORS
330
87F
102
}
330
18
100
AcDbEntity
  8
ROGO
 62
     4
100
AcDbLine
 10
263.1466939731027
 20
137.0689013262383
 30
0.0
 11
261.7939306443897
 21
135.1929799968704
 31
0.0
  0
LINE
  5
8AD
102
{ACAD_REACTORS
330
888
102
}
330
18
100
AcDbEntity
  8
ROGO
 62
     4
100
AcDbLine
 10
260.5288523947448
 20
135.9586759968704
 30
0.0
 11
260.3626027195785
 21
135.6226759968704
 31
0.0
  0
LINE
  5
8AE
102
{ACAD_REACTORS
330
888
102
}
330
18
100
AcDbEntity
  8
ROGO
 62
     4
100
AcDbLine
 10
261.6961233227471
 20
135.6226759968704
 30
0.0
 11
261.4835137381631
 21
135.1929799968704
 31
0.0
  0
LINE
  5
8AF
102
{ACAD_REACTORS
330
888
102
}
330
18
100
AcDbEntity
  8
ROGO
 62
     4
100
AcDbLine
 10
262.0328392488045
 20
136.3031979349865
 30
0.0
 11
261.8623729979133
 21
135.9586759968704
 31
0.0
  0
LINE
  5
8B0
102
{ACAD_REACTORS
330
888
102
}
330
18
100
AcDbEntity
  8
ROGO
 62
     4
100
AcDbLine
 10
260.5288523947448
 20
135.9586759968704
 30
0.0
 11
261.8623729979133
 21
135.9586759968705
 31
0.0
  0
LINE
  5
8B1
102
{ACAD_REACTORS
330
888
102
}
330
18
100
AcDbEntity
  8
ROGO
 62
     4
100
AcDbLine
 10
260.3626027195785
 20
135.6226759968704
 30
0.0
 11
261.6961233227471
 21
135.6226759968704
 31
0.0
  0
LINE
  5
8B2
102
{ACAD_REACTORS
330
888
102
}
330
18
100
AcDbEntity
  8
ROGO
 62
     4
100
AcDbLine
 10
260.6993186456359
 20
136.3031979349865
 30
0.0
 11
262.0328392488045
 21
136.3031979349865
 31
0.0
  0
LINE
  5
8B3
102
{ACAD_REACTORS
330
888
102
}
330
18
100
AcDbEntity
  8
ROGO
 62
     4
100
AcDbLine
 10
260.8655612828882
 20
136.6391837109638
 30
0.0
 11
262.1990818860567
 21
136.6391837109638
 31
0.0
  0
LINE
  5
8B4
102
{ACAD_REACTORS
330
888
102
}
330
18
100
AcDbEntity
  8
ROGO
 62
     4
100
AcDbLine
 10
260.8655612828882
 20
136.6391837109638
 30
0.0
 11
260.6993186456359
 21
136.3031979349865
 31
0.0
  0
LINE
  5
8B5
102
{ACAD_REACTORS
330
888
102
}
330
18
100
AcDbEntity
  8
ROGO
 62
     4
100
AcDbLine
 10
258.9462520974716
 20
135.1929799968704
 30
0.0
 11
261.4835137381631
 21
135.1929799968704
 31
0.0
  0
LINE
  5
8B6
102
{ACAD_REACTORS
330
888
102
}
330
18
100
AcDbEntity
  8
ROGO
 62
     4
100
AcDbLine
 10
262.4117021656775
 20
137.0689013262383
 30
0.0
 11
262.1990818860567
 21
136.6391837109638
 31
0.0
  0
LINE
  5
8B7
102
{ACAD_REACTORS
330
888
102
}
330
18
100
AcDbEntity
  8
ROGO
 62
     4
100
AcDbLine
 10
259.8744405249861
 20
137.0689013262383
 30
0.0
 11
258.9462520974718
 21
135.1929799968704
 31
0.0
  0
LINE
  5
8B8
102
{ACAD_REACTORS
330
883
102
}
330
18
100
AcDbEntity
  8
ROGO
 62
     4
100
AcDbLine
 10
256.5996580399598
 20
135.1929799968704
 30
0.0
 11
256.1221949673477
 21
134.1376459192297
 31
0.0
  0
LINE
  5
8B9
102
{ACAD_REACTORS
330
883
102
}
330
18
100
AcDbEntity
  8
ROGO
 62
     4
100
AcDbLine
 10
257.5982590987516
 20
135.8445890460971
 30
0.0
 11
256.8944644575457
 21
135.8445890460972
 31
0.0
  0
LINE
  5
8BA
102
{ACAD_REACTORS
330
883
102
}
330
18
100
AcDbEntity
  8
ROGO
 62
     4
100
AcDbLine
 10
257.7001570224812
 20
136.3434771673621
 30
0.0
 11
257.1201755951991
 21
136.3434771673621
 31
0.0
  0
SPLINE
  5
8BB
102
{ACAD_REACTORS
330
883
102
}
330
18
100
AcDbEntity
  8
ROGO
 62
     4
100
AcDbSpline
210
0.0
220
0.0
230
1.0
 70
     8
 71
     3
 72
    15
 73
    11
 74
     9
 42
0.0000000001
 43
0.0000000001
 44
0.0000000001
 40
0.0
 40
0.0
 40
0.0
 40
0.0
 40
0.2199578613106558
 40
0.3202465475123651
 40
0.4340808827708152
 40
0.5116301246390283
 40
0.634275054953107
 40
0.7077360179240892
 40
0.8337709579493377
 40
0.875782631437913
 40
0.875782631437913
 40
0.875782631437913
 40
0.875782631437913
 10
257.7001570224812
 20
136.343477167362
 30
0.0
 10
257.7827689297087
 20
136.343855573994
 30
0.0
 10
257.9030473226488
 20
136.3444065132365
 30
0.0
 10
257.9688198317409
 20
136.1956217933372
 30
0.0
 10
257.9393374571218
 20
136.0998276438552
 30
0.0
 10
257.902275709373
 20
136.0014769092155
 30
0.0
 10
257.8367792071698
 20
135.9346461016878
 30
0.0
 10
257.748873307748
 20
135.8702767679207
 30
0.0
 10
257.6657980319542
 20
135.8624845718358
 30
0.0
 10
257.6117668905647
 20
135.8481681526155
 30
0.0
 10
257.5982590987514
 20
135.8445890460971
 30
0.0
 11
257.7001570224812
 21
136.343477167362
 31
0.0
 11
257.9141428380938
 21
136.2925700807336
 31
0.0
 11
257.9549021247723
 21
136.2009376567259
 31
0.0
 11
257.9345227743997
 21
136.0889423980667
 31
0.0
 11
257.9039534558742
 21
136.017672476787
 31
0.0
 11
257.822434882517
 21
135.9260400527792
 31
0.0
 11
257.7612962454658
 21
135.8853143834765
 31
0.0
 11
257.6390183854301
 21
135.8547704634229
 31
0.0
 11
257.5982590987514
 21
135.8445890460971
 31
0.0
  0
LINE
  5
8BC
102
{ACAD_REACTORS
330
883
102
}
330
18
100
AcDbEntity
  8
ROGO
 62
     4
100
AcDbLine
 10
257.1201755951991
 20
136.3434771673621
 30
0.0
 11
256.8944644575456
 21
135.8445890460972
 31
0.0
  0
LINE
  5
8BD
102
{ACAD_REACTORS
330
883
102
}
330
18
100
AcDbEntity
  8
ROGO
 62
     4
100
AcDbLine
 10
257.8733841377901
 20
135.1929799968704
 30
0.0
 11
256.5996580399598
 21
135.1929799968704
 31
0.0
  0
SPLINE
  5
8BE
102
{ACAD_REACTORS
330
883
102
}
330
18
100
AcDbEntity
  8
ROGO
 62
     4
100
AcDbSpline
210
0.0
220
0.0
230
1.0
 70
     8
 71
     3
 72
    18
 73
    14
 74
     0
 42
0.0000000001
 43
0.0000000001
 40
0.1087402787915014
 40
0.1087402787915014
 40
0.1087402787915014
 40
0.1087402787915014
 40
0.5992371417938475
 40
1.083176791562496
 40
1.448211145705696
 40
1.714037220764907
 40
2.164002567013297
 40
2.740236056362883
 40
3.395137510199602
 40
4.071816045172726
 40
4.784906178399433
 40
5.506895915094292
 40
6.060470601257719
 40
6.060470601257719
 40
6.060470601257719
 40
6.060470601257719
 10
258.513549106121
 20
137.0689013262383
 30
0.0
 10
258.587348445601
 20
137.0418551050273
 30
0.0
 10
258.7324740853876
 20
136.9846752602912
 30
0.0
 10
258.9095958504549
 20
136.8541719605892
 30
0.0
 10
259.0061904132046
 20
136.7035165646281
 30
0.0
 10
259.0991035682661
 20
136.5550726470526
 30
0.0
 10
259.1121065947102
 20
136.3421047411148
 30
0.0
 10
259.0908067589286
 20
136.0728616902981
 30
0.0
 10
258.9532969433912
 20
135.7919343509828
 30
0.0
 10
258.7325856018465
 20
135.5462243069801
 30
0.0
 10
258.4585570688565
 20
135.3495611922063
 30
0.0
 10
258.1695845287033
 20
135.1951857114986
 30
0.0
 10
257.9630268757695
 20
135.1936475392006
 30
0.0
 10
257.8733841373486
 20
135.1929799968704
 30
0.0
  0
LINE
  5
8BF
102
{ACAD_REACTORS
330
883
102
}
330
18
100
AcDbEntity
  8
ROGO
 62
     4
100
AcDbLine
 10
256.2099800875708
 20
137.0689013262383
 30
0.0
 11
254.7596221731527
 21
134.1376459192296
 31
0.0
  0
LINE
  5
8C0
102
{ACAD_REACTORS
330
884
330
883
102
}
330
18
100
AcDbEntity
  8
ROGO
 62
     4
100
AcDbLine
 10
254.7596221731527
 20
134.1376459192297
 30
0.0
 11
274.6013039831867
 21
134.1376459192297
 31
0.0
  0
LINE
  5
8C1
102
{ACAD_REACTORS
330
883
102
}
330
18
100
AcDbEntity
  8
ROGO
 62
     4
100
AcDbLine
 10
256.2099800875708
 20
137.0689013262383
 30
0.0
 11
258.513549106121
 21
137.0689013262383
 31
0.0
  0
TEXT
  5
8C2
330
18
100
AcDbEntity
  8
文字
100
AcDbText
 10
282.0575197799185
 20
134.0662025463132
 30
0.0
 40
3.0
  1
LB-3
  7
STYLE3
100
AcDbText
  0
LINE
  5
8C4
330
18
100
AcDbEntity
  8
隠れ線2
100
AcDbLine
 10
313.7821834481274
 20
148.0568116978522
 30
0.0
 11
229.465684582452
 21
148.0568116978523
 31
0.0
  0
LINE
  5
8C5
330
18
100
AcDbEntity
  8
隠れ線2
100
AcDbLine
 10
313.7821834481274
 20
124.6568116978523
 30
0.0
 11
225.2821834481273
 21
124.6568116978523
 31
0.0
  0
LINE
  5
8C6
330
18
100
AcDbEntity
  8
隠れ線2
100
AcDbLine
 10
315.2821834481274
 20
146.5568116978523
 30
0.0
 11
315.2821834481274
 21
126.1568116978523
 31
0.0
  0
ARC
  5
8C9
330
18
100
AcDbEntity
  8
隠れ線2
100
AcDbCircle
 10
313.7821834481274
 20
146.5568116978523
 30
0.0
 40
1.5
100
AcDbArc
 50
0.0000000000001527
 51
89.99999999999998
  0
ARC
  5
8CA
330
18
100
AcDbEntity
  8
隠れ線2
100
AcDbCircle
 10
313.7821834481274
 20
126.1568116978523
 30
0.0
 40
1.5
100
AcDbArc
 50
270.0
 51
0.0
  0
ARC
  5
8D8
330
18
100
AcDbEntity
  8
隠れ線
100
AcDbCircle
 10
229.465684582452
 20
151.0568116978523
 30
0.0
 40
3.0
100
AcDbArc
 50
232.7244232999051
 51
270.0
  0
ARC
  5
8D9
330
18
100
AcDbEntity
  8
隠れ線2
100
AcDbCircle
 10
241.7635124204087
 20
167.2143014257309
 30
0.0
 40
23.30519745874253
100
AcDbArc
 50
225.857785375959
 51
232.724423299905
  0
LINE
  5
92D
330
18
100
AcDbEntity
  8
外形線
100
AcDbLine
 10
197.030010759601
 20
146.0551026955556
 30
0.0
 11
203.5300106104259
 21
146.0585060878298
 31
0.0
  0
LINE
  5
959
330
18
100
AcDbEntity
  8
外形線
100
AcDbLine
 10
204.2789052798578
 20
164.9610991266315
 30
0.0
 11
204.279565443139
 21
150.5588991707086
 31
0.0
  0
LINE
  5
95A
330
18
100
AcDbEntity
  8
外形線
100
AcDbLine
 10
196.2789052253867
 20
164.96210412196
 30
0.0
 11
196.279565626739
 21
150.5547103802173
 31
0.0
  0
LINE
  5
95B
330
18
100
AcDbEntity
  8
外形線
100
AcDbLine
 10
196.279565626739
 20
150.5547103802173
 30
0.0
 11
204.279565443139
 21
150.5588991707086
 31
0.0
  0
LINE
  5
95C
330
18
100
AcDbEntity
  8
外形線
100
AcDbLine
 10
204.0295654488765
 20
150.5587682710058
 30
0.0
 11
204.0297488105248
 21
146.5585289381256
 31
0.0
  0
LINE
  5
95D
330
18
100
AcDbEntity
  8
外形線
100
AcDbLine
 10
196.5295656210015
 20
150.5548412799202
 30
0.0
 11
196.5297489607504
 21
146.555079708182
 31
0.0
  0
ARC
  5
95E
330
18
100
AcDbEntity
  8
外形線
100
AcDbCircle
 10
197.0297489602251
 20
146.5551026270167
 30
0.0
 40
0.5
100
AcDbArc
 50
180.0026263050015
 51
270.0299999999992
  0
ARC
  5
95F
330
18
100
AcDbEntity
  8
外形線
100
AcDbCircle
 10
203.5297488110501
 20
146.5585060192909
 30
0.0
 40
0.5
100
AcDbArc
 50
270.029999999999
 51
0.0026263050015195
  0
LINE
  5
A9F
330
18
100
AcDbEntity
  8
中心線
100
AcDbLine
 10
210.7821834481274
 20
150.5801845145516
 30
0.0
 11
210.7821834481274
 21
139.3256191978291
 31
0.0
  0
LINE
  5
AA0
330
18
100
AcDbEntity
  8
想像線
 48
0.5
100
AcDbLine
 10
207.7821834481271
 20
149.9568116978523
 30
0.0
 11
207.7821834481273
 21
114.9568116978522
 31
0.0
  0
LINE
  5
AA1
330
18
100
AcDbEntity
  8
想像線
 48
0.6
100
AcDbLine
 10
191.7821834481271
 20
149.9568116978521
 30
0.0
 11
191.782183448127
 21
114.9568116978522
 31
0.0
  0
LINE
  5
AA2
330
18
100
AcDbEntity
  8
中心線
 48
0.5
100
AcDbLine
 10
202.3163369935101
 20
122.7736722067431
 30
0.0
 11
199.5558045497391
 21
144.5035240646202
 31
0.0
  0
LINE
  5
AA3
330
18
100
AcDbEntity
  8
想像線
 48
0.5
100
AcDbLine
 10
191.782183448127
 20
114.9568116978522
 30
0.0
 11
207.7821834481273
 21
114.9568116978522
 31
0.0
  0
LINE
  5
AA4
330
18
100
AcDbEntity
  8
外形線
100
AcDbLine
 10
200.3086063123845
 20
140.9208489607075
 30
0.0
 11
203.2262179457658
 21
137.479701532563
 31
0.0
  0
LINE
  5
AA5
330
18
100
AcDbEntity
  8
外形線
100
AcDbLine
 10
201.653660491379
 20
142.0203031504823
 30
0.0
 11
203.970481210987
 21
137.5722876656626
 31
0.0
  0
LINE
  5
AA6
330
18
100
AcDbEntity
  8
外形線
100
AcDbLine
 10
198.1454966699243
 20
141.5746305287576
 30
0.0
 11
197.014460678219
 21
136.6886037599537
 31
0.0
  0
LINE
  5
AA7
330
18
100
AcDbEntity
  8
外形線
100
AcDbLine
 10
199.7227349468754
 20
140.846420615639
 30
0.0
 11
197.7582328320464
 21
136.7850557334473
 31
0.0
  0
LINE
  5
AA8
330
18
100
AcDbEntity
  8
外形線
100
AcDbLine
 10
203.970481210987
 20
137.5722876656626
 30
0.0
 11
203.2262179457658
 21
137.479701532563
 31
0.0
  0
LINE
  5
AA9
330
18
100
AcDbEntity
  8
外形線
100
AcDbLine
 10
205.3315647648117
 20
126.8583603370629
 30
0.0
 11
204.5873014995906
 21
126.7657742039632
 31
0.0
  0
LINE
  5
AAA
330
18
100
AcDbEntity
  8
外形線
100
AcDbLine
 10
204.8971133433974
 20
126.3004607381823
 30
0.0
 11
205.3315647648117
 21
126.8583603370629
 31
0.0
  0
LINE
  5
AAB
330
18
100
AcDbEntity
  8
外形線
100
AcDbLine
 10
203.2262179457658
 20
137.479701532563
 30
0.0
 11
204.6503960536873
 21
126.2691180908813
 31
0.0
  0
LINE
  5
AAC
330
18
100
AcDbEntity
  8
外形線
100
AcDbLine
 10
197.014460678219
 20
136.6886037599537
 30
0.0
 11
198.3755442320437
 21
125.9746764313542
 31
0.0
  0
LINE
  5
AAD
330
18
100
AcDbEntity
  8
外形線
100
AcDbLine
 10
197.7582328320464
 20
136.7850557334473
 30
0.0
 11
199.1824109399679
 21
125.5744722917657
 31
0.0
  0
LINE
  5
AAE
330
18
100
AcDbEntity
  8
外形線
100
AcDbLine
 10
198.9356936502577
 20
125.5431296444647
 30
0.0
 11
201.9164034968276
 21
125.9217951913235
 31
0.0
  0
LINE
  5
AAF
330
18
100
AcDbEntity
  8
外形線
100
AcDbLine
 10
198.9356936502577
 20
125.5431296444647
 30
0.0
 11
198.3755442320437
 21
125.9746764313541
 31
0.0
  0
LINE
  5
AB0
330
18
100
AcDbEntity
  8
外形線
100
AcDbLine
 10
198.3755442320437
 20
125.9746764313541
 30
0.0
 11
199.1193163858712
 21
126.0711284048475
 31
0.0
  0
LINE
  5
AB1
330
18
100
AcDbEntity
  8
外形線
100
AcDbLine
 10
204.8971133433974
 20
126.3004607381823
 30
0.0
 11
201.9164034968275
 21
125.9217951913235
 31
0.0
  0
LINE
  5
AB2
330
18
100
AcDbEntity
  8
外形線
100
AcDbLine
 10
201.0617530687929
 20
128.2702546204216
 30
0.0
 11
201.9781649939252
 21
129.4597608855642
 31
0.0
  0
LINE
  5
AB3
330
18
100
AcDbEntity
  8
外形線
100
AcDbLine
 10
200.9880071577168
 20
129.3427580231096
 30
0.0
 11
202.1167471524956
 21
128.4731612652775
 31
0.0
  0
LINE
  5
AB4
330
18
100
AcDbEntity
  8
中心線
100
AcDbLine
 10
203.5230169223442
 20
129.1568225706698
 30
0.0
 11
199.924896322659
 21
128.6997219554885
 31
0.0
  0
CIRCLE
  5
AB5
330
18
100
AcDbEntity
  8
外形線
100
AcDbCircle
 10
201.5527992360749
 20
128.907634467232
 30
0.0
 40
1.25
  0
LINE
  5
AB6
330
18
100
AcDbEntity
  8
外形線
100
AcDbLine
 10
197.014460678219
 20
136.6886037599537
 30
0.0
 11
197.7582328320464
 21
136.7850557334473
 31
0.0
  0
LINE
  5
AB7
330
18
100
AcDbEntity
  8
外形線
100
AcDbLine
 10
200.2901372808454
 20
134.2204318510417
 30
0.0
 11
201.2065492059774
 21
135.4099381161844
 31
0.0
  0
LINE
  5
AB8
330
18
100
AcDbEntity
  8
外形線
100
AcDbLine
 10
200.2163913697694
 20
135.2929352537296
 30
0.0
 11
201.345131364548
 21
134.4233384958976
 31
0.0
  0
CIRCLE
  5
AB9
330
18
100
AcDbEntity
  8
外形線
100
AcDbCircle
 10
200.7811834481274
 20
134.8578116978523
 30
0.0
 40
1.25
  0
LINE
  5
ABA
330
18
100
AcDbEntity
  8
中心線
100
AcDbLine
 10
202.7547707017949
 20
135.1074482774524
 30
0.0
 11
199.0208722031564
 21
134.6330986125465
 31
0.0
  0
LINE
  5
ABB
330
18
100
AcDbEntity
  8
外形線
100
AcDbLine
 10
203.970481210987
 20
137.5722876656626
 30
0.0
 11
205.3315647648117
 21
126.858360337063
 31
0.0
  0
LINE
  5
ABD
330
18
100
AcDbEntity
  8
外形線
100
AcDbLine
 10
203.4798065786106
 20
145.2981676221167
 30
0.0
 11
203.4798065786109
 21
142.7981676221167
 31
0.0
  0
LINE
  5
ABE
330
18
100
AcDbEntity
  8
外形線
100
AcDbLine
 10
197.0798065786109
 20
145.2981676221167
 30
0.0
 11
197.0798065786109
 21
142.7981676221167
 31
0.0
  0
LINE
  5
ABF
330
18
100
AcDbEntity
  8
外形線
100
AcDbLine
 10
197.0798065786109
 20
142.7981676221167
 30
0.0
 11
203.479806578611
 21
142.7981676221168
 31
0.0
  0
LINE
  5
AC2
330
18
100
AcDbEntity
  8
外形線
100
AcDbLine
 10
201.653660491379
 20
142.0203031504823
 30
0.0
 11
199.898999663241
 21
141.8020238552779
 31
0.0
  0
ARC
  5
AC3
330
18
100
AcDbEntity
  8
外形線
100
AcDbCircle
 10
200.062097814386
 20
140.6382563910698
 30
0.0
 40
0.375
100
AcDbArc
 50
48.90146370738413
 51
99.55278054262302
  0
ARC
  5
AC4
330
18
100
AcDbEntity
  8
外形線
100
AcDbCircle
 10
199.9787702945961
 20
141.3080933297689
 30
0.0
 40
1.5
100
AcDbArc
 50
26.56236944608506
 51
97.88503471626828
  0
ARC
  5
AC5
330
18
100
AcDbEntity
  8
外形線
100
AcDbCircle
 10
199.9452663445174
 20
141.3038370310241
 30
0.0
 40
1.5
100
AcDbArc
 50
96.59496528373175
 51
167.9176305539149
  0
ARC
  5
AC6
330
18
100
AcDbEntity
  8
外形線
100
AcDbCircle
 10
200.0320731206615
 20
140.6344420925793
 30
0.0
 40
0.375
100
AcDbArc
 50
94.92721945737695
 51
145.5785362926159
  0
LINE
  5
AC7
330
18
100
AcDbEntity
  8
外形線
100
AcDbLine
 10
198.1454966699243
 20
141.5746305287576
 30
0.0
 11
199.898999663241
 21
141.8020238552779
 31
0.0
  0
LINE
  5
AC8
330
18
100
AcDbEntity
  8
外形線
100
AcDbLine
 10
197.0798065786108
 20
145.2981676221167
 30
0.0
 11
203.4798065786107
 21
145.2981676221167
 31
0.0
  0
LINE
  5
ACA
330
18
100
AcDbEntity
  8
外形線
100
AcDbLine
 10
202.2798065786107
 20
146.0578514824697
 30
0.0
 11
202.2798065786107
 21
145.2981676221166
 31
0.0
  0
LINE
  5
ACB
330
18
100
AcDbEntity
  8
外形線
100
AcDbLine
 10
198.2798065786111
 20
146.055757087176
 30
0.0
 11
198.2798065786111
 21
145.2981676221166
 31
0.0
  0
LINE
  5
ACC
330
18
100
AcDbEntity
  8
想像線
 48
0.5
100
AcDbLine
 10
207.7821834481273
 20
139.9568116978521
 30
0.0
 11
213.7821834481276
 21
139.9568116978521
 31
0.0
  0
LINE
  5
ACE
330
18
100
AcDbEntity
  8
想像線
100
AcDbLine
 10
210.0329967574092
 20
143.1059983885704
 30
0.0
 11
211.5584960839438
 21
141.5804990620358
 31
0.0
  0
LINE
  5
ACF
330
18
100
AcDbEntity
  8
想像線
100
AcDbLine
 10
210.0434091037582
 20
141.6180373534831
 30
0.0
 11
211.5210136255596
 21
143.0956418752845
 31
0.0
  0
CIRCLE
  5
AD0
330
18
100
AcDbEntity
  8
想像線
100
AcDbCircle
 10
210.7821834481273
 20
142.3568116978523
 30
0.0
 40
1.5
  0
LINE
  5
AD1
330
18
100
AcDbEntity
  8
中心線
100
AcDbLine
 10
208.4835810839373
 20
142.3568116978521
 30
0.0
 11
213.264510992513
 21
142.3568116978521
 31
0.0
  0
LINE
  5
AD2
330
18
100
AcDbEntity
  8
想像線
 48
0.5
100
AcDbLine
 10
191.7821834481271
 20
149.9568116978521
 30
0.0
 11
207.7821834481271
 21
149.9568116978523
 31
0.0
  0
LINE
  5
AD3
330
18
100
AcDbEntity
  8
想像線
 48
0.5
100
AcDbLine
 10
207.7821834481271
 20
149.9568116978523
 30
0.0
 11
213.7821834481272
 21
149.9568116978523
 31
0.0
  0
LINE
  5
AD4
330
18
100
AcDbEntity
  8
想像線
100
AcDbLine
 10
210.0329967574093
 20
148.1059983885704
 30
0.0
 11
211.5584960839437
 21
146.5804990620358
 31
0.0
  0
LINE
  5
AD5
330
18
100
AcDbEntity
  8
想像線
100
AcDbLine
 10
210.0434091037582
 20
146.6180373534832
 30
0.0
 11
211.5210136255596
 21
148.0956418752846
 31
0.0
  0
CIRCLE
  5
AD6
330
18
100
AcDbEntity
  8
想像線
100
AcDbCircle
 10
210.7821834481274
 20
147.3568116978523
 30
0.0
 40
1.5
  0
LINE
  5
AD7
330
18
100
AcDbEntity
  8
中心線
100
AcDbLine
 10
208.6850106370595
 20
147.3568116978521
 30
0.0
 11
213.0106136518099
 21
147.3568116978521
 31
0.0
  0
LINE
  5
AD8
330
18
100
AcDbEntity
  8
想像線
100
AcDbLine
 10
213.7821834481272
 20
149.9568116978523
 30
0.0
 11
213.7821834481276
 21
139.9568116978521
 31
0.0
  0
LINE
  5
B0B
330
18
100
AcDbEntity
  8
想像線
100
AcDbLine
 10
170.4284514906608
 20
169.5536894058266
 30
0.0
 11
138.0853057401531
 21
137.2105436553191
 31
0.0
  0
LINE
  5
B0C
330
18
100
AcDbEntity
  8
想像線
100
AcDbLine
 10
172.4790611561018
 20
167.5030797403856
 30
0.0
 11
140.1359154055942
 21
135.159933989878
 31
0.0
  0
LINE
  5
B0D
330
18
100
AcDbEntity
  8
外形線
100
AcDbLine
 10
170.2163194563048
 20
169.7658214401826
 30
0.0
 11
137.8731737057971
 21
137.422675689675
 31
0.0
  0
LINE
  5
B0E
330
18
100
AcDbEntity
  8
外形線
100
AcDbLine
 10
172.6911931904577
 20
167.2909477060296
 30
0.0
 11
140.3480474399501
 21
134.947801955522
 31
0.0
  0
LINE
  5
B0F
330
18
100
AcDbEntity
  8
中心線
 48
0.5
100
AcDbLine
 10
176.0251236801003
 20
173.0997519298252
 30
0.0
 11
134.626426701691
 21
131.701054951416
 31
0.0
  0
CIRCLE
  5
B10
330
18
100
AcDbEntity
  8
外形線
100
AcDbCircle
 10
174.2821834481274
 20
171.3568116978523
 30
0.0
 40
1.25
  0
CIRCLE
  5
B11
330
18
100
AcDbEntity
  8
外形線
100
AcDbCircle
 10
174.2821834481274
 20
171.3568116978523
 30
0.0
 40
2.0
  0
LINE
  5
B12
330
18
100
AcDbEntity
  8
外形線
100
AcDbLine
 10
170.2163194563048
 20
169.7658214401826
 30
0.0
 11
172.6911931904577
 21
167.2909477060296
 31
0.0
  0
LINE
  5
B13
330
18
100
AcDbEntity
  8
中心線
 48
0.5
100
AcDbLine
 10
172.1947019085729
 20
173.4442932374068
 30
0.0
 11
176.384447037286
 21
169.2545481086938
 31
0.0
  0
CIRCLE
  5
B14
330
18
100
AcDbEntity
  8
外形線
100
AcDbCircle
 10
136.2821834481274
 20
133.3568116978523
 30
0.0
 40
2.0
  0
LINE
  5
B15
330
18
100
AcDbEntity
  8
外形線
100
AcDbLine
 10
137.8731737057971
 20
137.422675689675
 30
0.0
 11
140.3480474399501
 21
134.947801955522
 31
0.0
  0
LINE
  5
B16
330
18
100
AcDbEntity
  8
中心線
 48
0.5
100
AcDbLine
 10
134.4394039858577
 20
135.1995911601221
 30
0.0
 11
138.0616918141998
 21
131.5773033317801
 31
0.0
  0
CIRCLE
  5
B17
330
18
100
AcDbEntity
  8
外形線
100
AcDbCircle
 10
136.2821834481274
 20
133.3568116978523
 30
0.0
 40
1.25
  0
ARC
  5
B19
330
18
100
AcDbEntity
  8
寸法線
100
AcDbCircle
 10
160.2821834481274
 20
136.3568116978523
 30
0.0
 40
80.0
100
AcDbArc
 50
154.7135354631921
 51
185.1150060532494
  0
ARC
  5
B1F
330
18
100
AcDbEntity
  8
外形線
100
AcDbCircle
 10
80.37012240600436
 20
140.1068116978523
 30
0.0
 40
1.25
100
AcDbArc
 50
359.9999999999987
 51
180.0
  0
LINE
  5
B21
330
18
100
AcDbEntity
  8
外形線
100
AcDbLine
 10
79.12012240600436
 20
140.1068116978523
 30
0.0
 11
79.12012240600436
 21
139.3568116978523
 31
0.0
  0
LINE
  5
B22
330
18
100
AcDbEntity
  8
外形線
100
AcDbLine
 10
81.62012240600436
 20
140.1068116978523
 30
0.0
 11
81.62012240600434
 21
139.3568116978523
 31
0.0
  0
ARC
  5
B23
330
18
100
AcDbEntity
  8
外形線
100
AcDbCircle
 10
80.37012240600436
 20
132.6068116978523
 30
0.0
 40
1.25
100
AcDbArc
 50
180.0
 51
0.0000000000013371
  0
LINE
  5
B24
330
18
100
AcDbEntity
  8
外形線
100
AcDbLine
 10
79.12012240600436
 20
132.6068116978523
 30
0.0
 11
79.12012240600436
 21
133.3568116978523
 31
0.0
  0
LINE
  5
B25
330
18
100
AcDbEntity
  8
外形線
100
AcDbLine
 10
81.62012240600436
 20
132.6068116978523
 30
0.0
 11
81.62012240600434
 21
133.3568116978524
 31
0.0
  0
LINE
  5
B42
330
18
100
AcDbEntity
  8
0
  6
ByBlock
 62
     2
100
AcDbLine
 10
74.81711909513592
 20
141.3568116978523
 30
0.0
 11
66.26391538457847
 21
141.3568116978523
 31
0.0
  0
LINE
  5
B43
330
18
100
AcDbEntity
  8
0
  6
ByBlock
 62
     2
100
AcDbLine
 10
78.28218344812739
 20
139.3568116978523
 30
0.0
 11
66.26391538457847
 21
139.3568116978523
 31
0.0
  0
LINE
  5
B44
330
18
100
AcDbEntity
  8
0
  6
ByBlock
 62
     2
100
AcDbLine
 10
67.51391538457847
 20
143.8568116978523
 30
0.0
 11
67.51391538457847
 21
146.3568116978523
 31
0.0
  0
LINE
  5
B45
330
18
100
AcDbEntity
  8
0
  6
ByBlock
 62
     2
100
AcDbLine
 10
67.51391538457847
 20
136.8568116978523
 30
0.0
 11
67.51391538457845
 21
136.4627244864248
 31
0.0
  0
LINE
  5
B46
330
18
100
AcDbEntity
  8
0
  6
ByBlock
 62
     2
100
AcDbLine
 10
67.51391538457847
 20
141.3568116978523
 30
0.0
 11
67.51391538457847
 21
139.3568116978523
 31
0.0
  0
INSERT
  5
B47
330
18
100
AcDbEntity
  8
0
  6
ByBlock
 62
     2
100
AcDbBlockReference
  2
_OPEN
 10
67.51391538457847
 20
141.3568116978523
 30
0.0
 41
2.5
 42
2.5
 43
2.5
 50
270.0
  0
INSERT
  5
B48
330
18
100
AcDbEntity
  8
0
  6
ByBlock
 62
     2
100
AcDbBlockReference
  2
_OPEN
 10
67.51391538457847
 20
139.3568116978523
 30
0.0
 41
2.5
 42
2.5
 43
2.5
 50
90.0
  0
MTEXT
  5
B49
330
18
100
AcDbEntity
  8
0
  6
ByBlock
 62
     6
100
AcDbMText
 10
65.63891538457847
 20
145.1857956090266
 30
0.0
 40
2.5
 41
0.0
 71
     5
 72
     1
  1
\A1;2
  7
STYLE3
 11
0.0000000000000001
 21
1.0
 31
0.0
 73
     1
 44
1.0
  0
POINT
  5
B4A
330
18
100
AcDbEntity
  8
DEFPOINTS
  6
ByBlock
 62
     0
100
AcDbPoint
 10
74.81711909513592
 20
141.3568116978523
 30
0.0
  0
POINT
  5
B4B
330
18
100
AcDbEntity
  8
DEFPOINTS
  6
ByBlock
 62
     0
100
AcDbPoint
 10
78.28218344812739
 20
139.3568116978523
 30
0.0
  0
POINT
  5
B4C
330
18
100
AcDbEntity
  8
DEFPOINTS
  6
ByBlock
 62
     0
100
AcDbPoint
 10
67.51391538457847
 20
139.3568116978523
 30
0.0
  0
LINE
  5
B4E
330
18
100
AcDbEntity
  8
0
  6
ByBlock
 62
     2
100
AcDbLine
 10
67.51391538457847
 20
135.8568116978523
 30
0.0
 11
67.51391538457847
 21
136.2382730872658
 31
0.0
  0
INSERT
  5
B4F
330
18
100
AcDbEntity
  8
0
  6
ByBlock
 62
     2
100
AcDbBlockReference
  2
_OPEN
 10
67.51391538457847
 20
131.3568116978523
 30
0.0
 41
-2.5
 42
2.5
 43
2.5
 50
270.0
  0
LINE
  5
B50
330
18
100
AcDbEntity
  8
0
  6
ByBlock
 62
     2
100
AcDbLine
 10
74.81711909513592
 20
131.3568116978523
 30
0.0
 11
66.26391538457847
 21
131.3568116978523
 31
0.0
  0
POINT
  5
B51
330
18
100
AcDbEntity
  8
DEFPOINTS
  6
ByBlock
 62
     0
100
AcDbPoint
 10
67.51391538457847
 20
133.3568116978523
 30
0.0
  0
INSERT
  5
B52
330
18
100
AcDbEntity
  8
0
  6
ByBlock
 62
     2
100
AcDbBlockReference
  2
_OPEN
 10
67.51391538457847
 20
133.3568116978523
 30
0.0
 41
-2.5
 42
2.5
 43
2.5
 50
90.0
  0
LINE
  5
B53
330
18
100
AcDbEntity
  8
0
  6
ByBlock
 62
     2
100
AcDbLine
 10
67.51391538457847
 20
131.3568116978523
 30
0.0
 11
67.51391538457847
 21
133.3568116978523
 31
0.0
  0
POINT
  5
B54
330
18
100
AcDbEntity
  8
DEFPOINTS
  6
ByBlock
 62
     0
100
AcDbPoint
 10
74.81711909513592
 20
131.3568116978523
 30
0.0
  0
LINE
  5
B55
330
18
100
AcDbEntity
  8
0
  6
ByBlock
 62
     2
100
AcDbLine
 10
67.51391538457847
 20
128.8568116978523
 30
0.0
 11
67.51391538457847
 21
126.3568116978523
 31
0.0
  0
LINE
  5
B56
330
18
100
AcDbEntity
  8
0
  6
ByBlock
 62
     2
100
AcDbLine
 10
78.28218344812739
 20
133.3568116978523
 30
0.0
 11
66.26391538457847
 21
133.3568116978523
 31
0.0
  0
MTEXT
  5
B57
330
18
100
AcDbEntity
  8
0
  6
ByBlock
 62
     6
100
AcDbMText
 10
65.63891538457847
 20
127.5662466514716
 30
0.0
 40
2.5
 41
0.0
 71
     5
 72
     1
  1
\A1;2
  7
STYLE3
 11
0.0000000000000001
 21
1.0
 31
0.0
 73
     1
 44
1.0
  0
LINE
  5
B5A
330
18
100
AcDbEntity
  8
0
  6
ByBlock
 62
     2
100
AcDbLine
 10
67.51391538457845
 20
136.4627244864248
 30
0.0
 11
67.51391538457845
 21
136.9955493404178
 31
0.0
  0
LINE
  5
B5B
330
18
100
AcDbEntity
  8
0
  6
ByBlock
 62
     2
100
AcDbLine
 10
67.51391538457847
 20
136.2382730872658
 30
0.0
 11
67.51391538457845
 21
135.7180740552868
 31
0.0
  0
POINT
  5
B9D
330
18
100
AcDbEntity
  8
DEFPOINTS
  6
ByBlock
 62
     0
100
AcDbPoint
 10
160.2821834481274
 20
136.3568116978523
 30
0.0
  0
LINE
  5
BB6
330
18
100
AcDbEntity
  8
中心線
 48
0.5
100
AcDbLine
 10
80.37012240600436
 20
131.3568116978523
 30
0.0
 11
80.37012240600436
 21
141.3568116978523
 31
0.0
  0
LINE
  5
BB7
330
18
100
AcDbEntity
  8
想像線
 48
0.5
100
AcDbLine
 10
130.3701224060043
 20
128.5426831750067
 30
0.0
 11
130.3701224060043
 21
144.8887825010641
 31
0.0
  0
POINT
  5
BCD
330
18
100
AcDbEntity
  8
想像線
 48
0.3
100
AcDbPoint
 10
84.28876268027408
 20
161.3568116978524
 30
0.0
  0
POINT
  5
BCE
330
18
100
AcDbEntity
  8
DEFPOINTS
  6
ByBlock
 62
     0
100
AcDbPoint
 10
80.43846925810166
 20
131.3586816133626
 30
0.0
  0
POINT
  5
BEF
330
18
100
AcDbEntity
  8
DEFPOINTS
  6
ByBlock
 62
     0
100
AcDbPoint
 10
80.37012240600438
 20
131.3568116978523
 30
0.0
  0
POINT
  5
BF0
330
18
100
AcDbEntity
  8
想像線
 48
0.3
100
AcDbPoint
 10
84.21143447769685
 20
161.1205180254144
 30
0.0
  0
POINT
  5
C1C
330
18
100
AcDbEntity
  8
想像線
 48
0.3
100
AcDbPoint
 10
81.62071836497114
 20
159.7100536777443
 30
0.0
  0
ARC
  5
C1D
330
18
100
AcDbEntity
  8
想像線
 48
0.3
100
AcDbCircle
 10
83.82972240266896
 20
159.9156996192433
 30
0.0
 40
1.25
100
AcDbArc
 50
345.5599999999986
 51
165.56
  0
LINE
  5
C1E
330
18
100
AcDbEntity
  8
想像線
 48
0.3
100
AcDbLine
 10
82.61921076915522
 20
160.2274071506375
 30
0.0
 11
82.4321862503187
 21
159.5011001705293
 31
0.0
  0
LINE
  5
C1F
330
18
100
AcDbEntity
  8
想像線
 48
0.3
100
AcDbLine
 10
85.04023403618274
 20
159.6039920878491
 30
0.0
 11
84.85320951734619
 21
158.8776851077408
 31
0.0
  0
LINE
  5
C20
330
18
100
AcDbEntity
  8
想像線
 48
0.3
100
AcDbLine
 10
81.62071836497114
 20
159.7100536777443
 30
0.0
 11
80.92249349464816
 21
156.9985076186735
 31
0.0
  0
LINE
  5
C21
330
18
100
AcDbEntity
  8
想像線
 48
0.3
100
AcDbLine
 10
81.62071836497114
 20
159.7100536777443
 30
0.0
 11
98.08367658075821
 21
155.4708312507833
 31
0.0
  0
LINE
  5
C22
330
18
100
AcDbEntity
  8
想像線
 48
0.3
100
AcDbLine
 10
80.92249349464816
 20
156.9985076186735
 30
0.0
 11
97.38545171043519
 21
152.7592851917125
 31
0.0
  0
LINE
  5
C2C
330
18
100
AcDbEntity
  8
0
  6
ByBlock
 62
     2
100
AcDbLine
 10
160.2821834481273
 20
136.3568116978523
 30
0.0
 11
86.94751937174396
 21
168.3259694096845
 31
0.0
  0
MTEXT
  5
C2D
330
18
100
AcDbEntity
  8
0
  6
ByBlock
 62
     6
100
AcDbMText
 10
110.1952576725172
 20
160.2368805776561
 30
0.0
 40
2.5
 41
0.0
 71
     5
 72
     1
  1
\A1;R80
  7
STYLE3
 11
0.9166833009547927
 21
-0.3996144713979024
 31
0.0
 73
     1
 44
1.0
  0
INSERT
  5
C2E
330
18
100
AcDbEntity
  8
0
  6
ByBlock
 62
     2
100
AcDbBlockReference
  2
_OPEN
 10
86.94751937174396
 20
168.3259694096845
 30
0.0
 41
2.5
 42
2.5
 43
2.5
 50
156.4459205620055
  0
POINT
  5
C2F
330
18
100
AcDbEntity
  8
DEFPOINTS
  6
ByBlock
 62
     0
100
AcDbPoint
 10
86.94751937174396
 20
168.3259694096845
 30
0.0
  0
POINT
  5
C30
330
18
100
AcDbEntity
  8
DEFPOINTS
  6
ByBlock
 62
     0
100
AcDbPoint
 10
160.2821834481274
 20
136.3568116978523
 30
0.0
  0
POINT
  5
C77
330
18
100
AcDbEntity
  8
DEFPOINTS
  6
ByBlock
 62
     0
100
AcDbPoint
 10
79.73850313009478
 20
131.528128662712
 30
0.0
  0
POINT
  5
C78
330
18
100
AcDbEntity
  8
DEFPOINTS
  6
ByBlock
 62
     0
100
AcDbPoint
 10
80.37012240600436
 20
132.6068116978523
 30
0.0
  0
ARC
  5
C90
330
18
100
AcDbEntity
  8
寸法線
100
AcDbCircle
 10
160.2821834481274
 20
136.3568116978523
 30
0.0
 40
40.0
100
AcDbArc
 50
335.7878910087699
 51
18.40033373552977
  0
LINE
  5
C9A
330
18
100
AcDbEntity
  8
外形線
100
AcDbLine
 10
203.3014161183028
 20
138.8568116978523
 30
0.0
 11
205.3141834481274
 21
138.8568116978523
 31
0.0
  0
LINE
  5
C9B
330
18
100
AcDbEntity
  8
隠れ線2
 48
0.5
100
AcDbLine
 10
197.5163656679587
 20
138.8568116978522
 30
0.0
 11
203.3014161183028
 21
138.8568116978523
 31
0.0
  0
LINE
  5
CA5
330
18
100
AcDbEntity
  8
0
  6
ByBlock
 62
     2
100
AcDbLine
 10
80.37012240600436
 20
131.3568116978523
 30
0.0
 11
80.37012240600436
 21
62.69604533033441
 31
0.0
  0
LINE
  5
CA6
330
18
100
AcDbEntity
  8
0
  6
ByBlock
 62
     2
100
AcDbLine
 10
325.2821834481274
 20
71.95392242301261
 30
0.0
 11
325.2821834481274
 21
62.69604533033441
 31
0.0
  0
LINE
  5
CA7
330
18
100
AcDbEntity
  8
0
  6
ByBlock
 62
     2
100
AcDbLine
 10
82.87012240600436
 20
63.94604533033441
 30
0.0
 11
322.7821834481274
 21
63.94604533033441
 31
0.0
  0
INSERT
  5
CA8
330
18
100
AcDbEntity
  8
0
  6
ByBlock
 62
     2
100
AcDbBlockReference
  2
_OPEN
 10
80.37012240600436
 20
63.94604533033441
 30
0.0
 41
2.5
 42
2.5
 43
2.5
 50
180.0
  0
INSERT
  5
CA9
330
18
100
AcDbEntity
  8
0
  6
ByBlock
 62
     2
100
AcDbBlockReference
  2
_OPEN
 10
325.2821834481274
 20
63.94604533033441
 30
0.0
 41
2.5
 42
2.5
 43
2.5
  0
MTEXT
  5
CAA
330
18
100
AcDbEntity
  8
0
  6
ByBlock
 62
     6
100
AcDbMText
 10
202.8261529270659
 20
65.82104533033441
 30
0.0
 40
2.5
 41
0.0
 71
     5
 72
     1
  1
\A1;245
  7
STYLE3
 73
     1
 44
1.0
  0
POINT
  5
CAB
330
18
100
AcDbEntity
  8
DEFPOINTS
  6
ByBlock
 62
     0
100
AcDbPoint
 10
80.37012240600436
 20
131.3568116978523
 30
0.0
  0
POINT
  5
CAC
330
18
100
AcDbEntity
  8
DEFPOINTS
  6
ByBlock
 62
     0
100
AcDbPoint
 10
325.2821834481274
 20
71.95392242301261
 30
0.0
  0
POINT
  5
CAD
330
18
100
AcDbEntity
  8
DEFPOINTS
  6
ByBlock
 62
     0
100
AcDbPoint
 10
325.2821834481274
 20
63.94604533033441
 30
0.0
  0
LINE
  5
CAE
330
18
100
AcDbEntity
  8
0
  6
ByBlock
 62
     2
100
AcDbLine
 10
160.2821834481274
 20
82.62126928363898
 30
0.0
 11
160.2821834481274
 21
71.95392242301261
 31
0.0
  0
LINE
  5
CAF
330
18
100
AcDbEntity
  8
0
  6
ByBlock
 62
     2
100
AcDbLine
 10
225.2821834481274
 20
122.6568116978523
 30
0.0
 11
225.2821834481274
 21
71.95392242301261
 31
0.0
  0
LINE
  5
CB0
330
18
100
AcDbEntity
  8
0
  6
ByBlock
 62
     2
100
AcDbLine
 10
162.7821834481274
 20
73.20392242301261
 30
0.0
 11
222.7821834481274
 21
73.20392242301261
 31
0.0
  0
INSERT
  5
CB1
330
18
100
AcDbEntity
  8
0
  6
ByBlock
 62
     2
100
AcDbBlockReference
  2
_OPEN
 10
160.2821834481274
 20
73.20392242301261
 30
0.0
 41
2.5
 42
2.5
 43
2.5
 50
180.0
  0
INSERT
  5
CB2
330
18
100
AcDbEntity
  8
0
  6
ByBlock
 62
     2
100
AcDbBlockReference
  2
_OPEN
 10
225.2821834481274
 20
73.20392242301261
 30
0.0
 41
2.5
 42
2.5
 43
2.5
  0
MTEXT
  5
CB3
330
18
100
AcDbEntity
  8
0
  6
ByBlock
 62
     6
100
AcDbMText
 10
192.7821834481274
 20
75.07892242301261
 30
0.0
 40
2.5
 41
0.0
 71
     5
 72
     1
  1
\A1;65
  7
STYLE3
 73
     1
 44
1.0
  0
POINT
  5
CB4
330
18
100
AcDbEntity
  8
DEFPOINTS
  6
ByBlock
 62
     0
100
AcDbPoint
 10
160.2821834481274
 20
82.62126928363898
 30
0.0
  0
POINT
  5
CB5
330
18
100
AcDbEntity
  8
DEFPOINTS
  6
ByBlock
 62
     0
100
AcDbPoint
 10
225.2821834481274
 20
122.6568116978523
 30
0.0
  0
POINT
  5
CB6
330
18
100
AcDbEntity
  8
DEFPOINTS
  6
ByBlock
 62
     0
100
AcDbPoint
 10
225.2821834481274
 20
73.20392242301261
 30
0.0
  0
LINE
  5
CB7
330
18
100
AcDbEntity
  8
0
  6
ByBlock
 62
     2
100
AcDbLine
 10
80.37012240600434
 20
131.3568116978523
 30
0.0
 11
70.95228135864195
 21
132.5716454149516
 31
0.0
  0
LINE
  5
CB8
330
18
100
AcDbEntity
  8
0
  6
ByBlock
 62
     2
100
AcDbLine
 10
84.20810784659773
 20
161.1102967327469
 30
0.0
 11
74.79026679923534
 21
162.3251304498462
 31
0.0
  0
LINE
  5
CB9
330
18
100
AcDbEntity
  8
0
  6
ByBlock
 62
     2
100
AcDbLine
 10
72.51184201837759
 20
134.8911864360601
 30
0.0
 11
75.71016322028071
 21
159.6857573093926
 31
0.0
  0
INSERT
  5
CBA
330
18
100
AcDbEntity
  8
0
  6
ByBlock
 62
     2
100
AcDbBlockReference
  2
_OPEN
 10
72.19200989903247
 20
132.411729355279
 30
0.0
 41
2.5
 42
2.5
 43
2.5
 50
262.6498442255768
  0
INSERT
  5
CBB
330
18
100
AcDbEntity
  8
0
  6
ByBlock
 62
     2
100
AcDbBlockReference
  2
_OPEN
 10
76.02999533962585
 20
162.1652143901736
 30
0.0
 41
2.5
 42
2.5
 43
2.5
 50
82.64984422557677
  0
MTEXT
  5
CBC
330
18
100
AcDbEntity
  8
0
  6
ByBlock
 62
     6
100
AcDbMText
 10
72.25140980874337
 20
147.5283459622352
 30
0.0
 40
2.5
 41
0.0
 71
     5
 72
     1
  1
\A1;30
  7
STYLE3
 11
0.1279328477380498
 21
0.9917828323124135
 31
0.0
 73
     1
 44
1.0
  0
POINT
  5
CBD
330
18
100
AcDbEntity
  8
DEFPOINTS
  6
ByBlock
 62
     0
100
AcDbPoint
 10
80.37012240600434
 20
131.3568116978523
 30
0.0
  0
POINT
  5
CBE
330
18
100
AcDbEntity
  8
DEFPOINTS
  6
ByBlock
 62
     0
100
AcDbPoint
 10
84.20810784659773
 20
161.1102967327469
 30
0.0
  0
POINT
  5
CBF
330
18
100
AcDbEntity
  8
DEFPOINTS
  6
ByBlock
 62
     0
100
AcDbPoint
 10
76.02999533962585
 20
162.1652143901736
 30
0.0
  0
LINE
  5
CC0
330
18
100
AcDbEntity
  8
0
  6
ByBlock
 62
     2
100
AcDbLine
 10
80.37012240600436
 20
141.3568116978523
 30
0.0
 11
62.01026934861443
 21
141.3568116978523
 31
0.0
  0
LINE
  5
CC1
330
18
100
AcDbEntity
  8
0
  6
ByBlock
 62
     2
100
AcDbLine
 10
80.37012240600436
 20
131.3568116978523
 30
0.0
 11
62.01026934861443
 21
131.3568116978523
 31
0.0
  0
LINE
  5
CC2
330
18
100
AcDbEntity
  8
0
  6
ByBlock
 62
     2
100
AcDbLine
 10
63.26026934861443
 20
138.8568116978523
 30
0.0
 11
63.26026934861443
 21
133.8568116978523
 31
0.0
  0
INSERT
  5
CC3
330
18
100
AcDbEntity
  8
0
  6
ByBlock
 62
     2
100
AcDbBlockReference
  2
_OPEN
 10
63.26026934861443
 20
141.3568116978523
 30
0.0
 41
2.5
 42
2.5
 43
2.5
 50
90.0
  0
INSERT
  5
CC4
330
18
100
AcDbEntity
  8
0
  6
ByBlock
 62
     2
100
AcDbBlockReference
  2
_OPEN
 10
63.26026934861443
 20
131.3568116978523
 30
0.0
 41
2.5
 42
2.5
 43
2.5
 50
270.0
  0
MTEXT
  5
CC5
330
18
100
AcDbEntity
  8
0
  6
ByBlock
 62
     6
100
AcDbMText
 10
61.38526934861443
 20
136.3568116978523
 30
0.0
 40
2.5
 41
0.0
 71
     5
 72
     1
  1
\A1;10
  7
STYLE3
 11
0.0000000000000001
 21
1.0
 31
0.0
 73
     1
 44
1.0
  0
POINT
  5
CC6
330
18
100
AcDbEntity
  8
DEFPOINTS
  6
ByBlock
 62
     0
100
AcDbPoint
 10
80.37012240600436
 20
141.3568116978523
 30
0.0
  0
POINT
  5
CC7
330
18
100
AcDbEntity
  8
DEFPOINTS
  6
ByBlock
 62
     0
100
AcDbPoint
 10
80.37012240600436
 20
131.3568116978523
 30
0.0
  0
POINT
  5
CC8
330
18
100
AcDbEntity
  8
DEFPOINTS
  6
ByBlock
 62
     0
100
AcDbPoint
 10
63.26026934861443
 20
131.3568116978523
 30
0.0
  0
LINE
  5
CCC
330
18
100
AcDbEntity
  8
0
  6
ByBlock
 62
     2
100
AcDbLine
 10
80.37012240600436
 20
108.4666102760908
 30
0.0
 11
80.37012240600436
 21
82.62126928363898
 31
0.0
  0
LINE
  5
CCD
330
18
100
AcDbEntity
  8
0
  6
ByBlock
 62
     2
100
AcDbLine
 10
130.3701224060043
 20
128.5426831750067
 30
0.0
 11
130.3701224060043
 21
82.62126928363898
 31
0.0
  0
LINE
  5
CCE
330
18
100
AcDbEntity
  8
0
  6
ByBlock
 62
     2
100
AcDbLine
 10
82.87012240600436
 20
83.87126928363898
 30
0.0
 11
127.8701224060043
 21
83.87126928363898
 31
0.0
  0
INSERT
  5
CCF
330
18
100
AcDbEntity
  8
0
  6
ByBlock
 62
     2
100
AcDbBlockReference
  2
_OPEN
 10
80.37012240600436
 20
83.87126928363898
 30
0.0
 41
2.5
 42
2.5
 43
2.5
 50
180.0
  0
INSERT
  5
CD0
330
18
100
AcDbEntity
  8
0
  6
ByBlock
 62
     2
100
AcDbBlockReference
  2
_OPEN
 10
130.3701224060043
 20
83.87126928363898
 30
0.0
 41
2.5
 42
2.5
 43
2.5
  0
MTEXT
  5
CD1
330
18
100
AcDbEntity
  8
0
  6
ByBlock
 62
     6
100
AcDbMText
 10
105.3701224060043
 20
85.74626928363898
 30
0.0
 40
2.5
 41
0.0
 71
     5
 72
     1
  1
\A1;50
  7
STYLE3
 73
     1
 44
1.0
  0
POINT
  5
CD2
330
18
100
AcDbEntity
  8
DEFPOINTS
  6
ByBlock
 62
     0
100
AcDbPoint
 10
80.37012240600436
 20
108.4666102760908
 30
0.0
  0
POINT
  5
CD3
330
18
100
AcDbEntity
  8
DEFPOINTS
  6
ByBlock
 62
     0
100
AcDbPoint
 10
130.3701224060043
 20
128.5426831750067
 30
0.0
  0
POINT
  5
CD4
330
18
100
AcDbEntity
  8
DEFPOINTS
  6
ByBlock
 62
     0
100
AcDbPoint
 10
130.3701224060043
 20
83.87126928363898
 30
0.0
  0
LINE
  5
CD5
330
18
100
AcDbEntity
  8
0
  6
ByBlock
 62
     2
100
AcDbLine
 10
79.12012240600436
 20
132.6068116978523
 30
0.0
 11
79.12012240600436
 21
115.7962601603367
 31
0.0
  0
LINE
  5
CD6
330
18
100
AcDbEntity
  8
0
  6
ByBlock
 62
     2
100
AcDbLine
 10
81.62012240600436
 20
132.6068116978524
 30
0.0
 11
81.62012240600436
 21
115.7962601603367
 31
0.0
  0
LINE
  5
CD7
330
18
100
AcDbEntity
  8
0
  6
ByBlock
 62
     2
100
AcDbLine
 10
76.62012240600436
 20
117.0462601603367
 30
0.0
 11
74.12012240600436
 21
117.0462601603367
 31
0.0
  0
LINE
  5
CD8
330
18
100
AcDbEntity
  8
0
  6
ByBlock
 62
     2
100
AcDbLine
 10
84.12012240600436
 20
117.0462601603367
 30
0.0
 11
101.58440812029
 21
117.0462601603367
 31
0.0
  0
LINE
  5
CD9
330
18
100
AcDbEntity
  8
0
  6
ByBlock
 62
     2
100
AcDbLine
 10
79.12012240600436
 20
117.0462601603367
 30
0.0
 11
81.62012240600436
 21
117.0462601603367
 31
0.0
  0
INSERT
  5
CDA
330
18
100
AcDbEntity
  8
0
  6
ByBlock
 62
     2
100
AcDbBlockReference
  2
_OPEN
 10
79.12012240600436
 20
117.0462601603367
 30
0.0
 41
2.5
 42
2.5
 43
2.5
  0
INSERT
  5
CDB
330
18
100
AcDbEntity
  8
0
  6
ByBlock
 62
     2
100
AcDbBlockReference
  2
_OPEN
 10
81.62012240600436
 20
117.0462601603367
 30
0.0
 41
2.5
 42
2.5
 43
2.5
 50
180.0
  0
MTEXT
  5
CDC
330
18
100
AcDbEntity
  8
0
  6
ByBlock
 62
     6
100
AcDbMText
 10
94.10226526314721
 20
118.9212601603367
 30
0.0
 40
2.5
 41
0.0
 71
     5
 72
     1
  1
\A1;2-φ2.5
  7
STYLE3
 73
     1
 44
1.0
  0
POINT
  5
CDD
330
18
100
AcDbEntity
  8
DEFPOINTS
  6
ByBlock
 62
     0
100
AcDbPoint
 10
79.12012240600436
 20
132.6068116978523
 30
0.0
  0
POINT
  5
CDE
330
18
100
AcDbEntity
  8
DEFPOINTS
  6
ByBlock
 62
     0
100
AcDbPoint
 10
81.62012240600436
 20
132.6068116978524
 30
0.0
  0
POINT
  5
CDF
330
18
100
AcDbEntity
  8
DEFPOINTS
  6
ByBlock
 62
     0
100
AcDbPoint
 10
81.62012240600436
 20
117.0462601603367
 30
0.0
  0
LINE
  5
CE0
330
18
100
AcDbEntity
  8
0
  6
ByBlock
 62
     2
100
AcDbLine
 10
160.2821834481274
 20
118.2925546799264
 30
0.0
 11
160.2821834481274
 21
82.62126928363898
 31
0.0
  0
LINE
  5
CE1
330
18
100
AcDbEntity
  8
0
  6
ByBlock
 62
     2
100
AcDbLine
 10
200.281587936864
 20
106.4358460025746
 30
0.0
 11
200.281587936864
 21
82.62126928363898
 31
0.0
  0
LINE
  5
CE2
330
18
100
AcDbEntity
  8
0
  6
ByBlock
 62
     2
100
AcDbLine
 10
162.7821834481274
 20
83.87126928363898
 30
0.0
 11
197.781587936864
 21
83.87126928363898
 31
0.0
  0
INSERT
  5
CE3
330
18
100
AcDbEntity
  8
0
  6
ByBlock
 62
     2
100
AcDbBlockReference
  2
_OPEN
 10
160.2821834481274
 20
83.87126928363898
 30
0.0
 41
2.5
 42
2.5
 43
2.5
 50
180.0
  0
INSERT
  5
CE4
330
18
100
AcDbEntity
  8
0
  6
ByBlock
 62
     2
100
AcDbBlockReference
  2
_OPEN
 10
200.281587936864
 20
83.87126928363898
 30
0.0
 41
2.5
 42
2.5
 43
2.5
  0
MTEXT
  5
CE5
330
18
100
AcDbEntity
  8
0
  6
ByBlock
 62
     6
100
AcDbMText
 10
180.2818856924957
 20
85.74626928363898
 30
0.0
 40
2.5
 41
0.0
 71
     5
 72
     1
  1
\A1;40
  7
STYLE3
 73
     1
 44
1.0
  0
POINT
  5
CE6
330
18
100
AcDbEntity
  8
DEFPOINTS
  6
ByBlock
 62
     0
100
AcDbPoint
 10
160.2821834481274
 20
118.2925546799264
 30
0.0
  0
POINT
  5
CE7
330
18
100
AcDbEntity
  8
DEFPOINTS
  6
ByBlock
 62
     0
100
AcDbPoint
 10
200.281587936864
 20
106.4358460025746
 30
0.0
  0
POINT
  5
CE8
330
18
100
AcDbEntity
  8
DEFPOINTS
  6
ByBlock
 62
     0
100
AcDbPoint
 10
200.281587936864
 20
83.87126928363898
 30
0.0
  0
LINE
  5
CE9
330
18
100
AcDbEntity
  8
ﾊｯﾁﾝｸ
  6
Continuous
100
AcDbLine
 10
196.2821834481275
 20
224.8233054941501
 30
0.0
 11
196.5156896518296
 21
225.0568116978522
 31
0.0
  0
LINE
  5
CEA
330
18
100
AcDbEntity
  8
ﾊｯﾁﾝｸ
  6
Continuous
100
AcDbLine
 10
196.2821834481275
 20
223.0555385411836
 30
0.0
 11
198.283456604796
 21
225.0568116978522
 31
0.0
  0
LINE
  5
CEB
330
18
100
AcDbEntity
  8
ﾊｯﾁﾝｸ
  6
Continuous
100
AcDbLine
 10
196.2821834481274
 20
221.2877715882173
 30
0.0
 11
200.0512235577623
 21
225.0568116978522
 31
0.0
  0
LINE
  5
CEC
330
18
100
AcDbEntity
  8
ﾊｯﾁﾝｸ
  6
Continuous
100
AcDbLine
 10
196.2821834481275
 20
219.5200046352509
 30
0.0
 11
200.2821834481275
 21
223.5200046352509
 31
0.0
  0
LINE
  5
CED
330
18
100
AcDbEntity
  8
ﾊｯﾁﾝｸ
  6
Continuous
100
AcDbLine
 10
197.5867574636951
 20
219.0568116978522
 30
0.0
 11
200.2821834481275
 21
221.7522376822846
 31
0.0
  0
LINE
  5
CEE
330
18
100
AcDbEntity
  8
ﾊｯﾁﾝｸ
  6
Continuous
100
AcDbLine
 10
199.3545244166614
 20
219.0568116978522
 30
0.0
 11
200.2821834481275
 21
219.9844707293182
 31
0.0
  0
LINE
  5
CEF
330
18
100
AcDbEntity
  8
ﾊｯﾁﾝｸ
  6
Continuous
100
AcDbLine
 10
196.3337290944464
 20
219.0568116978522
 30
0.0
 11
196.2821834481275
 21
219.1083573441711
 31
0.0
  0
LINE
  5
CF0
330
18
100
AcDbEntity
  8
ﾊｯﾁﾝｸ
  6
Continuous
100
AcDbLine
 10
198.1014960474127
 20
219.0568116978522
 30
0.0
 11
196.2821834481275
 21
220.8761242971374
 31
0.0
  0
LINE
  5
CF1
330
18
100
AcDbEntity
  8
ﾊｯﾁﾝｸ
  6
Continuous
100
AcDbLine
 10
199.8692630003791
 20
219.0568116978522
 30
0.0
 11
196.2821834481275
 21
222.6438912501039
 31
0.0
  0
LINE
  5
CF2
330
18
100
AcDbEntity
  8
ﾊｯﾁﾝｸ
  6
Continuous
100
AcDbLine
 10
200.2821834481275
 20
220.4116582030702
 30
0.0
 11
196.2821834481275
 21
224.4116582030702
 31
0.0
  0
LINE
  5
CF3
330
18
100
AcDbEntity
  8
ﾊｯﾁﾝｸ
  6
Continuous
100
AcDbLine
 10
200.2821834481275
 20
222.1794251560366
 30
0.0
 11
197.4047969063118
 21
225.0568116978522
 31
0.0
  0
LINE
  5
CF4
330
18
100
AcDbEntity
  8
ﾊｯﾁﾝｸ
  6
Continuous
100
AcDbLine
 10
200.2821834481275
 20
223.947192109003
 30
0.0
 11
199.1725638592782
 21
225.0568116978522
 31
0.0
  0
LINE
  5
CF5
330
18
100
AcDbEntity
  8
0
  6
ByBlock
 62
     2
100
AcDbLine
 10
320.2821834481274
 20
151.3568116978523
 30
0.0
 11
339.3286135343365
 21
151.3568116978523
 31
0.0
  0
LINE
  5
CF6
330
18
100
AcDbEntity
  8
0
  6
ByBlock
 62
     2
100
AcDbLine
 10
320.2821834481274
 20
121.3568116978523
 30
0.0
 11
339.3286135343365
 21
121.3568116978523
 31
0.0
  0
LINE
  5
CF7
330
18
100
AcDbEntity
  8
0
  6
ByBlock
 62
     2
100
AcDbLine
 10
338.0786135343365
 20
148.8568116978523
 30
0.0
 11
338.0786135343365
 21
123.8568116978523
 31
0.0
  0
INSERT
  5
CF8
330
18
100
AcDbEntity
  8
0
  6
ByBlock
 62
     2
100
AcDbBlockReference
  2
_OPEN
 10
338.0786135343365
 20
151.3568116978523
 30
0.0
 41
2.5
 42
2.5
 43
2.5
 50
90.0
  0
INSERT
  5
CF9
330
18
100
AcDbEntity
  8
0
  6
ByBlock
 62
     2
100
AcDbBlockReference
  2
_OPEN
 10
338.0786135343365
 20
121.3568116978523
 30
0.0
 41
2.5
 42
2.5
 43
2.5
 50
270.0
  0
MTEXT
  5
CFA
330
18
100
AcDbEntity
  8
0
  6
ByBlock
 62
     6
100
AcDbMText
 10
336.2036135343365
 20
136.3568116978523
 30
0.0
 40
2.5
 41
0.0
 71
     5
 72
     1
  1
\A1;30
  7
STYLE3
 11
0.0000000000000001
 21
1.0
 31
0.0
 73
     1
 44
1.0
  0
POINT
  5
CFB
330
18
100
AcDbEntity
  8
DEFPOINTS
  6
ByBlock
 62
     0
100
AcDbPoint
 10
320.2821834481274
 20
151.3568116978523
 30
0.0
  0
POINT
  5
CFC
330
18
100
AcDbEntity
  8
DEFPOINTS
  6
ByBlock
 62
     0
100
AcDbPoint
 10
320.2821834481274
 20
121.3568116978523
 30
0.0
  0
POINT
  5
CFD
330
18
100
AcDbEntity
  8
DEFPOINTS
  6
ByBlock
 62
     0
100
AcDbPoint
 10
338.0786135343365
 20
121.3568116978523
 30
0.0
  0
LINE
  5
D00
330
18
100
AcDbEntity
  8
0
  6
ByBlock
 62
     2
100
AcDbLine
 10
325.2821834481274
 20
122.6568116978523
 30
0.0
 11
325.2821834481274
 21
71.95392242301261
 31
0.0
  0
LINE
  5
D01
330
18
100
AcDbEntity
  8
0
  6
ByBlock
 62
     2
100
AcDbLine
 10
227.7821834481274
 20
73.20392242301261
 30
0.0
 11
322.7821834481274
 21
73.20392242301261
 31
0.0
  0
INSERT
  5
D02
330
18
100
AcDbEntity
  8
0
  6
ByBlock
 62
     2
100
AcDbBlockReference
  2
_OPEN
 10
225.2821834481274
 20
73.20392242301261
 30
0.0
 41
2.5
 42
2.5
 43
2.5
 50
180.0
  0
INSERT
  5
D03
330
18
100
AcDbEntity
  8
0
  6
ByBlock
 62
     2
100
AcDbBlockReference
  2
_OPEN
 10
325.2821834481274
 20
73.20392242301261
 30
0.0
 41
2.5
 42
2.5
 43
2.5
  0
MTEXT
  5
D04
330
18
100
AcDbEntity
  8
0
  6
ByBlock
 62
     6
100
AcDbMText
 10
275.2821834481274
 20
75.07892242301261
 30
0.0
 40
2.5
 41
0.0
 71
     5
 72
     1
  1
\A1;100
  7
STYLE3
 73
     1
 44
1.0
  0
POINT
  5
D05
330
18
100
AcDbEntity
  8
DEFPOINTS
  6
ByBlock
 62
     0
100
AcDbPoint
 10
225.2821834481274
 20
122.6568116978523
 30
0.0
  0
POINT
  5
D06
330
18
100
AcDbEntity
  8
DEFPOINTS
  6
ByBlock
 62
     0
100
AcDbPoint
 10
325.2821834481274
 20
122.6568116978523
 30
0.0
  0
POINT
  5
D07
330
18
100
AcDbEntity
  8
DEFPOINTS
  6
ByBlock
 62
     0
100
AcDbPoint
 10
325.2821834481274
 20
73.20392242301261
 30
0.0
  0
LINE
  5
D73
330
18
100
AcDbEntity
  8
外形線
100
AcDbLine
 10
55.548220493421
 20
260.473422279729
 30
0.0
 11
177.548220493421
 21
260.473422279729
 31
0.0
  0
LINE
  5
D74
330
18
100
AcDbEntity
  8
外形線
100
AcDbLine
 10
55.548220493421
 20
261.4734222797291
 30
0.0
 11
177.548220493421
 21
261.4734222797291
 31
0.0
  0
TEXT
  5
D75
330
18
100
AcDbEntity
  8
文字
100
AcDbText
 10
56.168927493421
 20
263.946534279729
 30
0.0
 40
4.0
  1
Model No.LB-3 Inside Dial Caliper Gauge
  7
STYLE3
100
AcDbText
  0
TEXT
  5
D76
330
18
100
AcDbEntity
  8
0
  6
Continuous
100
AcDbText
 10
310.3598354401527
 20
2.46994098510774
 30
0.0
 40
2.1
  1
Date
  7
STYLE3
100
AcDbText
  0
TEXT
  5
D77
330
18
100
AcDbEntity
  8
0
  6
Continuous
100
AcDbText
 10
309.9764734401526
 20
5.80302498510774
 30
0.0
 40
3.0
  1
日 付
  7
STYLE3
100
AcDbText
  0
TEXT
  5
D78
330
18
100
AcDbEntity
  8
0
  6
Continuous
100
AcDbText
 10
319.1046424401526
 20
4.218081985107744
 30
0.0
 40
2.1
  1
2010.06.29
  7
STYLE3
100
AcDbText
  0
TEXT
  5
D79
330
18
100
AcDbEntity
  8
0
  6
Continuous
100
AcDbText
 10
300.2660634401526
 20
4.509439985107739
 30
0.0
 40
2.399999999999999
  1
1/1
  7
STYLE3
100
AcDbText
  0
TEXT
  5
D7A
330
18
100
AcDbEntity
  8
0
  6
Continuous
100
AcDbText
 10
280.9077114401526
 20
4.218082985107741
 30
0.0
 40
2.399999999999999
  1
mm
  7
STYLE3
100
AcDbText
  0
TEXT
  5
D7B
330
18
100
AcDbEntity
  8
0
  6
Continuous
100
AcDbText
 10
290.1835594401526
 20
5.680818985107741
 30
0.0
 40
3.0
  1
尺 度
  7
STYLE3
100
AcDbText
  0
TEXT
  5
D7C
330
18
100
AcDbEntity
  8
0
  6
Continuous
100
AcDbText
 10
290.6467744401526
 20
2.76129698510774
 30
0.0
 40
2.1
  1
Scale
  7
STYLE3
100
AcDbText
  0
LINE
  5
D7D
330
18
100
AcDbEntity
  8
外形線
100
AcDbLine
 10
338.1602334401526
 20
10.33657698510774
 30
0.0
 11
338.1602334401526
 21
0.7217989851077391
 31
0.0
  0
LINE
  5
D7E
330
18
100
AcDbEntity
  8
外形線
100
AcDbLine
 10
308.4278834401526
 20
10.33657698510774
 30
0.0
 11
308.4278834401526
 21
0.7217989851077391
 31
0.0
  0
LINE
  5
D7F
330
18
100
AcDbEntity
  8
外形線
100
AcDbLine
 10
288.8978114401526
 20
10.33657698510774
 30
0.0
 11
288.8978114401526
 21
0.7217989851077391
 31
0.0
  0
TEXT
  5
D80
330
18
100
AcDbEntity
  8
0
  6
Continuous
100
AcDbText
 10
237.3034424401526
 20
2.469938985107745
 30
0.0
 40
2.1
  1
3RD Angle Projection
  7
STYLE3
100
AcDbText
  0
TEXT
  5
D81
330
18
100
AcDbEntity
  8
0
  6
Continuous
100
AcDbText
 10
239.9268854401527
 20
5.966222985107741
 30
0.0
 40
3.0
  1
三　　角　　法
  7
STYLE3
100
AcDbText
  0
LINE
  5
D82
330
18
100
AcDbEntity
  8
外形線
100
AcDbLine
 10
236.1374664401526
 20
0.7217989851077391
 30
0.0
 11
236.1374664401526
 21
21.11678298510774
 31
0.0
  0
LINE
  5
D83
330
18
100
AcDbEntity
  8
外形線
100
AcDbLine
 10
271.4081944401526
 20
10.33657698510774
 30
0.0
 11
271.4081944401526
 21
0.7217989851077391
 31
0.0
  0
TEXT
  5
D84
330
18
100
AcDbEntity
  8
0
  6
Continuous
100
AcDbText
 10
272.8656634401526
 20
5.972176985107743
 30
0.0
 40
3.0
  1
単位
  7
STYLE3
100
AcDbText
  0
TEXT
  5
D85
330
18
100
AcDbEntity
  8
0
  6
Continuous
100
AcDbText
 10
273.0373844401526
 20
2.469939985107743
 30
0.0
 40
2.1
  1
Unit
  7
STYLE3
100
AcDbText
  0
LINE
  5
D86
330
18
100
AcDbEntity
  8
外形線
100
AcDbLine
 10
236.1374664401526
 20
21.11678298510774
 30
0.0
 11
376.9288844401526
 21
21.11678298510774
 31
0.0
  0
LINE
  5
D87
330
18
100
AcDbEntity
  8
外形線
100
AcDbLine
 10
236.1374664401526
 20
10.33657698510774
 30
0.0
 11
376.9288844401526
 21
10.33657698510774
 31
0.0
  0
TEXT
  5
D88
330
18
100
AcDbEntity
  8
0
  6
Continuous
100
AcDbText
 10
237.5949334401527
 20
12.23456698510774
 30
0.0
 40
2.1
  1
Design and specifications are subject to change without notice for future improvement.
  7
STYLE3
100
AcDbText
  0
TEXT
  5
D89
330
18
100
AcDbEntity
  8
0
  6
Continuous
100
AcDbText
 10
237.8864284401526
 20
16.16371498510774
 30
0.0
 40
3.5
  1
仕様及び外観は予告なく変更される場合がございますのでご了承下さい。
  7
STYLE3
100
AcDbText
  0
TEXT
  5
D8A
330
18
100
AcDbEntity
  8
0
  6
Continuous
100
AcDbText
 10
339.5091964401526
 20
6.257578985107741
 30
0.0
 40
3.0
  1
株式会社　尾崎製作所
  7
STYLE3
100
AcDbText
  0
TEXT
  5
D8B
330
18
100
AcDbEntity
  8
0
  6
Continuous
100
AcDbText
 10
340.3836754401526
 20
2.469939985107743
 30
0.0
 40
2.1
  1
OZAKI MFG. CO., LTD.
  7
STYLE3
100
AcDbText
  0
ENDSEC
  0
SECTION
  2
OBJECTS
  0
DICTIONARY
  5
C
330
0
100
AcDbDictionary
281
     1
  3
ACAD_COLOR
350
D15
  3
ACAD_GROUP
350
D
  3
ACAD_LAYOUT
350
D18
  3
ACAD_MATERIAL
350
D14
  3
ACAD_MLINESTYLE
350
1B
  3
ACAD_PLOTSETTINGS
350
D19
  3
ACAD_PLOTSTYLENAME
350
D12
  3
ACAD_TABLESTYLE
350
D16
  3
AcDbVariableDictionary
350
D22
  0
DICTIONARY
  5
D15
102
{ACAD_REACTORS
330
C
102
}
330
C
100
AcDbDictionary
281
     1
  0
DICTIONARY
  5
D
102
{ACAD_REACTORS
330
C
102
}
330
C
100
AcDbDictionary
281
     1
  0
DICTIONARY
  5
D18
102
{ACAD_REACTORS
330
C
102
}
330
C
100
AcDbDictionary
281
     1
  3
Model
350
D1A
  3
レイアウト1
350
D1B
  0
DICTIONARY
  5
D14
102
{ACAD_REACTORS
330
C
102
}
330
C
100
AcDbDictionary
281
     1
  0
DICTIONARY
  5
1B
102
{ACAD_REACTORS
330
C
102
}
330
C
100
AcDbDictionary
281
     1
  3
STANDARD
350
1C
  0
DICTIONARY
  5
D19
102
{ACAD_REACTORS
330
C
102
}
330
C
100
AcDbDictionary
281
     1
  0
ACDBDICTIONARYWDFLT
  5
D12
102
{ACAD_REACTORS
330
C
102
}
330
C
100
AcDbDictionary
281
     1
  3
Normal
350
D13
100
AcDbDictionaryWithDefault
340
D13
  0
DICTIONARY
  5
D16
102
{ACAD_REACTORS
330
C
102
}
330
C
100
AcDbDictionary
281
     1
  3
Standard
350
D17
  0
DICTIONARY
  5
D22
102
{ACAD_REACTORS
330
C
102
}
330
C
100
AcDbDictionary
281
     1
  3
CTABLESTYLE
350
D23
  0
LAYOUT
  5
D1A
102
{ACAD_REACTORS
330
D18
102
}
330
D18
100
AcDbPlotSettings
  1

  2
C:\Documents and Settings\佐藤\Application Data\Autodesk\AutoCAD LT 2005\R10\jpn\plotters\PEACOCK EPSON LP-6100.pc3
  4

  6

 40
0.0
 41
0.0
 42
0.0
 43
0.0
 44
0.0
 45
0.0
 46
0.0
 47
0.0
 48
0.0
 49
0.0
140
0.0
141
0.0
142
1.0
143
1.0
 70
  1712
 72
     0
 73
     0
 74
     0
  7
AutoCAD LT 98.ctb
 75
     0
147
1.0
 76
     0
 77
     2
 78
   300
148
0.0
149
0.0
100
AcDbLayout
  1
Model
 70
     1
 71
     0
 10
0.0
 20
0.0
 11
12.0
 21
9.0
 12
0.0
 22
0.0
 32
0.0
 14
0.0
 24
0.0
 34
0.0
 15
0.0
 25
0.0
 35
0.0
146
0.0
 13
0.0
 23
0.0
 33
0.0
 16
1.0
 26
0.0
 36
0.0
 17
0.0
 27
1.0
 37
0.0
 76
     0
330
18
  0
LAYOUT
  5
D1B
102
{ACAD_REACTORS
330
D18
102
}
330
D18
100
AcDbPlotSettings
  1

  2
C:\Documents and Settings\佐藤\Application Data\Autodesk\AutoCAD LT 2005\R10\jpn\plotters\PEACOCK EPSON LP-6100.pc3
  4

  6

 40
0.0
 41
0.0
 42
0.0
 43
0.0
 44
0.0
 45
0.0
 46
0.0
 47
0.0
 48
0.0
 49
0.0
140
0.0
141
0.0
142
1.0
143
1.0
 70
   688
 72
     0
 73
     0
 74
     5
  7
AutoCAD LT 98.ctb
 75
    16
147
1.0
 76
     0
 77
     2
 78
   300
148
0.0
149
0.0
100
AcDbLayout
  1
レイアウト1
 70
     1
 71
     1
 10
0.0
 20
0.0
 11
420.0
 21
297.0
 12
0.0
 22
0.0
 32
0.0
 14
1.000000000000000E+20
 24
1.000000000000000E+20
 34
1.000000000000000E+20
 15
-1.000000000000000E+20
 25
-1.000000000000000E+20
 35
-1.000000000000000E+20
146
0.0
 13
0.0
 23
0.0
 33
0.0
 16
1.0
 26
0.0
 36
0.0
 17
0.0
 27
1.0
 37
0.0
 76
     0
330
15
  0
MLINESTYLE
  5
1C
102
{ACAD_REACTORS
330
1B
102
}
330
1B
100
AcDbMlineStyle
  2
STANDARD
 70
     0
  3

 62
   256
 51
90.0
 52
90.0
 71
     2
 49
0.5
 62
   256
  6
BYLAYER
 49
-0.5
 62
   256
  6
BYLAYER
  0
ACDBPLACEHOLDER
  5
D13
102
{ACAD_REACTORS
330
D12
102
}
330
D12
  0
ACAD_PROXY_OBJECT
  5
D17
102
{ACAD_REACTORS
330
D16
102
}
330
D16
100
AcDbProxyObject
 90
      499
 91
      503
 95
  2555929
 70
     0
 93
     1849
310
4214DD185B99185C992420000000000000F83F0000000000003E0FC00000000000004901028000000C1008070000C3001FDFF8000000C1003FBFF000000182007F7FE00000030400FEFFC00000060801FDFF8000000C1003FBFF000000182000000000000000C2020B0000001820100E000186003FBFF000000182007F7FE0
310
0000030400FEFFC00000060801FDFF8000000C1003FBFF000000182007F7FE0000003040000000000000012404160000003040201C00030C007F7FE00000030400FEFFC00000060801FDFF8000000C1003FBFF000000182007F7FE00000030400FEFFC000000608000
340
F
340
F
340
F
 94
        0
  0
DICTIONARYVAR
  5
D23
102
{ACAD_REACTORS
330
D22
102
}
330
D22
100
DictionaryVariables
280
     0
  1
STANDARD
  0
ENDSEC
  0
EOF
