  0
SECTION
  2
HEADER
  9
$ACADVER
  1
AC1018
  9
$ACADMAINTVER
 70
     0
  9
$DWGCODEPAGE
  3
ANSI_932
  9
$INSBASE
 10
0.0
 20
0.0
 30
0.0
  9
$EXTMIN
 10
236.4915604445414
 20
171.6501752555372
 30
-1.0
  9
$EXTMAX
 10
491.8915604445414
 20
367.0501752555372
 30
0.0
  9
$LIMMIN
 10
0.0
 20
0.0
  9
$LIMMAX
 10
420.0
 20
297.0
  9
$ORTHOMODE
 70
     0
  9
$REGENMODE
 70
     1
  9
$FILLMODE
 70
     1
  9
$QTEXTMODE
 70
     0
  9
$MIRRTEXT
 70
     1
  9
$LTSCALE
 40
1.0
  9
$ATTMODE
 70
     1
  9
$TEXTSIZE
 40
1.8
  9
$TRACEWID
 40
1.0
  9
$TEXTSTYLE
  7
STYLE3
  9
$CLAYER
  8
外形線
  9
$CELTYPE
  6
BYLAYER
  9
$CECOLOR
 62
   256
  9
$CELTSCALE
 40
1.0
  9
$DISPSILH
 70
     0
  9
$DIMSCALE
 40
1.0
  9
$DIMASZ
 40
2.5
  9
$DIMEXO
 40
0.0
  9
$DIMDLI
 40
3.75
  9
$DIMRND
 40
0.0
  9
$DIMDLE
 40
0.0
  9
$DIMEXE
 40
1.25
  9
$DIMTP
 40
0.0
  9
$DIMTM
 40
0.0
  9
$DIMTXT
 40
2.5
  9
$DIMCEN
 40
2.5
  9
$DIMTSZ
 40
0.0
  9
$DIMTOL
 70
     0
  9
$DIMLIM
 70
     0
  9
$DIMTIH
 70
     0
  9
$DIMTOH
 70
     0
  9
$DIMSE1
 70
     0
  9
$DIMSE2
 70
     0
  9
$DIMTAD
 70
     1
  9
$DIMZIN
 70
     8
  9
$DIMBLK
  1

  9
$DIMASO
 70
     1
  9
$DIMSHO
 70
     1
  9
$DIMPOST
  1

  9
$DIMAPOST
  1

  9
$DIMALT
 70
     0
  9
$DIMALTD
 70
     4
  9
$DIMALTF
 40
0.0394
  9
$DIMLFAC
 40
1.0
  9
$DIMTOFL
 70
     1
  9
$DIMTVP
 40
0.0
  9
$DIMTIX
 70
     0
  9
$DIMSOXD
 70
     0
  9
$DIMSAH
 70
     1
  9
$DIMBLK1
  1
OPEN
  9
$DIMBLK2
  1
OPEN
  9
$DIMSTYLE
  2
STYLE3
  9
$DIMCLRD
 70
     2
  9
$DIMCLRE
 70
     2
  9
$DIMCLRT
 70
     6
  9
$DIMTFAC
 40
1.0
  9
$DIMGAP
 40
0.625
  9
$DIMJUST
 70
     0
  9
$DIMSD1
 70
     0
  9
$DIMSD2
 70
     0
  9
$DIMTOLJ
 70
     1
  9
$DIMTZIN
 70
     0
  9
$DIMALTZ
 70
     0
  9
$DIMALTTZ
 70
     0
  9
$DIMUPT
 70
     0
  9
$DIMDEC
 70
     2
  9
$DIMTDEC
 70
     4
  9
$DIMALTU
 70
     8
  9
$DIMALTTD
 70
     4
  9
$DIMTXSTY
  7
STYLE3
  9
$DIMAUNIT
 70
     0
  9
$DIMADEC
 70
     0
  9
$DIMALTRND
 40
0.0
  9
$DIMAZIN
 70
     0
  9
$DIMDSEP
 70
    46
  9
$DIMATFIT
 70
     3
  9
$DIMFRAC
 70
     0
  9
$DIMLDRBLK
  1

  9
$DIMLUNIT
 70
     2
  9
$DIMLWD
 70
    -2
  9
$DIMLWE
 70
    -2
  9
$DIMTMOVE
 70
     0
  9
$LUNITS
 70
     2
  9
$LUPREC
 70
     4
  9
$SKETCHINC
 40
1.0
  9
$FILLETRAD
 40
0.0
  9
$AUNITS
 70
     0
  9
$AUPREC
 70
     0
  9
$MENU
  1
.
  9
$ELEVATION
 40
0.0
  9
$PELEVATION
 40
0.0
  9
$THICKNESS
 40
0.0
  9
$LIMCHECK
 70
     0
  9
$CHAMFERA
 40
0.1
  9
$CHAMFERB
 40
0.1
  9
$CHAMFERC
 40
20.0
  9
$CHAMFERD
 40
0.0
  9
$SKPOLY
 70
     0
  9
$TDCREATE
 40
2451066.662483449
  9
$TDUCREATE
 40
2451066.287483449
  9
$TDUPDATE
 40
2455362.698812384
  9
$TDUUPDATE
 40
2455362.323812384
  9
$TDINDWG
 40
0.6656013194
  9
$TDUSRTIMER
 40
0.6656013194
  9
$USRTIMER
 70
     1
  9
$ANGBASE
 50
0.0
  9
$ANGDIR
 70
     0
  9
$PDMODE
 70
     0
  9
$PDSIZE
 40
0.0
  9
$PLINEWID
 40
0.0
  9
$SPLFRAME
 70
     0
  9
$SPLINETYPE
 70
     6
  9
$SPLINESEGS
 70
     8
  9
$HANDSEED
  5
23B0
  9
$SURFTAB1
 70
     6
  9
$SURFTAB2
 70
     6
  9
$SURFTYPE
 70
     6
  9
$SURFU
 70
     6
  9
$SURFV
 70
     6
  9
$UCSBASE
  2

  9
$UCSNAME
  2

  9
$UCSORG
 10
0.0
 20
0.0
 30
0.0
  9
$UCSXDIR
 10
1.0
 20
0.0
 30
0.0
  9
$UCSYDIR
 10
0.0
 20
1.0
 30
0.0
  9
$UCSORTHOREF
  2

  9
$UCSORTHOVIEW
 70
     0
  9
$UCSORGTOP
 10
0.0
 20
0.0
 30
0.0
  9
$UCSORGBOTTOM
 10
0.0
 20
0.0
 30
0.0
  9
$UCSORGLEFT
 10
0.0
 20
0.0
 30
0.0
  9
$UCSORGRIGHT
 10
0.0
 20
0.0
 30
0.0
  9
$UCSORGFRONT
 10
0.0
 20
0.0
 30
0.0
  9
$UCSORGBACK
 10
0.0
 20
0.0
 30
0.0
  9
$PUCSBASE
  2

  9
$PUCSNAME
  2

  9
$PUCSORG
 10
0.0
 20
0.0
 30
0.0
  9
$PUCSXDIR
 10
1.0
 20
0.0
 30
0.0
  9
$PUCSYDIR
 10
0.0
 20
1.0
 30
0.0
  9
$PUCSORTHOREF
  2

  9
$PUCSORTHOVIEW
 70
     0
  9
$PUCSORGTOP
 10
0.0
 20
0.0
 30
0.0
  9
$PUCSORGBOTTOM
 10
0.0
 20
0.0
 30
0.0
  9
$PUCSORGLEFT
 10
0.0
 20
0.0
 30
0.0
  9
$PUCSORGRIGHT
 10
0.0
 20
0.0
 30
0.0
  9
$PUCSORGFRONT
 10
0.0
 20
0.0
 30
0.0
  9
$PUCSORGBACK
 10
0.0
 20
0.0
 30
0.0
  9
$USERI1
 70
     0
  9
$USERI2
 70
     0
  9
$USERI3
 70
     0
  9
$USERI4
 70
     0
  9
$USERI5
 70
     0
  9
$USERR1
 40
0.0
  9
$USERR2
 40
0.0
  9
$USERR3
 40
0.0
  9
$USERR4
 40
0.0
  9
$USERR5
 40
0.0
  9
$WORLDVIEW
 70
     1
  9
$SHADEDGE
 70
     3
  9
$SHADEDIF
 70
    70
  9
$TILEMODE
 70
     1
  9
$MAXACTVP
 70
    48
  9
$PINSBASE
 10
0.0
 20
0.0
 30
0.0
  9
$PLIMCHECK
 70
     0
  9
$PEXTMIN
 10
1.000000000000000E+20
 20
1.000000000000000E+20
 30
1.000000000000000E+20
  9
$PEXTMAX
 10
-1.000000000000000E+20
 20
-1.000000000000000E+20
 30
-1.000000000000000E+20
  9
$PLIMMIN
 10
0.0
 20
0.0
  9
$PLIMMAX
 10
420.0
 20
297.0
  9
$UNITMODE
 70
     0
  9
$VISRETAIN
 70
     1
  9
$PLINEGEN
 70
     0
  9
$PSLTSCALE
 70
     1
  9
$TREEDEPTH
 70
  3020
  9
$CMLSTYLE
  2
STANDARD
  9
$CMLJUST
 70
     0
  9
$CMLSCALE
 40
20.0
  9
$PROXYGRAPHICS
 70
     1
  9
$MEASUREMENT
 70
     1
  9
$CELWEIGHT
370
    -1
  9
$ENDCAPS
280
     0
  9
$JOINSTYLE
280
     0
  9
$LWDISPLAY
290
     0
  9
$INSUNITS
 70
     0
  9
$HYPERLINKBASE
  1

  9
$STYLESHEET
  1
AutoCAD LT 98.ctb
  9
$XEDIT
290
     1
  9
$CEPSNTYPE
380
     0
  9
$PSTYLEMODE
290
     1
  9
$FINGERPRINTGUID
  2
{30A5F9A1-3251-42F2-9AA1-E9A739AED05F}
  9
$VERSIONGUID
  2
{B6923FD3-B1A6-4494-9370-C90F401F778C}
  9
$EXTNAMES
290
     1
  9
$PSVPSCALE
 40
0.0
  9
$OLESTARTUP
290
     0
  9
$SORTENTS
280
    96
  9
$INDEXCTL
280
     0
  9
$HIDETEXT
280
     0
  9
$XCLIPFRAME
290
     0
  9
$HALOGAP
280
     0
  9
$OBSCOLOR
 70
   257
  9
$OBSLTYPE
280
     0
  9
$INTERSECTIONDISPLAY
280
     0
  9
$INTERSECTIONCOLOR
 70
   257
  9
$DIMASSOC
280
     1
  9
$PROJECTNAME
  1

  0
ENDSEC
  0
SECTION
  2
CLASSES
  0
CLASS
  1
HATCH
  2
AcDbHatch
  3
ObjectDBX Classes
 90
        0
 91
       12
280
     0
281
     1
  0
CLASS
  1
LWPOLYLINE
  2
AcDbPolyline
  3
ObjectDBX Classes
 90
        0
 91
        1
280
     0
281
     1
  0
CLASS
  1
IMAGEDEF
  2
AcDbRasterImageDef
  3
ISM
 90
        0
 91
        1
280
     0
281
     0
  0
CLASS
  1
DICTIONARYVAR
  2
AcDbDictionaryVar
  3
ObjectDBX Classes
 90
        0
 91
        2
280
     0
281
     0
  0
CLASS
  1
ACDBDICTIONARYWDFLT
  2
AcDbDictionaryWithDefault
  3
ObjectDBX Classes
 90
        0
 91
        1
280
     0
281
     0
  0
CLASS
  1
TABLESTYLE
  2
AcDbTableStyle
  3
ObjectDBX Classes
 90
     2047
 91
        1
280
     0
281
     0
  0
CLASS
  1
SORTENTSTABLE
  2
AcDbSortentsTable
  3
ObjectDBX Classes
 90
        0
 91
        2
280
     0
281
     0
  0
ENDSEC
  0
SECTION
  2
TABLES
  0
TABLE
  2
VPORT
  5
8
330
0
100
AcDbSymbolTable
 70
     2
  0
VPORT
  5
23AF
330
8
100
AcDbSymbolTableRecord
100
AcDbViewportTableRecord
  2
*Active
 70
     0
 10
0.0
 20
0.0
 11
1.0
 21
1.0
 12
369.004793120847
 22
269.3407747696738
 13
0.0
 23
0.0
 14
10.0
 24
10.0
 15
10.0
 25
10.0
 16
0.0
 26
0.0
 36
1.0
 17
0.0
 27
0.0
 37
0.0
 40
197.1620865620541
 41
1.530456852791878
 42
50.0
 43
0.0
 44
0.0
 50
0.0
 51
0.0
 71
     0
 72
   100
 73
     1
 74
     1
 75
     0
 76
     0
 77
     0
 78
     0
281
     0
 65
     1
110
0.0
120
0.0
130
0.0
111
1.0
121
0.0
131
0.0
112
0.0
122
1.0
132
0.0
 79
     0
146
0.0
  0
ENDTAB
  0
TABLE
  2
LTYPE
  5
5
330
0
100
AcDbSymbolTable
 70
     3
  0
LTYPE
  5
12
330
5
100
AcDbSymbolTableRecord
100
AcDbLinetypeTableRecord
  2
BYBLOCK
 70
     0
  3

 72
    65
 73
     0
 40
0.0
  0
LTYPE
  5
13
330
5
100
AcDbSymbolTableRecord
100
AcDbLinetypeTableRecord
  2
BYLAYER
 70
     0
  3

 72
    65
 73
     0
 40
0.0
  0
LTYPE
  5
14
330
5
100
AcDbSymbolTableRecord
100
AcDbLinetypeTableRecord
  2
CONTINUOUS
 70
     0
  3
Solid line
 72
    65
 73
     0
 40
0.0
  0
LTYPE
  5
22
330
5
100
AcDbSymbolTableRecord
100
AcDbLinetypeTableRecord
  2
CENTER2
 70
     0
  3
Center (.5x) ___ _ ___ _ ___ _ ___ _ ___ _ ___
 72
    65
 73
     4
 40
28.575
 49
19.05
 74
     0
 49
-3.174999999999999
 74
     0
 49
3.174999999999999
 74
     0
 49
-3.174999999999999
 74
     0
  0
LTYPE
  5
23
330
5
100
AcDbSymbolTableRecord
100
AcDbLinetypeTableRecord
  2
HIDDEN2
 70
     0
  3
Hidden (.5x) _ _ _ _ _ _ _ _ _ _ _ _ _ _ _ _ _
 72
    65
 73
     2
 40
4.762499999999999
 49
3.174999999999999
 74
     0
 49
-1.587499999999999
 74
     0
  0
ENDTAB
  0
TABLE
  2
LAYER
  5
2
330
0
100
AcDbSymbolTable
 70
    11
  0
LAYER
  5
E
330
2
100
AcDbSymbolTableRecord
100
AcDbLayerTableRecord
  2
0
 70
     0
 62
     7
  6
CONTINUOUS
370
    -3
390
1DD7
  0
LAYER
  5
25
330
2
100
AcDbSymbolTableRecord
100
AcDbLayerTableRecord
  2
外形線
 70
     0
 62
     7
  6
CONTINUOUS
370
    -3
390
1DD7
  0
LAYER
  5
26
330
2
100
AcDbSymbolTableRecord
100
AcDbLayerTableRecord
  2
寸法線
 70
     0
 62
     2
  6
CONTINUOUS
370
    -3
390
1DD7
  0
LAYER
  5
27
330
2
100
AcDbSymbolTableRecord
100
AcDbLayerTableRecord
  2
中心線
 70
     0
 62
     4
  6
CENTER2
370
    -3
390
1DD7
  0
LAYER
  5
28
330
2
100
AcDbSymbolTableRecord
100
AcDbLayerTableRecord
  2
隠れ線
 70
     0
 62
     6
  6
HIDDEN2
370
    -3
390
1DD7
  0
LAYER
  5
2B
330
2
100
AcDbSymbolTableRecord
100
AcDbLayerTableRecord
  2
文字
 70
     0
 62
     6
  6
CONTINUOUS
370
    -3
390
1DD7
  0
LAYER
  5
2C
330
2
100
AcDbSymbolTableRecord
100
AcDbLayerTableRecord
  2
目盛
 70
     0
 62
    70
  6
CONTINUOUS
370
    -3
390
1DD7
  0
LAYER
  5
2D
330
2
100
AcDbSymbolTableRecord
100
AcDbLayerTableRecord
  2
針
 70
     0
 62
     5
  6
CONTINUOUS
370
    -3
390
1DD7
  0
LAYER
  5
53
330
2
100
AcDbSymbolTableRecord
100
AcDbLayerTableRecord
  2
DEFPOINTS
 70
     0
 62
     7
  6
CONTINUOUS
290
     0
370
    -3
390
1DD7
  0
LAYER
  5
A5
330
2
100
AcDbSymbolTableRecord
100
AcDbLayerTableRecord
  2
C
 70
     0
 62
     7
  6
CONTINUOUS
370
    -3
390
1DD7
  0
LAYER
  5
AD4
330
2
100
AcDbSymbolTableRecord
100
AcDbLayerTableRecord
  2
ROGO
 70
     0
 62
     6
  6
CONTINUOUS
370
    -3
390
1DD7
  0
ENDTAB
  0
TABLE
  2
STYLE
  5
3
330
0
100
AcDbSymbolTable
 70
     3
  0
STYLE
  5
F
330
3
100
AcDbSymbolTableRecord
100
AcDbTextStyleTableRecord
  2
STANDARD
 70
     0
 40
0.0
 41
1.0
 50
0.0
 71
     0
 42
2.5
  3
txt
  4

  0
STYLE
  5
3F
330
3
100
AcDbSymbolTableRecord
100
AcDbTextStyleTableRecord
  2
STYLE3
 70
     0
 40
0.0
 41
1.0
 50
0.0
 71
     0
 42
1.8
  3
romans.shx
  4
bigfont.shx
  0
ENDTAB
  0
TABLE
  2
VIEW
  5
6
330
0
100
AcDbSymbolTable
 70
     0
  0
ENDTAB
  0
TABLE
  2
UCS
  5
7
330
0
100
AcDbSymbolTable
 70
     0
  0
ENDTAB
  0
TABLE
  2
APPID
  5
9
330
0
100
AcDbSymbolTable
 70
     2
  0
APPID
  5
10
330
9
100
AcDbSymbolTableRecord
100
AcDbRegAppTableRecord
  2
ACAD
 70
     0
  0
APPID
  5
1DF1
330
9
100
AcDbSymbolTableRecord
100
AcDbRegAppTableRecord
  2
ACAD_PSEXT
 70
     0
  0
ENDTAB
  0
TABLE
  2
DIMSTYLE
  5
A
330
0
100
AcDbSymbolTable
 70
     2
100
AcDbDimStyleTable
 71
     1
340
8F
  0
DIMSTYLE
105
1D
330
A
100
AcDbSymbolTableRecord
100
AcDbDimStyleTableRecord
  2
STANDARD
 70
     0
 41
2.5
 42
0.625
 43
3.75
 44
1.25
 73
     0
 74
     0
 77
     1
 78
     8
140
2.5
141
2.5
143
0.0394
147
0.625
171
     4
172
     1
273
     8
274
     4
277
     6
340
F
  0
DIMSTYLE
105
8F
330
A
100
AcDbSymbolTableRecord
100
AcDbDimStyleTableRecord
  2
STYLE3
 70
     0
 41
2.5
 42
0.0
 43
3.75
 44
1.25
 73
     0
 74
     0
 77
     1
 78
     8
140
2.5
141
2.5
143
0.0394
147
0.625
171
     4
172
     1
173
     1
176
     2
177
     2
178
     6
271
     1
273
     8
274
     4
340
3F
341
45
343
45
344
45
  0
ENDTAB
  0
TABLE
  2
BLOCK_RECORD
  5
1
330
0
100
AcDbSymbolTable
 70
     7
  0
BLOCK_RECORD
  5
18
330
1
100
AcDbSymbolTableRecord
100
AcDbBlockTableRecord
  2
*MODEL_SPACE
340
1DDE
  0
BLOCK_RECORD
  5
15
330
1
100
AcDbSymbolTableRecord
100
AcDbBlockTableRecord
  2
*PAPER_SPACE
340
1DDF
  0
BLOCK_RECORD
  5
45
330
1
100
AcDbSymbolTableRecord
100
AcDbBlockTableRecord
  2
_OPEN
340
0
102
{BLKREFS
331
1463
331
1464
331
1637
331
1638
331
1654
331
1669
331
166A
331
168B
331
168C
331
16B5
331
16B6
331
1D12
331
1D13
331
1D1B
331
1D1C
331
1D24
331
1D25
331
1D2D
331
1D2E
331
1D36
331
1D37
331
1D3F
331
1D40
331
1D48
331
1D49
331
1D52
331
1D53
331
1D5B
331
1D5C
331
1D64
331
1D65
331
1D6D
331
1D6E
102
}
  0
BLOCK_RECORD
  5
ADD
330
1
100
AcDbSymbolTableRecord
100
AcDbBlockTableRecord
  2
ROGO1
340
0
102
{BLKREFS
331
B43
331
B44
331
FCB
331
FCC
102
}
  0
BLOCK_RECORD
  5
1E01
102
{ACAD_XDICTIONARY
360
1E02
102
}
330
1
100
AcDbSymbolTableRecord
100
AcDbBlockTableRecord
  2
PC_PCN針
340
0
102
{BLKREFS
331
234E
102
}
  0
ENDTAB
  0
ENDSEC
  0
SECTION
  2
BLOCKS
  0
BLOCK
  5
19
330
18
100
AcDbEntity
  8
0
100
AcDbBlockBegin
  2
*MODEL_SPACE
 70
     0
 10
0.0
 20
0.0
 30
0.0
  3
*MODEL_SPACE
  1

  0
ENDBLK
  5
1A
330
18
100
AcDbEntity
  8
0
100
AcDbBlockEnd
  0
BLOCK
  5
16
330
15
100
AcDbEntity
 67
     1
  8
0
100
AcDbBlockBegin
  2
*PAPER_SPACE
 70
     0
 10
0.0
 20
0.0
 30
0.0
  3
*PAPER_SPACE
  1

  0
ENDBLK
  5
17
330
15
100
AcDbEntity
 67
     1
  8
0
100
AcDbBlockEnd
  0
BLOCK
  5
46
330
45
100
AcDbEntity
  8
0
100
AcDbBlockBegin
  2
_OPEN
 70
     0
 10
0.0
 20
0.0
 30
0.0
  3
_OPEN
  1

  0
LINE
  5
47
330
45
100
AcDbEntity
  8
0
  6
ByBlock
 62
     0
100
AcDbLine
 10
-1.0
 20
0.1666666666666666
 30
0.0
 11
0.0
 21
0.0
 31
0.0
  0
LINE
  5
48
330
45
100
AcDbEntity
  8
0
  6
ByBlock
 62
     0
100
AcDbLine
 10
0.0
 20
0.0
 30
0.0
 11
-1.0
 21
-0.1666666666666666
 31
0.0
  0
LINE
  5
49
330
45
100
AcDbEntity
  8
0
  6
ByBlock
 62
     0
100
AcDbLine
 10
0.0
 20
0.0
 30
0.0
 11
-1.0
 21
0.0
 31
0.0
  0
ENDBLK
  5
4A
330
45
100
AcDbEntity
  8
0
100
AcDbBlockEnd
  0
BLOCK
  5
B2A
330
ADD
100
AcDbEntity
  8
0
100
AcDbBlockBegin
  2
ROGO1
 70
     0
 10
0.0
 20
0.0
 30
0.0
  3
ROGO1
  1

  0
MTEXT
  5
B42
330
ADD
100
AcDbEntity
  8
DEFPOINTS
  6
Continuous
100
AcDbMText
 10
1039.786461861274
 20
160.9640365185991
 30
0.0
 40
1.0
 41
0.0
 71
     4
 72
     1
  1
\A1;
 73
     1
 44
1.0
  0
ENDBLK
  5
B2B
330
ADD
100
AcDbEntity
  8
0
100
AcDbBlockEnd
  0
BLOCK
  5
1E04
330
1E01
100
AcDbEntity
  8
0
100
AcDbBlockBegin
  2
PC_PCN針
 70
     0
 10
0.0
 20
0.0
 30
0.0
  3
PC_PCN針
  1

  0
HATCH
  5
1E05
330
1E01
100
AcDbEntity
  8
針
 62
     5
100
AcDbHatch
 10
0.0
 20
0.0
 30
0.0
210
0.0
220
0.0
230
1.0
  2
SOLID
 70
     1
 71
     1
 91
        2
 92
        7
 72
     1
 73
     1
 93
        7
 10
-2.023904563850578
 20
-0.2645931338153105
 42
-0.1640812035095904
 10
-1.421638696153195
 20
-0.4784803210162636
 42
-0.0813437861988258
 10
-1.5
 20
0.0
 42
-0.0813437861988211
 10
-1.421638696153195
 20
0.4784803210162352
 42
-0.1640812035095877
 10
-2.023904563850578
 20
0.2645931338153105
 42
0.0
 10
-14.19999999999993
 20
0.07000000000005
 42
0.0
 10
-14.20000000000004
 20
-0.0700000000000216
 42
0.0
 97
        6
330
1E09
330
1E0B
330
1E06
330
1E0C
330
1E0A
330
1E12
 92
        7
 72
     1
 73
     1
 93
        9
 10
1.601307174430758
 20
0.4866168858272318
 42
-0.1053331282509662
 10
1.399713151580613
 20
0.5392616185973793
 42
-0.0921949713546931
 10
1.5
 20
0.0
 42
-0.0921949713546883
 10
1.399713151580613
 20
-0.5392616185973509
 42
-0.1053331282510194
 10
1.601307174430871
 20
-0.4866168858272318
 42
0.0
 10
6.657469727507077
 20
-0.256172195646343
 42
-0.2863987309427536
 10
6.842033426437637
 20
-0.359972204586029
 42
3.911320250910649
 10
6.842033426437637
 20
0.3599722045860858
 42
-0.2863987309427981
 10
6.657469727507077
 20
0.256172195646343
 42
0.0
 97
        8
330
1E10
330
1E0D
330
1E08
330
1E12
330
1E07
330
1E0E
330
1E11
330
1E0F
 75
     0
 76
     1
 47
0.0259966004614645
 98
        2
 10
-6.998752094249084
 20
-0.0094903483859525
 10
3.014397170732763
 20
0.0944959703959967
450
        0
451
        0
460
0.0
461
0.0
452
        1
462
1.0
453
        2
463
0.0
 63
     5
421
      255
463
1.0
 63
    51
421
 16777113
470
LINEAR
  0
LINE
  5
1E06
102
{ACAD_REACTORS
330
1E05
102
}
330
1E01
100
AcDbEntity
  8
針
100
AcDbLine
 10
-14.20000000000004
 20
0.0700000000000216
 30
0.0
 11
-14.20000000000004
 21
-0.0699999999999932
 31
0.0
  0
ARC
  5
1E07
102
{ACAD_REACTORS
330
1E05
102
}
330
1E01
100
AcDbEntity
  8
針
100
AcDbCircle
 10
1.624072039381871
 20
-0.9860983779005323
 30
0.0
 40
0.5
100
AcDbArc
 50
92.60956348104661
 51
116.6614474826241
  0
ARC
  5
1E08
102
{ACAD_REACTORS
330
1E05
102
}
330
1E01
100
AcDbEntity
  8
針
100
AcDbCircle
 10
1.624072039381871
 20
0.9860983779005323
 30
0.0
 40
0.5
100
AcDbArc
 50
243.3385525173759
 51
267.3904365189533
  0
ARC
  5
1E09
102
{ACAD_REACTORS
330
1E05
102
}
330
1E01
100
AcDbEntity
  8
針
100
AcDbCircle
 10
-2.039884094318267
 20
1.264465452967101
 30
0.0
 40
1.0
100
AcDbArc
 50
270.9155986228672
 51
308.1881170613605
  0
ARC
  5
1E0A
102
{ACAD_REACTORS
330
1E05
102
}
330
1E01
100
AcDbEntity
  8
針
100
AcDbCircle
 10
-2.039884094318267
 20
-1.264465452967101
 30
0.0
 40
1.0
100
AcDbArc
 50
51.8118829386395
 51
89.08440137713276
  0
LINE
  5
1E0B
102
{ACAD_REACTORS
330
1E05
102
}
330
1E01
100
AcDbEntity
  8
針
100
AcDbLine
 10
-14.20000000000004
 20
0.0700000000000216
 30
0.0
 11
-2.023904563850578
 21
0.2645931338153105
 31
0.0
  0
LINE
  5
1E0C
102
{ACAD_REACTORS
330
1E05
102
}
330
1E01
100
AcDbEntity
  8
針
100
AcDbLine
 10
-2.023904563850578
 20
-0.2645931338153105
 30
0.0
 11
-14.20000000000004
 21
-0.0699999999999932
 31
0.0
  0
LINE
  5
1E0D
102
{ACAD_REACTORS
330
1E05
102
}
330
1E01
100
AcDbEntity
  8
針
100
AcDbLine
 10
1.601307174430758
 20
0.4866168858272318
 30
0.0
 11
6.657469727507077
 21
0.256172195646343
 31
0.0
  0
LINE
  5
1E0E
102
{ACAD_REACTORS
330
1E05
102
}
330
1E01
100
AcDbEntity
  8
針
100
AcDbLine
 10
1.601307174430758
 20
-0.4866168858272318
 30
0.0
 11
6.657469727507077
 21
-0.256172195646343
 31
0.0
  0
ARC
  5
1E0F
102
{ACAD_REACTORS
330
1E05
102
}
330
1E01
100
AcDbEntity
  8
針
100
AcDbCircle
 10
7.5
 20
0.0
 30
0.0
 40
0.75
100
AcDbArc
 50
208.6829815593726
 51
151.3170184406274
  0
ARC
  5
1E10
102
{ACAD_REACTORS
330
1E05
102
}
330
1E01
100
AcDbEntity
  8
針
100
AcDbCircle
 10
6.666575673487614
 20
0.4559647924756405
 30
0.0
 40
0.2
100
AcDbArc
 50
267.3904365189468
 51
331.3170184406275
  0
ARC
  5
1E11
102
{ACAD_REACTORS
330
1E05
102
}
330
1E01
100
AcDbEntity
  8
針
100
AcDbCircle
 10
6.666575673487614
 20
-0.4559647924756405
 30
0.0
 40
0.2
100
AcDbArc
 50
28.68298155937256
 51
92.60956348105315
  0
CIRCLE
  5
1E12
102
{ACAD_REACTORS
330
1E05
102
}
330
1E01
100
AcDbEntity
  8
外形線
100
AcDbCircle
 10
0.0
 20
0.0
 30
0.0
 40
1.5
  0
CIRCLE
  5
1E13
330
1E01
100
AcDbEntity
  8
外形線
 62
     4
100
AcDbCircle
 10
0.0
 20
0.0
 30
0.0
 40
0.25
  0
ENDBLK
  5
1E14
330
1E01
100
AcDbEntity
  8
0
100
AcDbBlockEnd
  0
ENDSEC
  0
SECTION
  2
ENTITIES
  0
LWPOLYLINE
  5
10B
330
18
100
AcDbEntity
  8
C
100
AcDbPolyline
 90
        5
 70
     0
 43
0.4
 10
236.6915604445414
 20
366.8501752555372
 10
491.6915604445414
 20
366.8501752555372
 10
491.6915604445414
 20
171.8501752555372
 10
236.6915604445414
 20
171.8501752555372
 10
236.6915604445414
 20
366.8501752555372
  0
LINE
  5
16B
330
18
100
AcDbEntity
  8
中心線
 48
0.5
100
AcDbLine
 10
313.4046399144318
 20
333.0912212455944
 30
0.0
 11
313.4046399144318
 21
204.1295628571389
 31
0.0
  0
LINE
  5
16C
330
18
100
AcDbEntity
  8
外形線
100
AcDbLine
 10
310.4046399144317
 20
327.3748916706375
 30
0.0
 11
316.4046399144317
 21
327.3748916706375
 31
0.0
  0
LINE
  5
16D
330
18
100
AcDbEntity
  8
外形線
100
AcDbLine
 10
310.4046399144317
 20
312.1787392479309
 30
0.0
 11
316.4046399144317
 21
312.1787392479309
 31
0.0
  0
LINE
  5
16E
330
18
100
AcDbEntity
  8
外形線
100
AcDbLine
 10
316.4046399144317
 20
327.3748916706375
 30
0.0
 11
316.4046399144317
 21
312.1787392479309
 31
0.0
  0
LINE
  5
16F
330
18
100
AcDbEntity
  8
外形線
100
AcDbLine
 10
310.4046399144317
 20
327.3748916706375
 30
0.0
 11
310.4046399144317
 21
312.1787392479309
 31
0.0
  0
ARC
  5
170
330
18
100
AcDbEntity
  8
外形線
100
AcDbCircle
 10
313.4046399144318
 20
322.1787392479309
 30
0.0
 40
6.0
100
AcDbArc
 50
60.0
 51
120.0
  0
CIRCLE
  5
172
330
18
100
AcDbEntity
  8
外形線
100
AcDbCircle
 10
313.4046399144318
 20
294.5787392479309
 30
0.0
 40
17.5
  0
LINE
  5
17D
330
18
100
AcDbEntity
  8
中心線
 48
0.5
100
AcDbLine
 10
309.6560350981095
 20
207.6787392479309
 30
0.0
 11
317.5356885138204
 21
207.6787392479309
 31
0.0
  0
LINE
  5
305
330
18
100
AcDbEntity
  8
中心線
 48
0.5
100
AcDbLine
 10
292.5454823762375
 20
294.5787392479309
 30
0.0
 11
334.0498425055225
 21
294.5787392479309
 31
0.0
  0
CIRCLE
  5
307
330
18
100
AcDbEntity
  8
外形線
100
AcDbCircle
 10
313.4046399144318
 20
294.5787392479309
 30
0.0
 40
15.0
  0
TEXT
  5
35E
330
18
100
AcDbEntity
  8
文字
100
AcDbText
 10
315.8384240657124
 20
294.1693994633558
 30
0.0
 40
0.8
  1
0.01mm
  7
STYLE3
100
AcDbText
  0
TEXT
  5
35F
330
18
100
AcDbEntity
  8
文字
100
AcDbText
 10
306.4642054296894
 20
294.2046881986815
 30
0.0
 40
0.8
  1
Jeweled
  7
STYLE3
100
AcDbText
  0
TEXT
  5
363
330
18
100
AcDbEntity
  8
文字
100
AcDbText
 10
310.7031003009934
 20
289.54662290555
 30
0.0
 40
1.0
  1
PC-1L
  7
STYLE3
100
AcDbText
  0
TEXT
  5
368
330
18
100
AcDbEntity
  8
文字
100
AcDbText
 10
309.960632506499
 20
297.5923713037662
 30
0.0
 40
1.0
  1
PIC-TEST
  7
STYLE3
100
AcDbText
  0
INSERT
  5
B43
330
18
100
AcDbEntity
  8
文字
100
AcDbBlockReference
  2
ROGO1
 10
301.1334577592202
 20
275.1168679656769
 30
0.0
  0
INSERT
  5
B44
330
18
100
AcDbEntity
  8
文字
100
AcDbBlockReference
  2
ROGO1
 10
301.1095809474122
 20
275.1436630917189
 30
0.0
  0
LINE
  5
BF9
330
18
100
AcDbEntity
  8
外形線
100
AcDbLine
 10
315.1546399144318
 20
247.378739247931
 30
0.0
 11
312.1546399144317
 21
247.3787392479309
 31
0.0
  0
LINE
  5
C02
330
18
100
AcDbEntity
  8
外形線
100
AcDbLine
 10
314.1057765743529
 20
208.3928820907853
 30
0.0
 11
312.7046399144318
 21
208.3928820907853
 31
0.0
  0
LINE
  5
C12
330
18
100
AcDbEntity
  8
外形線
100
AcDbLine
 10
311.9046399144318
 20
220.6787392479309
 30
0.0
 11
312.7046399144318
 21
208.3928820907852
 31
0.0
  0
LINE
  5
C13
330
18
100
AcDbEntity
  8
外形線
100
AcDbLine
 10
314.9046399144318
 20
220.6787392479309
 30
0.0
 11
314.1046399144317
 21
208.3928820907852
 31
0.0
  0
ARC
  5
C14
330
18
100
AcDbEntity
  8
外形線
100
AcDbCircle
 10
313.4046399144318
 20
207.6787392479309
 30
0.0
 40
1.0
100
AcDbArc
 50
134.427004000808
 51
45.57299599919653
  0
LINE
  5
C24
330
18
100
AcDbEntity
  8
隠れ線
 62
     4
 48
0.3
100
AcDbLine
 10
313.4046399144318
 20
208.6257742255259
 30
0.0
 11
314.1046399144317
 21
208.3928820907852
 31
0.0
  0
LINE
  5
C25
330
18
100
AcDbEntity
  8
隠れ線
 62
     4
 48
0.3
100
AcDbLine
 10
313.4046399144318
 20
208.6257742255259
 30
0.0
 11
312.7046399144318
 21
208.3928820907852
 31
0.0
  0
LINE
  5
C4D
330
18
100
AcDbEntity
  8
中心線
 48
0.5
100
AcDbLine
 10
306.2851144385641
 20
250.5787392479309
 30
0.0
 11
320.6040322478744
 21
250.5787392479309
 31
0.0
  0
LINE
  5
C4E
330
18
100
AcDbEntity
  8
外形線
100
AcDbLine
 10
309.6046399144317
 20
247.0787392479309
 30
0.0
 11
311.2546399144318
 21
247.0787392479309
 31
0.0
  0
LINE
  5
C51
330
18
100
AcDbEntity
  8
外形線
100
AcDbLine
 10
310.5776061736115
 20
312.2287392479308
 30
0.0
 11
316.231673655252
 21
312.2287392479308
 31
0.0
  0
LINE
  5
C56
330
18
100
AcDbEntity
  8
外形線
100
AcDbLine
 10
316.1898472032733
 20
311.8556782232872
 30
0.0
 11
316.3183359009394
 21
312.0788428034441
 31
0.0
  0
LINE
  5
C57
330
18
100
AcDbEntity
  8
外形線
100
AcDbLine
 10
310.6194326255902
 20
311.8556782232872
 30
0.0
 11
310.4909439279241
 21
312.0788428034441
 31
0.0
  0
ARC
  5
C58
330
18
100
AcDbEntity
  8
外形線
100
AcDbCircle
 10
310.5776061736115
 20
312.1287392479308
 30
0.0
 40
0.1
100
AcDbArc
 50
89.99999999999944
 51
209.9315118405063
  0
ARC
  5
C59
330
18
100
AcDbEntity
  8
外形線
100
AcDbCircle
 10
316.231673655252
 20
312.1287392479308
 30
0.0
 40
0.1
100
AcDbArc
 50
330.0684881594922
 51
90.0
  0
LINE
  5
C5A
330
18
100
AcDbEntity
  8
外形線
100
AcDbLine
 10
317.2046399144318
 20
277.4962921164454
 30
0.0
 11
317.2046399144318
 21
247.0787392479309
 31
0.0
  0
LINE
  5
C5B
330
18
100
AcDbEntity
  8
外形線
100
AcDbLine
 10
309.6046399144317
 20
277.4962921164453
 30
0.0
 11
309.6046399144317
 21
247.0787392479309
 31
0.0
  0
LINE
  5
C5C
330
18
100
AcDbEntity
  8
外形線
100
AcDbLine
 10
309.6046399144313
 20
276.578739247931
 30
0.0
 11
317.2046399144313
 21
276.5787392479309
 31
0.0
  0
LINE
  5
C5D
330
18
100
AcDbEntity
  8
外形線
100
AcDbLine
 10
311.1046399144318
 20
277.2305404941698
 30
0.0
 11
311.1046399144318
 21
266.9787392479309
 31
0.0
  0
LINE
  5
C5E
330
18
100
AcDbEntity
  8
中心線
100
AcDbLine
 10
310.8970849975972
 20
273.578739247931
 30
0.0
 11
313.9218995023299
 21
273.5787392479309
 31
0.0
  0
LINE
  5
C5F
330
18
100
AcDbEntity
  8
中心線
100
AcDbLine
 10
312.6046399144318
 20
274.9080206218961
 30
0.0
 11
312.6046399144318
 21
272.0652238944864
 31
0.0
  0
CIRCLE
  5
C60
330
18
100
AcDbEntity
  8
外形線
100
AcDbCircle
 10
312.6046399144318
 20
273.5787392479309
 30
0.0
 40
0.85
  0
LINE
  5
C80
330
18
100
AcDbEntity
  8
外形線
100
AcDbLine
 10
310.2046399144318
 20
266.9787392479309
 30
0.0
 11
316.2046399144319
 21
266.9787392479309
 31
0.0
  0
LINE
  5
C81
330
18
100
AcDbEntity
  8
外形線
100
AcDbLine
 10
310.2046399144318
 20
266.4787392479309
 30
0.0
 11
316.2046399144319
 21
266.4787392479309
 31
0.0
  0
LINE
  5
C82
330
18
100
AcDbEntity
  8
外形線
100
AcDbLine
 10
310.2046399144318
 20
252.9787392479309
 30
0.0
 11
316.2046399144318
 21
252.978739247931
 31
0.0
  0
LINE
  5
C83
330
18
100
AcDbEntity
  8
外形線
100
AcDbLine
 10
316.2046399144319
 20
266.9787392479309
 30
0.0
 11
316.2046399144318
 21
252.978739247931
 31
0.0
  0
LINE
  5
C84
330
18
100
AcDbEntity
  8
外形線
100
AcDbLine
 10
310.2046399144318
 20
266.9787392479309
 30
0.0
 11
310.2046399144318
 21
252.9787392479309
 31
0.0
  0
LINE
  5
C88
330
18
100
AcDbEntity
  8
外形線
100
AcDbLine
 10
317.2046399144318
 20
247.0787392479309
 30
0.0
 11
315.5546399144317
 21
247.0787392479309
 31
0.0
  0
LINE
  5
C8F
330
18
100
AcDbEntity
  8
外形線
100
AcDbLine
 10
309.6046399144317
 20
260.7787392479309
 30
0.0
 11
310.2046399144318
 21
260.7787392479309
 31
0.0
  0
LINE
  5
C90
330
18
100
AcDbEntity
  8
外形線
 62
     4
100
AcDbLine
 10
316.2046399144319
 20
266.9787392479309
 30
0.0
 11
317.2046399144318
 21
266.9787392479309
 31
0.0
  0
LINE
  5
C91
330
18
100
AcDbEntity
  8
外形線
 62
     4
100
AcDbLine
 10
310.2046399144318
 20
266.9787392479309
 30
0.0
 11
309.6046399144317
 21
266.9787392479309
 31
0.0
  0
LINE
  5
C94
330
18
100
AcDbEntity
  8
外形線
100
AcDbLine
 10
315.5546399144317
 20
247.0787392479309
 30
0.0
 11
315.5100118186731
 21
251.9878297813877
 31
0.0
  0
LINE
  5
C95
330
18
100
AcDbEntity
  8
外形線
100
AcDbLine
 10
311.2546399144318
 20
247.0787392479309
 30
0.0
 11
311.2992680101904
 21
251.9878297813877
 31
0.0
  0
ARC
  5
C99
330
18
100
AcDbEntity
  8
外形線
100
AcDbCircle
 10
314.510053138426
 20
251.9787392479309
 30
0.0
 40
1.0
100
AcDbArc
 50
0.5208563745014782
 51
90.00000000000019
  0
ARC
  5
C9A
330
18
100
AcDbEntity
  8
外形線
100
AcDbCircle
 10
312.2992266904375
 20
251.9787392479309
 30
0.0
 40
1.0
100
AcDbArc
 50
89.99999999999982
 51
179.4791436254985
  0
LINE
  5
CAE
330
18
100
AcDbEntity
  8
外形線
100
AcDbLine
 10
315.1546399144318
 20
252.7432704037372
 30
0.0
 11
315.1546399144318
 21
247.378739247931
 31
0.0
  0
LINE
  5
CAF
330
18
100
AcDbEntity
  8
外形線
100
AcDbLine
 10
311.6546399144318
 20
252.7432704037372
 30
0.0
 11
311.6546399144318
 21
247.8787392479309
 31
0.0
  0
LINE
  5
CB0
330
18
100
AcDbEntity
  8
外形線
100
AcDbLine
 10
312.1546399144317
 20
252.968231372308
 30
0.0
 11
312.1546399144317
 21
247.3787392479309
 31
0.0
  0
LINE
  5
CB2
330
18
100
AcDbEntity
  8
外形線
100
AcDbLine
 10
311.6546399144318
 20
247.8787392479309
 30
0.0
 11
312.1546399144317
 21
247.8787392479309
 31
0.0
  0
LINE
  5
CBB
330
18
100
AcDbEntity
  8
外形線
100
AcDbLine
 10
308.4046399144317
 20
252.5787392479309
 30
0.0
 11
308.4046399144317
 21
248.5787392479309
 31
0.0
  0
LINE
  5
CBC
330
18
100
AcDbEntity
  8
外形線
100
AcDbLine
 10
308.9046399144317
 20
253.5787392479309
 30
0.0
 11
308.9046399144317
 21
247.5787392479309
 31
0.0
  0
LINE
  5
CBD
330
18
100
AcDbEntity
  8
外形線
100
AcDbLine
 10
308.9046399144317
 20
248.5787392479309
 30
0.0
 11
308.4046399144317
 21
248.5787392479309
 31
0.0
  0
LINE
  5
CBE
330
18
100
AcDbEntity
  8
外形線
100
AcDbLine
 10
309.6046399144317
 20
247.5787392479309
 30
0.0
 11
308.9046399144317
 21
247.5787392479309
 31
0.0
  0
LINE
  5
CBF
330
18
100
AcDbEntity
  8
外形線
100
AcDbLine
 10
308.9046399144317
 20
252.5787392479309
 30
0.0
 11
308.4046399144317
 21
252.5787392479309
 31
0.0
  0
LINE
  5
CC0
330
18
100
AcDbEntity
  8
外形線
100
AcDbLine
 10
309.6046399144317
 20
253.5787392479309
 30
0.0
 11
308.9046399144317
 21
253.5787392479309
 31
0.0
  0
INSERT
  5
FCB
330
18
100
AcDbEntity
  8
文字
100
AcDbBlockReference
  2
ROGO1
 10
579.0605083803766
 20
282.754069537204
 30
0.0
  0
INSERT
  5
FCC
330
18
100
AcDbEntity
  8
文字
100
AcDbBlockReference
  2
ROGO1
 10
579.0366315685687
 20
282.780864663246
 30
0.0
  0
LINE
  5
11EB
330
18
100
AcDbEntity
  8
外形線
100
AcDbLine
 10
385.1817441892263
 20
266.1503502580049
 30
0.0
 11
387.8567197409957
 21
252.978739247931
 31
0.0
  0
LINE
  5
11EC
330
18
100
AcDbEntity
  8
外形線
100
AcDbLine
 10
386.7987354295536
 20
266.4787392479312
 30
0.0
 11
390.1573432530813
 21
249.9409149087
 31
0.0
  0
LINE
  5
11ED
330
18
100
AcDbEntity
  8
外形線
100
AcDbLine
 10
399.9987354295538
 20
266.4787392479308
 30
0.0
 11
397.0401276060258
 21
249.9409149087
 31
0.0
  0
LINE
  5
11EE
330
18
100
AcDbEntity
  8
中心線
 48
0.5
100
AcDbLine
 10
393.5987354295537
 20
331.783241105862
 30
0.0
 11
393.5987354295537
 21
204.7911432247424
 31
0.0
  0
LINE
  5
1203
330
18
100
AcDbEntity
  8
中心線
 48
0.5
100
AcDbLine
 10
386.165620668294
 20
250.5787392479309
 30
0.0
 11
400.9005364406341
 21
250.5787392479309
 31
0.0
  0
ARC
  5
1204
330
18
100
AcDbEntity
  8
外形線
100
AcDbCircle
 10
393.5987354295537
 20
250.5787392479308
 30
0.0
 40
3.0
100
AcDbArc
 50
54.59406822686052
 51
215.4059317731395
  0
ARC
  5
1205
330
18
100
AcDbEntity
  8
外形線
100
AcDbCircle
 10
393.5987354295537
 20
250.5787392479308
 30
0.0
 40
3.0
100
AcDbArc
 50
234.5940682268605
 51
35.4059317731395
  0
LINE
  5
1206
330
18
100
AcDbEntity
  8
外形線
100
AcDbLine
 10
395.7200557731133
 20
251.9929528103039
 30
0.0
 11
396.0439388864821
 21
252.3168359236728
 31
0.0
  0
ARC
  5
1207
330
18
100
AcDbEntity
  8
外形線
100
AcDbCircle
 10
393.3981367951702
 20
250.8184096690235
 30
0.0
 40
3.745046684690569
100
AcDbArc
 50
273.0704445438476
 51
346.7866708910927
  0
LINE
  5
1208
330
18
100
AcDbEntity
  8
外形線
100
AcDbLine
 10
392.1845218671806
 20
248.4574189043712
 30
0.0
 11
391.477415085994
 21
249.1645256855578
 31
0.0
  0
LINE
  5
1209
330
18
100
AcDbEntity
  8
外形線
100
AcDbLine
 10
392.1845218671806
 20
248.4574189043712
 30
0.0
 11
391.8606387538119
 21
248.1335357910024
 31
0.0
  0
LINE
  5
120A
330
18
100
AcDbEntity
  8
外形線
100
AcDbLine
 10
391.477415085994
 20
249.1645256855578
 30
0.0
 11
391.1535319726252
 21
248.8406425721889
 31
0.0
  0
LINE
  5
120B
330
18
100
AcDbEntity
  8
外形線
100
AcDbLine
 10
395.7200557731133
 20
251.9929528103039
 30
0.0
 11
395.0129489919268
 21
252.7000595914905
 31
0.0
  0
LINE
  5
120C
330
18
100
AcDbEntity
  8
外形線
100
AcDbLine
 10
395.0129489919268
 20
252.7000595914905
 30
0.0
 11
395.3368321052956
 21
253.0239427048593
 31
0.0
  0
LINE
  5
120D
330
18
100
AcDbEntity
  8
外形線
100
AcDbLine
 10
392.1845218671806
 20
249.1645256855578
 30
0.0
 11
395.0129489919268
 21
251.992952810304
 31
0.0
  0
ARC
  5
120E
330
18
100
AcDbEntity
  8
外形線
100
AcDbCircle
 10
393.7993340639371
 20
250.8184096690235
 30
0.0
 40
3.745046684690569
100
AcDbArc
 50
193.2133291089073
 51
266.9295554561525
  0
LINE
  5
120F
330
18
100
AcDbEntity
  8
外形線
100
AcDbLine
 10
387.8567197409957
 20
252.978739247931
 30
0.0
 11
389.5404023312915
 21
252.978739247931
 31
0.0
  0
CIRCLE
  5
1210
330
18
100
AcDbEntity
  8
外形線
100
AcDbCircle
 10
393.5987354295537
 20
250.5787392479309
 30
0.0
 40
2.0
  0
LINE
  5
121B
330
18
100
AcDbEntity
  8
外形線
100
AcDbLine
 10
401.6487354295536
 20
310.5787392479308
 30
0.0
 11
401.6487354295536
 21
268.6287392479307
 31
0.0
  0
LINE
  5
121C
330
18
100
AcDbEntity
  8
外形線
100
AcDbLine
 10
387.1987354295536
 20
312.2287392479308
 30
0.0
 11
387.1987354295537
 21
276.578739247931
 31
0.0
  0
LINE
  5
121D
330
18
100
AcDbEntity
  8
外形線
100
AcDbLine
 10
399.9987354295537
 20
312.2287392479309
 30
0.0
 11
399.9987354295538
 21
266.4787392479308
 31
0.0
  0
LINE
  5
121E
330
18
100
AcDbEntity
  8
外形線
100
AcDbLine
 10
394.1389266981031
 20
283.9349643629491
 30
0.0
 11
393.0585441610042
 21
285.2225141329128
 31
0.0
  0
LINE
  5
121F
330
18
100
AcDbEntity
  8
外形線
100
AcDbLine
 10
392.9549605445718
 20
284.0385479793815
 30
0.0
 11
394.2425103145355
 21
285.1189305164804
 31
0.0
  0
ARC
  5
1220
330
18
100
AcDbEntity
  8
外形線
100
AcDbCircle
 10
393.5987354295537
 20
284.5787392479309
 30
0.0
 40
2.5
100
AcDbArc
 50
355.0
 51
175.0
  0
CIRCLE
  5
1221
330
18
100
AcDbEntity
  8
外形線
100
AcDbCircle
 10
393.5987354295537
 20
284.5787392479309
 30
0.0
 40
1.5
  0
LINE
  5
1223
330
18
100
AcDbEntity
  8
外形線
100
AcDbLine
 10
385.1745222131876
 20
266.1881683825958
 30
0.0
 11
386.7987354295536
 21
266.4787392479312
 31
0.0
  0
ARC
  5
122C
330
18
100
AcDbEntity
  8
外形線
100
AcDbCircle
 10
392.7707558734509
 20
275.1148896160594
 30
0.0
 40
1.5
100
AcDbArc
 50
175.0
 51
355.0
  0
LINE
  5
122D
330
18
100
AcDbEntity
  8
外形線
100
AcDbLine
 10
386.7987354295538
 20
276.5787392479309
 30
0.0
 11
386.7987354295536
 21
266.4787392479312
 31
0.0
  0
LINE
  5
122E
330
18
100
AcDbEntity
  8
外形線
100
AcDbLine
 10
399.9987354295538
 20
266.9787392479309
 30
0.0
 11
401.6487354295536
 21
268.6287392479307
 31
0.0
  0
LINE
  5
122F
330
18
100
AcDbEntity
  8
外形線
100
AcDbLine
 10
396.089222174783
 20
284.3608498910618
 30
0.0
 11
394.2650479205886
 21
274.9841560019379
 31
0.0
  0
LINE
  5
1230
330
18
100
AcDbEntity
  8
中心線
 48
0.5
100
AcDbLine
 10
388.7654672519409
 20
284.5787392479309
 30
0.0
 11
398.1742197113058
 21
284.5787392479309
 31
0.0
  0
LINE
  5
1231
330
18
100
AcDbEntity
  8
外形線
100
AcDbLine
 10
391.1082486843243
 20
284.7966286048
 30
0.0
 11
391.2764638263133
 21
275.2456232301808
 31
0.0
  0
LINE
  5
1232
330
18
100
AcDbEntity
  8
外形線
100
AcDbLine
 10
386.7987354295538
 20
276.5787392479309
 30
0.0
 11
387.1987354295536
 21
276.5787392479309
 31
0.0
  0
LINE
  5
1233
330
18
100
AcDbEntity
  8
中心線
 48
0.5
100
AcDbLine
 10
375.1786316461337
 20
294.5787392479309
 30
0.0
 11
404.3879786060826
 21
294.5787392479309
 31
0.0
  0
CIRCLE
  5
1244
330
18
100
AcDbEntity
  8
外形線
100
AcDbCircle
 10
393.5987354295537
 20
294.5787392479309
 30
0.0
 40
1.0
  0
LINE
  5
1249
330
18
100
AcDbEntity
  8
外形線
100
AcDbLine
 10
396.5987354295537
 20
327.3748916706375
 30
0.0
 11
396.5987354295537
 21
312.1787392479308
 31
0.0
  0
LINE
  5
124A
330
18
100
AcDbEntity
  8
外形線
100
AcDbLine
 10
390.5987354295537
 20
327.3748916706375
 30
0.0
 11
390.5987354295537
 21
312.1787392479308
 31
0.0
  0
LINE
  5
1253
330
18
100
AcDbEntity
  8
外形線
100
AcDbLine
 10
390.5987354295537
 20
312.1787392479308
 30
0.0
 11
396.5987354295537
 21
312.1787392479308
 31
0.0
  0
LINE
  5
1254
330
18
100
AcDbEntity
  8
外形線
100
AcDbLine
 10
387.1987354295536
 20
312.2287392479308
 30
0.0
 11
399.9987354295537
 21
312.2287392479309
 31
0.0
  0
LINE
  5
1255
330
18
100
AcDbEntity
  8
外形線
100
AcDbLine
 10
401.6487354295536
 20
310.5787392479308
 30
0.0
 11
387.1987354295536
 21
310.5787392479309
 31
0.0
  0
POINT
  5
1256
330
18
100
AcDbEntity
  8
DEFPOINTS
  6
ByBlock
 62
     0
100
AcDbPoint
 10
401.6487354295536
 20
310.5787392479308
 30
0.0
  0
POINT
  5
1257
330
18
100
AcDbEntity
  8
DEFPOINTS
  6
ByBlock
 62
     0
100
AcDbPoint
 10
399.9987354295537
 20
312.2287392479309
 30
0.0
  0
LINE
  5
1259
330
18
100
AcDbEntity
  8
外形線
100
AcDbLine
 10
390.5987354295537
 20
327.3748916706375
 30
0.0
 11
396.5987354295537
 21
327.3748916706375
 31
0.0
  0
ARC
  5
125A
330
18
100
AcDbEntity
  8
外形線
100
AcDbCircle
 10
393.5987354295537
 20
322.1787392479308
 30
0.0
 40
6.0
100
AcDbArc
 50
60.0
 51
120.0
  0
POINT
  5
1285
330
18
100
AcDbEntity
  8
DEFPOINTS
  6
ByBlock
 62
     0
100
AcDbPoint
 10
313.4046399144318
 20
294.5787392479309
 30
0.0
  0
POINT
  5
1286
330
18
100
AcDbEntity
  8
DEFPOINTS
  6
ByBlock
 62
     0
100
AcDbPoint
 10
313.4046399144318
 20
294.5787392479309
 30
0.0
  0
POINT
  5
1287
330
18
100
AcDbEntity
  8
DEFPOINTS
  6
ByBlock
 62
     0
100
AcDbPoint
 10
313.4046399144318
 20
294.5787392479309
 30
0.0
  0
POINT
  5
1288
330
18
100
AcDbEntity
  8
DEFPOINTS
  6
ByBlock
 62
     0
100
AcDbPoint
 10
313.4046399144318
 20
294.5787392479309
 30
0.0
  0
CIRCLE
  5
1289
330
18
100
AcDbEntity
  8
外形線
 62
     4
100
AcDbCircle
 10
313.4046399144318
 20
294.5787392479309
 30
0.0
 40
0.25
  0
LINE
  5
12CA
330
18
100
AcDbEntity
  8
外形線
100
AcDbLine
 10
381.1987354295535
 20
312.0787392479309
 30
0.0
 11
384.3487354295535
 21
312.0787392479309
 31
0.0
  0
LINE
  5
12CC
330
18
100
AcDbEntity
  8
外形線
100
AcDbLine
 10
380.9987354295536
 20
311.8787392479309
 30
0.0
 11
380.9987354295535
 21
277.2787392479311
 31
0.0
  0
LINE
  5
12CD
330
18
100
AcDbEntity
  8
外形線
100
AcDbLine
 10
384.6987354295536
 20
311.7287392479308
 30
0.0
 11
384.6987354295535
 21
277.428739247931
 31
0.0
  0
LINE
  5
12CE
330
18
100
AcDbEntity
  8
外形線
100
AcDbLine
 10
385.6987354295536
 20
311.7287392479309
 30
0.0
 11
385.6987354295536
 21
277.4287392479309
 31
0.0
  0
LINE
  5
12CF
330
18
100
AcDbEntity
  8
外形線
 48
0.5
100
AcDbLine
 10
380.9987354295536
 20
311.8787392479309
 30
0.0
 11
381.1987354295535
 21
312.0787392479309
 31
0.0
  0
LINE
  5
12D0
330
18
100
AcDbEntity
  8
外形線
100
AcDbLine
 10
384.3487354295535
 20
312.0787392479309
 30
0.0
 11
384.6987354295535
 21
311.7287392479309
 31
0.0
  0
LINE
  5
12EF
330
18
100
AcDbEntity
  8
外形線
100
AcDbLine
 10
384.3487354295535
 20
277.0787392479309
 30
0.0
 11
384.6987354295535
 21
277.4287392479309
 31
0.0
  0
LINE
  5
12F0
330
18
100
AcDbEntity
  8
外形線
 48
0.5
100
AcDbLine
 10
380.9987354295536
 20
277.2787392479309
 30
0.0
 11
381.1987354295535
 21
277.0787392479309
 31
0.0
  0
LINE
  5
12F1
330
18
100
AcDbEntity
  8
外形線
100
AcDbLine
 10
381.1987354295535
 20
277.0787392479309
 30
0.0
 11
384.3487354295535
 21
277.0787392479309
 31
0.0
  0
LINE
  5
12F5
330
18
100
AcDbEntity
  8
外形線
100
AcDbLine
 10
380.4987354295536
 20
311.0787392479309
 30
0.0
 11
380.4987354295536
 21
278.078739247931
 31
0.0
  0
LINE
  5
12FF
330
18
100
AcDbEntity
  8
外形線
100
AcDbLine
 10
384.6987354295535
 20
311.7287392479308
 30
0.0
 11
385.6987354295536
 21
311.7287392479309
 31
0.0
  0
LINE
  5
1300
330
18
100
AcDbEntity
  8
外形線
100
AcDbLine
 10
384.6987354295535
 20
277.4287392479309
 30
0.0
 11
385.6987354295536
 21
277.4287392479309
 31
0.0
  0
LINE
  5
1308
330
18
100
AcDbEntity
  8
外形線
100
AcDbLine
 10
380.4987354295536
 20
311.0787392479309
 30
0.0
 11
380.9987354295536
 21
311.5787392479309
 31
0.0
  0
LINE
  5
1309
330
18
100
AcDbEntity
  8
外形線
100
AcDbLine
 10
380.4987354295536
 20
278.0787392479309
 30
0.0
 11
380.9987354295536
 21
277.5787392479309
 31
0.0
  0
LINE
  5
1312
330
18
100
AcDbEntity
  8
外形線
100
AcDbLine
 10
380.9987354295537
 20
311.3787392479309
 30
0.0
 11
384.6987354295535
 21
311.3787392479309
 31
0.0
  0
LINE
  5
1313
330
18
100
AcDbEntity
  8
外形線
100
AcDbLine
 10
380.9987354295537
 20
310.6787392479309
 30
0.0
 11
384.6987354295535
 21
310.6787392479309
 31
0.0
  0
LINE
  5
1314
330
18
100
AcDbEntity
  8
外形線
100
AcDbLine
 10
380.9987354295537
 20
309.8787392479309
 30
0.0
 11
384.6987354295535
 21
309.8787392479309
 31
0.0
  0
LINE
  5
1315
330
18
100
AcDbEntity
  8
外形線
100
AcDbLine
 10
380.9987354295537
 20
309.0787392479309
 30
0.0
 11
384.6987354295535
 21
309.0787392479309
 31
0.0
  0
LINE
  5
1316
330
18
100
AcDbEntity
  8
外形線
100
AcDbLine
 10
380.9987354295537
 20
308.1787392479309
 30
0.0
 11
384.6987354295535
 21
308.1787392479309
 31
0.0
  0
LINE
  5
1328
330
18
100
AcDbEntity
  8
外形線
100
AcDbLine
 10
380.9987354295536
 20
295.2787392479309
 30
0.0
 11
384.6987354295535
 21
295.2787392479309
 31
0.0
  0
LINE
  5
1329
330
18
100
AcDbEntity
  8
外形線
100
AcDbLine
 10
380.9987354295536
 20
293.8787392479309
 30
0.0
 11
384.6987354295535
 21
293.8787392479309
 31
0.0
  0
LINE
  5
132A
330
18
100
AcDbEntity
  8
外形線
100
AcDbLine
 10
380.9987354295536
 20
296.0787392479309
 30
0.0
 11
384.6987354295535
 21
296.0787392479309
 31
0.0
  0
LINE
  5
132B
330
18
100
AcDbEntity
  8
外形線
100
AcDbLine
 10
380.9987354295536
 20
293.0787392479309
 30
0.0
 11
384.6987354295535
 21
293.0787392479309
 31
0.0
  0
LINE
  5
132C
330
18
100
AcDbEntity
  8
外形線
100
AcDbLine
 10
380.9987354295535
 20
294.5787392479309
 30
0.0
 11
384.6987354295535
 21
294.5787392479309
 31
0.0
  0
LINE
  5
132D
330
18
100
AcDbEntity
  8
外形線
100
AcDbLine
 10
380.9987354295537
 20
280.9787392479309
 30
0.0
 11
384.6987354295535
 21
280.9787392479309
 31
0.0
  0
LINE
  5
132E
330
18
100
AcDbEntity
  8
外形線
100
AcDbLine
 10
380.9987354295537
 20
280.0787392479309
 30
0.0
 11
384.6987354295535
 21
280.0787392479309
 31
0.0
  0
LINE
  5
132F
330
18
100
AcDbEntity
  8
外形線
100
AcDbLine
 10
380.9987354295537
 20
279.2787392479309
 30
0.0
 11
384.6987354295535
 21
279.278739247931
 31
0.0
  0
LINE
  5
1330
330
18
100
AcDbEntity
  8
外形線
100
AcDbLine
 10
380.9987354295537
 20
278.4787392479309
 30
0.0
 11
384.6987354295535
 21
278.4787392479309
 31
0.0
  0
LINE
  5
1331
330
18
100
AcDbEntity
  8
外形線
100
AcDbLine
 10
380.9987354295537
 20
277.7787392479309
 30
0.0
 11
384.6987354295535
 21
277.7787392479309
 31
0.0
  0
LINE
  5
1336
330
18
100
AcDbEntity
  8
外形線
100
AcDbLine
 10
385.6987354295536
 20
309.5787392479309
 30
0.0
 11
386.1987354295536
 21
309.5787392479309
 31
0.0
  0
ARC
  5
1337
330
18
100
AcDbEntity
  8
外形線
100
AcDbCircle
 10
386.1987354295536
 20
308.5787392479309
 30
0.0
 40
1.0
100
AcDbArc
 50
0.0000000000002036
 51
90.0
  0
ARC
  5
1338
330
18
100
AcDbEntity
  8
外形線
100
AcDbCircle
 10
386.1987354295536
 20
280.5787392479309
 30
0.0
 40
1.0
100
AcDbArc
 50
270.0
 51
359.9999999999998
  0
LINE
  5
1339
330
18
100
AcDbEntity
  8
外形線
100
AcDbLine
 10
385.6987354295536
 20
279.5787392479309
 30
0.0
 11
386.1987354295536
 21
279.5787392479309
 31
0.0
  0
ARC
  5
133C
330
18
100
AcDbEntity
  8
外形線
100
AcDbCircle
 10
440.5140250455378
 20
294.5787392479309
 30
0.0
 40
62.37903158457702
100
AcDbArc
 50
166.4545064755762
 51
193.5454935244236
  0
LINE
  5
1343
330
18
100
AcDbEntity
  8
外形線
100
AcDbLine
 10
380.3562047916644
 20
309.5718828733737
 30
0.0
 11
380.4987354295535
 21
309.5718828733737
 31
0.0
  0
ARC
  5
1345
330
18
100
AcDbEntity
  8
外形線
100
AcDbCircle
 10
380.3562047916643
 20
309.0718828733737
 30
0.0
 40
0.5
100
AcDbArc
 50
89.99999999999349
 51
166.4545064755751
  0
ARC
  5
1346
330
18
100
AcDbEntity
  8
外形線
100
AcDbCircle
 10
380.3562047916643
 20
280.0855956224881
 30
0.0
 40
0.5
100
AcDbArc
 50
193.5454935244249
 51
270.0000000000065
  0
LINE
  5
1347
330
18
100
AcDbEntity
  8
外形線
100
AcDbLine
 10
380.3562047916644
 20
279.5855956224881
 30
0.0
 11
380.4987354295535
 21
279.5855956224881
 31
0.0
  0
LINE
  5
1348
330
18
100
AcDbEntity
  8
外形線
100
AcDbLine
 10
311.2910035507954
 20
251.0787392479309
 30
0.0
 11
311.6546399144318
 21
251.0787392479309
 31
0.0
  0
LINE
  5
1349
330
18
100
AcDbEntity
  8
外形線
100
AcDbLine
 10
311.2819126417045
 20
250.0787392479308
 30
0.0
 11
311.6546399144318
 21
250.0787392479309
 31
0.0
  0
LINE
  5
134A
330
18
100
AcDbEntity
  8
外形線
100
AcDbLine
 10
315.1546399144318
 20
251.0787392479309
 30
0.0
 11
315.5182762780681
 21
251.0787392479309
 31
0.0
  0
LINE
  5
134B
330
18
100
AcDbEntity
  8
外形線
100
AcDbLine
 10
315.1546399144318
 20
250.0787392479308
 30
0.0
 11
315.527367187159
 21
250.0787392479308
 31
0.0
  0
LINE
  5
138E
330
18
100
AcDbEntity
  8
外形線
100
AcDbLine
 10
317.9046399144318
 20
253.5787392479309
 30
0.0
 11
317.9046399144318
 21
247.5787392479309
 31
0.0
  0
LINE
  5
138F
330
18
100
AcDbEntity
  8
外形線
100
AcDbLine
 10
318.4046399144317
 20
252.5787392479309
 30
0.0
 11
318.4046399144317
 21
248.5787392479309
 31
0.0
  0
LINE
  5
1390
330
18
100
AcDbEntity
  8
外形線
100
AcDbLine
 10
317.2046399144318
 20
247.5787392479309
 30
0.0
 11
317.9046399144318
 21
247.5787392479309
 31
0.0
  0
LINE
  5
1391
330
18
100
AcDbEntity
  8
外形線
100
AcDbLine
 10
317.9046399144318
 20
248.5787392479309
 30
0.0
 11
318.4046399144317
 21
248.5787392479309
 31
0.0
  0
LINE
  5
1392
330
18
100
AcDbEntity
  8
外形線
100
AcDbLine
 10
317.2046399144318
 20
253.5787392479309
 30
0.0
 11
317.9046399144318
 21
253.5787392479309
 31
0.0
  0
LINE
  5
1393
330
18
100
AcDbEntity
  8
外形線
100
AcDbLine
 10
317.9046399144318
 20
252.5787392479309
 30
0.0
 11
318.4046399144317
 21
252.5787392479309
 31
0.0
  0
POINT
  5
13FC
330
18
100
AcDbEntity
  8
DEFPOINTS
  6
ByBlock
 62
     0
100
AcDbPoint
 10
313.9287578629722
 20
206.8270935610295
 30
0.0
  0
POINT
  5
13FD
330
18
100
AcDbEntity
  8
DEFPOINTS
  6
ByBlock
 62
     0
100
AcDbPoint
 10
313.4046399144317
 20
207.6787392479309
 30
0.0
  0
LINE
  5
145D
330
18
100
AcDbEntity
  8
0
  6
ByBlock
 62
     2
100
AcDbLine
 10
401.6487354295536
 20
316.1274628729804
 30
0.0
 11
401.6487354295536
 21
337.4570726489703
 31
0.0
  0
LINE
  5
145E
330
18
100
AcDbEntity
  8
0
  6
ByBlock
 62
     2
100
AcDbLine
 10
397.4987354295537
 20
336.2070726489703
 30
0.0
 11
394.9987354295537
 21
336.2070726489703
 31
0.0
  0
LINE
  5
145F
330
18
100
AcDbEntity
  8
0
  6
ByBlock
 62
     2
100
AcDbLine
 10
404.1487354295536
 20
336.2070726489703
 30
0.0
 11
411.8120938762262
 21
336.2070726489703
 31
0.0
  0
MTEXT
  5
1460
330
18
100
AcDbEntity
  8
0
  6
ByBlock
 62
     6
100
AcDbMText
 10
407.9661004199795
 20
338.0455376898352
 30
0.0
 40
2.5
 41
0.0
 71
     5
 72
     1
  1
\A1;1.65
  7
STYLE3
 73
     1
 44
1.0
  0
LINE
  5
1461
330
18
100
AcDbEntity
  8
0
  6
ByBlock
 62
     2
100
AcDbLine
 10
399.9987354295537
 20
336.2070726489703
 30
0.0
 11
401.6487354295536
 21
336.2070726489703
 31
0.0
  0
LINE
  5
1462
330
18
100
AcDbEntity
  8
0
  6
ByBlock
 62
     2
100
AcDbLine
 10
399.9987354295537
 20
336.2070726489703
 30
0.0
 11
401.6487354295536
 21
336.2070726489703
 31
0.0
  0
INSERT
  5
1463
330
18
100
AcDbEntity
  8
0
  6
ByBlock
 62
     2
100
AcDbBlockReference
  2
_OPEN
 10
399.9987354295537
 20
336.2070726489703
 30
0.0
 41
2.5
 42
2.5
 43
2.5
  0
INSERT
  5
1464
330
18
100
AcDbEntity
  8
0
  6
ByBlock
 62
     2
100
AcDbBlockReference
  2
_OPEN
 10
401.6487354295536
 20
336.2070726489703
 30
0.0
 41
2.5
 42
2.5
 43
2.5
 50
180.0
  0
POINT
  5
1465
330
18
100
AcDbEntity
  8
DEFPOINTS
  6
ByBlock
 62
     0
100
AcDbPoint
 10
399.9987354295537
 20
312.2287392479309
 30
0.0
  0
POINT
  5
1466
330
18
100
AcDbEntity
  8
DEFPOINTS
  6
ByBlock
 62
     0
100
AcDbPoint
 10
401.6487354295536
 20
316.1274628729804
 30
0.0
  0
POINT
  5
1467
330
18
100
AcDbEntity
  8
DEFPOINTS
  6
ByBlock
 62
     0
100
AcDbPoint
 10
401.6487354295536
 20
336.2070726489703
 30
0.0
  0
POINT
  5
1494
330
18
100
AcDbEntity
  8
DEFPOINTS
  6
ByBlock
 62
     0
100
AcDbPoint
 10
393.5987354295536
 20
331.7832411058619
 30
0.0
  0
POINT
  5
1495
330
18
100
AcDbEntity
  8
DEFPOINTS
  6
ByBlock
 62
     0
100
AcDbPoint
 10
386.165620668294
 20
250.5787392479309
 30
0.0
  0
POINT
  5
1496
330
18
100
AcDbEntity
  8
DEFPOINTS
  6
ByBlock
 62
     0
100
AcDbPoint
 10
400.9005364406341
 20
250.5787392479309
 30
0.0
  0
POINT
  5
14D3
330
18
100
AcDbEntity
  8
DEFPOINTS
  6
ByBlock
 62
     0
100
AcDbPoint
 10
393.5987354295537
 20
250.5787392479309
 30
0.0
  0
POINT
  5
14D4
330
18
100
AcDbEntity
  8
DEFPOINTS
  6
ByBlock
 62
     0
100
AcDbPoint
 10
393.5987354295537
 20
250.5787392479309
 30
0.0
  0
CIRCLE
  5
14E2
102
{ACAD_REACTORS
330
14E5
102
}
330
18
100
AcDbEntity
  8
外形線
100
AcDbCircle
 10
387.3371865066677
 20
260.2625567758053
 30
0.0
 40
0.222687898198611
  0
HATCH
  5
14E5
330
18
100
AcDbEntity
  8
外形線
100
AcDbHatch
 10
0.0
 20
0.0
 30
0.0
210
0.0
220
0.0
230
1.0
  2
SOLID
 70
     1
 71
     1
 91
        1
 92
        7
 72
     1
 73
     1
 93
        2
 10
387.5598744048663
 20
260.2625567758053
 42
1.0
 10
387.1144986084691
 20
260.2625567758053
 42
1.0
 97
        1
330
14E2
 75
     0
 76
     1
 47
0.0124670341605454
 98
        1
 10
387.3951638080141
 20
260.2393848357141
450
        0
451
        0
460
0.0
461
0.0
452
        0
462
0.0
453
        0
470

  0
TEXT
  5
14EC
330
18
100
AcDbEntity
  8
寸法線
 62
     6
100
AcDbText
 10
408.9206234672634
 20
294.1461881315137
 30
0.0
 40
2.5
  1
A
  7
STYLE3
100
AcDbText
  0
CIRCLE
  5
14EE
102
{ACAD_REACTORS
330
14F1
102
}
330
18
100
AcDbEntity
  8
外形線
100
AcDbCircle
 10
400.7056187612359
 20
281.528523558666
 30
0.0
 40
0.222687898198611
  0
HATCH
  5
14F1
330
18
100
AcDbEntity
  8
外形線
100
AcDbHatch
 10
0.0
 20
0.0
 30
0.0
210
0.0
220
0.0
230
1.0
  2
SOLID
 70
     1
 71
     1
 91
        1
 92
        7
 72
     1
 73
     1
 93
        2
 10
400.9283066594345
 20
281.528523558666
 42
1.0
 10
400.4829308630373
 20
281.528523558666
 42
1.0
 97
        1
330
14EE
 75
     0
 76
     1
 47
0.0200805185115556
 98
        1
 10
400.8301348646516
 20
281.4117371306878
450
        0
451
        0
460
0.0
461
0.0
452
        0
462
0.0
453
        0
470

  0
CIRCLE
  5
14F8
102
{ACAD_REACTORS
330
151F
102
}
330
18
100
AcDbEntity
  8
外形線
100
AcDbCircle
 10
389.4784531607314
 20
311.1726990004482
 30
0.0
 40
0.222687898198611
  0
HATCH
  5
151F
330
18
100
AcDbEntity
  8
外形線
100
AcDbHatch
 10
0.0
 20
0.0
 30
0.0
210
0.0
220
0.0
230
1.0
  2
SOLID
 70
     1
 71
     1
 91
        1
 92
        7
 72
     1
 73
     1
 93
        2
 10
389.70114105893
 20
311.1726990004482
 42
1.0
 10
389.2557652625328
 20
311.1726990004482
 42
1.0
 97
        1
330
14F8
 75
     0
 76
     1
 47
0.0431140550968677
 98
        1
 10
389.5957032753166
 20
311.0633638296847
450
        0
451
        0
460
0.0
461
0.0
452
        0
462
0.0
453
        0
470

  0
LINE
  5
157C
330
18
100
AcDbEntity
  8
外形線
100
AcDbLine
 10
463.1849849916221
 20
272.3722410738392
 30
0.0
 11
476.065378311534
 21
272.3722410738393
 31
0.0
  0
LINE
  5
157F
330
18
100
AcDbEntity
  8
外形線
100
AcDbLine
 10
452.3902408799478
 20
275.6722410738392
 30
0.0
 11
465.0902408799478
 21
275.6722410738392
 31
0.0
  0
LINE
  5
1584
330
18
100
AcDbEntity
  8
外形線
100
AcDbLine
 10
463.1849849916221
 20
272.3722410738392
 30
0.0
 11
465.0902408799478
 21
275.6722410738392
 31
0.0
  0
LINE
  5
1585
330
18
100
AcDbEntity
  8
外形線
100
AcDbLine
 10
454.2954967682735
 20
272.3722410738392
 30
0.0
 11
452.3902408799478
 21
275.6722410738392
 31
0.0
  0
LINE
  5
1586
330
18
100
AcDbEntity
  8
外形線
100
AcDbLine
 10
454.2954967682735
 20
272.3722410738392
 30
0.0
 11
441.4151034483617
 21
272.3722410738392
 31
0.0
  0
CIRCLE
  5
1588
330
18
100
AcDbEntity
  8
外形線
100
AcDbCircle
 10
451.7002408799477
 20
273.8722410738392
 30
0.0
 40
1.5
  0
CIRCLE
  5
1589
330
18
100
AcDbEntity
  8
外形線
100
AcDbCircle
 10
465.7802408799478
 20
273.8722410738392
 30
0.0
 40
1.5
  0
LINE
  5
158C
330
18
100
AcDbEntity
  8
中心線
100
AcDbLine
 10
448.7634353753986
 20
273.8722410738392
 30
0.0
 11
454.8404995559105
 21
273.8722410738392
 31
0.0
  0
LINE
  5
158D
330
18
100
AcDbEntity
  8
中心線
100
AcDbLine
 10
465.7802408799478
 20
277.2886631879806
 30
0.0
 11
465.7802408799478
 21
270.1480135041489
 31
0.0
  0
LINE
  5
158E
330
18
100
AcDbEntity
  8
中心線
100
AcDbLine
 10
451.7002408799477
 20
277.2886631879806
 30
0.0
 11
451.7002408799477
 21
270.1480135041489
 31
0.0
  0
LINE
  5
1591
330
18
100
AcDbEntity
  8
中心線
100
AcDbLine
 10
462.8717625978413
 20
273.8722410738392
 30
0.0
 11
469.1049825401262
 21
273.8722410738392
 31
0.0
  0
LINE
  5
15A3
330
18
100
AcDbEntity
  8
寸法線
100
AcDbLine
 10
441.4151034483617
 20
270.2034849395977
 30
0.0
 11
443.5838595826031
 21
272.3722410738392
 31
0.0
  0
LINE
  5
15A4
330
18
100
AcDbEntity
  8
寸法線
100
AcDbLine
 10
441.4151034483617
 20
265.7133568790631
 30
0.0
 11
448.0739876431377
 21
272.3722410738392
 31
0.0
  0
LINE
  5
15A5
330
18
100
AcDbEntity
  8
寸法線
100
AcDbLine
 10
444.4697887814758
 20
264.2779141516427
 30
0.0
 11
452.5641157036724
 21
272.3722410738393
 31
0.0
  0
LINE
  5
15A6
330
18
100
AcDbEntity
  8
寸法線
100
AcDbLine
 10
453.6617673149982
 20
273.4698926851651
 30
0.0
 11
455.8641157036723
 21
275.6722410738392
 31
0.0
  0
LINE
  5
15A7
330
18
100
AcDbEntity
  8
寸法線
100
AcDbLine
 10
448.9599168420103
 20
264.2779141516426
 30
0.0
 11
460.3542437642071
 21
275.6722410738393
 31
0.0
  0
LINE
  5
15A8
330
18
100
AcDbEntity
  8
寸法線
100
AcDbLine
 10
453.450044902545
 20
264.2779141516426
 30
0.0
 11
464.8443718247416
 21
275.6722410738393
 31
0.0
  0
LINE
  5
15A9
330
18
100
AcDbEntity
  8
寸法線
100
AcDbLine
 10
457.9401729630794
 20
264.2779141516426
 30
0.0
 11
466.0344998852762
 21
272.3722410738393
 31
0.0
  0
LINE
  5
15AA
330
18
100
AcDbEntity
  8
寸法線
100
AcDbLine
 10
462.4303010236141
 20
264.2779141516426
 30
0.0
 11
470.5246279458107
 21
272.3722410738393
 31
0.0
  0
LINE
  5
15AB
330
18
100
AcDbEntity
  8
寸法線
100
AcDbLine
 10
466.9204290841486
 20
264.2779141516426
 30
0.0
 11
475.0147560063452
 21
272.3722410738393
 31
0.0
  0
LINE
  5
15AC
330
18
100
AcDbEntity
  8
寸法線
100
AcDbLine
 10
471.4105571446833
 20
264.2779141516427
 30
0.0
 11
476.065378311534
 21
268.9327353184934
 31
0.0
  0
LINE
  5
1634
330
18
100
AcDbEntity
  8
0
  6
ByBlock
 62
     2
100
AcDbLine
 10
465.0902408799478
 20
275.6722410738392
 30
0.0
 11
476.71013458895
 21
295.7984873563819
 31
0.0
  0
LINE
  5
1635
330
18
100
AcDbEntity
  8
0
  6
ByBlock
 62
     2
100
AcDbLine
 10
452.3902408799478
 20
275.6722410738392
 30
0.0
 11
440.7703471709454
 21
295.7984873563816
 31
0.0
  0
ARC
  5
1636
330
18
100
AcDbEntity
  8
0
  6
ByBlock
 62
     2
100
AcDbCircle
 10
458.7402408799479
 20
264.6737184457764
 30
0.0
 40
34.6897874180055
100
AcDbArc
 50
64.13004734756665
 51
115.869952652434
  0
INSERT
  5
1637
330
18
100
AcDbEntity
  8
0
  6
ByBlock
 62
     2
100
AcDbBlockReference
  2
_OPEN
 10
476.08513458895
 20
294.7159556016513
 30
0.0
 41
2.5
 42
2.5
 43
2.5
 50
332.0650236737839
  0
INSERT
  5
1638
330
18
100
AcDbEntity
  8
0
  6
ByBlock
 62
     2
100
AcDbBlockReference
  2
_OPEN
 10
441.3953471709454
 20
294.7159556016511
 30
0.0
 41
2.5
 42
2.5
 43
2.5
 50
207.9349763262168
  0
MTEXT
  5
1639
330
18
100
AcDbEntity
  8
0
  6
ByBlock
 62
     6
100
AcDbMText
 10
460.234701978171
 20
301.2385058637819
 30
0.0
 40
2.5
 41
0.0
 71
     5
 72
     1
  1
\A1;60°
  7
STYLE3
 73
     1
 44
1.0
  0
POINT
  5
163A
330
18
100
AcDbEntity
  8
DEFPOINTS
  6
ByBlock
 62
     0
100
AcDbPoint
 10
464.7640592487373
 20
298.8364900453736
 30
0.0
  0
POINT
  5
163B
330
18
100
AcDbEntity
  8
DEFPOINTS
  6
ByBlock
 62
     0
100
AcDbPoint
 10
454.2954967682735
 20
272.3722410738392
 30
0.0
  0
POINT
  5
163C
330
18
100
AcDbEntity
  8
DEFPOINTS
  6
ByBlock
 62
     0
100
AcDbPoint
 10
463.1849849916221
 20
272.3722410738392
 30
0.0
  0
POINT
  5
163D
330
18
100
AcDbEntity
  8
DEFPOINTS
  6
ByBlock
 62
     0
100
AcDbPoint
 10
465.0902408799478
 20
275.6722410738392
 30
0.0
  0
POINT
  5
163E
330
18
100
AcDbEntity
  8
DEFPOINTS
  6
ByBlock
 62
     0
100
AcDbPoint
 10
452.3902408799478
 20
275.6722410738392
 30
0.0
  0
LINE
  5
164E
330
18
100
AcDbEntity
  8
0
  6
ByBlock
 62
     2
100
AcDbLine
 10
449.4678459296604
 20
280.7339776075199
 30
0.0
 11
440.7703471709455
 21
295.7984873563817
 31
0.0
  0
LINE
  5
164F
330
18
100
AcDbEntity
  8
0
  6
ByBlock
 62
     2
100
AcDbLine
 10
450.4012027742709
 20
273.1222410738392
 30
0.0
 11
438.1743862018626
 21
294.299708592076
 31
0.0
  0
LINE
  5
1651
330
18
100
AcDbEntity
  8
0
  6
ByBlock
 62
     2
100
AcDbLine
 10
436.6343226924015
 20
291.9671768373454
 30
0.0
 11
434.4692591829404
 21
290.7171768373455
 31
0.0
  0
LINE
  5
1652
330
18
100
AcDbEntity
  8
0
  6
ByBlock
 62
     2
100
AcDbLine
 10
441.3953471709454
 20
294.7159556016512
 30
0.0
 11
438.7993862018626
 21
293.2171768373454
 31
0.0
  0
INSERT
  5
1654
330
18
100
AcDbEntity
  8
0
  6
ByBlock
 62
     2
100
AcDbBlockReference
  2
_OPEN
 10
438.7993862018626
 20
293.2171768373454
 30
0.0
 41
2.5
 42
2.5
 43
2.5
 50
29.99999999999951
  0
MTEXT
  5
1655
330
18
100
AcDbEntity
  8
0
  6
ByBlock
 62
     6
100
AcDbMText
 10
436.8511147777712
 20
295.5903638515941
 30
0.0
 40
2.5
 41
0.0
 71
     5
 72
     1
  1
φ1.5
  7
STYLE3
 11
0.8660254037844429
 21
0.4999999999999926
 31
0.0
 73
     1
 44
1.0
  0
POINT
  5
1656
330
18
100
AcDbEntity
  8
DEFPOINTS
  6
ByBlock
 62
     0
100
AcDbPoint
 10
449.4678459296604
 20
280.7339776075199
 30
0.0
 50
60.00000000000049
  0
POINT
  5
1657
330
18
100
AcDbEntity
  8
DEFPOINTS
  6
ByBlock
 62
     0
100
AcDbPoint
 10
450.4012027742709
 20
273.1222410738392
 30
0.0
 50
60.00000000000049
  0
POINT
  5
1658
330
18
100
AcDbEntity
  8
DEFPOINTS
  6
ByBlock
 62
     0
100
AcDbPoint
 10
438.7993862018626
 20
293.2171768373454
 30
0.0
 50
60.00000000000049
  0
LINE
  5
1664
330
18
100
AcDbEntity
  8
0
  6
ByBlock
 62
     2
100
AcDbLine
 10
465.0902408799478
 20
275.6722410738392
 30
0.0
 11
482.8463906336739
 21
275.6722410738392
 31
0.0
  0
LINE
  5
1665
330
18
100
AcDbEntity
  8
0
  6
ByBlock
 62
     2
100
AcDbLine
 10
476.065378311534
 20
272.3722410738393
 30
0.0
 11
482.8463906336739
 21
272.3722410738393
 31
0.0
  0
LINE
  5
1666
330
18
100
AcDbEntity
  8
0
  6
ByBlock
 62
     2
100
AcDbLine
 10
481.5963906336738
 20
278.1722410738392
 30
0.0
 11
481.5963906336738
 21
280.6722410738392
 31
0.0
  0
LINE
  5
1667
330
18
100
AcDbEntity
  8
0
  6
ByBlock
 62
     2
100
AcDbLine
 10
481.5963906336738
 20
269.8722410738392
 30
0.0
 11
481.5963906336738
 21
261.4993090318435
 31
0.0
  0
LINE
  5
1668
330
18
100
AcDbEntity
  8
0
  6
ByBlock
 62
     2
100
AcDbLine
 10
481.5963906336738
 20
275.6722410738392
 30
0.0
 11
481.5963906336738
 21
272.3722410738393
 31
0.0
  0
INSERT
  5
1669
330
18
100
AcDbEntity
  8
0
  6
ByBlock
 62
     2
100
AcDbBlockReference
  2
_OPEN
 10
481.5963906336738
 20
275.6722410738392
 30
0.0
 41
2.5
 42
2.5
 43
2.5
 50
270.0
  0
INSERT
  5
166A
330
18
100
AcDbEntity
  8
0
  6
ByBlock
 62
     2
100
AcDbBlockReference
  2
_OPEN
 10
481.5963906336738
 20
272.3722410738393
 30
0.0
 41
2.5
 42
2.5
 43
2.5
 50
90.0
  0
MTEXT
  5
166B
330
18
100
AcDbEntity
  8
0
  6
ByBlock
 62
     6
100
AcDbMText
 10
479.7213906336739
 20
265.3594157550606
 30
0.0
 40
2.5
 41
0.0
 71
     5
 72
     1
  1
\A1;1.65
  7
STYLE3
 11
0.0000000000000001
 21
1.0
 31
0.0
 73
     1
 44
1.0
  0
POINT
  5
166C
330
18
100
AcDbEntity
  8
DEFPOINTS
  6
ByBlock
 62
     0
100
AcDbPoint
 10
465.0902408799478
 20
275.6722410738392
 30
0.0
  0
POINT
  5
166D
330
18
100
AcDbEntity
  8
DEFPOINTS
  6
ByBlock
 62
     0
100
AcDbPoint
 10
476.065378311534
 20
272.3722410738393
 30
0.0
  0
POINT
  5
166E
330
18
100
AcDbEntity
  8
DEFPOINTS
  6
ByBlock
 62
     0
100
AcDbPoint
 10
481.5963906336738
 20
272.3722410738393
 30
0.0
  0
TEXT
  5
166F
330
18
100
AcDbEntity
  8
文字
100
AcDbText
 10
436.8640813912312
 20
250.8064604131765
 30
0.0
 40
4.0
  1
A.B.C 断面図 
  7
STYLE3
100
AcDbText
  0
TEXT
  5
1670
330
18
100
AcDbEntity
  8
文字
100
AcDbText
 10
471.0068282941608
 20
250.9186847890554
 30
0.0
 40
3.0
  1
S=2／1
  7
STYLE3
100
AcDbText
  0
LINE
  5
1671
330
18
100
AcDbEntity
  8
外形線
100
AcDbLine
 10
436.5271460540026
 20
250.1331141579028
 30
0.0
 11
486.3935266257704
 21
250.1331141579028
 31
0.0
  0
LINE
  5
1686
330
18
100
AcDbEntity
  8
0
  6
ByBlock
 62
     2
100
AcDbLine
 10
310.4046399144317
 20
327.3748916706375
 30
0.0
 11
310.4046399144317
 21
344.4291597053204
 31
0.0
  0
LINE
  5
1687
330
18
100
AcDbEntity
  8
0
  6
ByBlock
 62
     2
100
AcDbLine
 10
316.4046399144317
 20
327.3748916706375
 30
0.0
 11
316.4046399144317
 21
344.4291597053204
 31
0.0
  0
LINE
  5
1688
330
18
100
AcDbEntity
  8
0
  6
ByBlock
 62
     2
100
AcDbLine
 10
307.9046399144317
 20
343.1791597053204
 30
0.0
 11
305.4046399144318
 21
343.1791597053204
 31
0.0
  0
LINE
  5
1689
330
18
100
AcDbEntity
  8
0
  6
ByBlock
 62
     2
100
AcDbLine
 10
318.9046399144317
 20
343.1791597053204
 30
0.0
 11
321.4046399144318
 21
343.1791597053204
 31
0.0
  0
LINE
  5
168A
330
18
100
AcDbEntity
  8
0
  6
ByBlock
 62
     2
100
AcDbLine
 10
310.4046399144317
 20
343.1791597053204
 30
0.0
 11
316.4046399144317
 21
343.1791597053204
 31
0.0
  0
INSERT
  5
168B
330
18
100
AcDbEntity
  8
0
  6
ByBlock
 62
     2
100
AcDbBlockReference
  2
_OPEN
 10
310.4046399144317
 20
343.1791597053204
 30
0.0
 41
2.5
 42
2.5
 43
2.5
  0
INSERT
  5
168C
330
18
100
AcDbEntity
  8
0
  6
ByBlock
 62
     2
100
AcDbBlockReference
  2
_OPEN
 10
316.4046399144317
 20
343.1791597053204
 30
0.0
 41
2.5
 42
2.5
 43
2.5
 50
180.0
  0
MTEXT
  5
168D
330
18
100
AcDbEntity
  8
0
  6
ByBlock
 62
     6
100
AcDbMText
 10
312.7361364792843
 20
346.4182884320887
 30
0.0
 40
2.5
 41
0.0
 71
     5
 72
     1
  1
φ6.0
  7
STYLE3
 73
     1
 44
1.0
  0
POINT
  5
168E
330
18
100
AcDbEntity
  8
DEFPOINTS
  6
ByBlock
 62
     0
100
AcDbPoint
 10
310.4046399144317
 20
327.3748916706375
 30
0.0
  0
POINT
  5
168F
330
18
100
AcDbEntity
  8
DEFPOINTS
  6
ByBlock
 62
     0
100
AcDbPoint
 10
316.4046399144317
 20
327.3748916706375
 30
0.0
  0
POINT
  5
1690
330
18
100
AcDbEntity
  8
DEFPOINTS
  6
ByBlock
 62
     0
100
AcDbPoint
 10
316.4046399144317
 20
343.1791597053204
 30
0.0
  0
TEXT
  5
1691
330
18
100
AcDbEntity
  8
文字
100
AcDbText
 10
319.2267085403159
 20
347.5828737246889
 30
0.0
 40
1.5
  1
0
  7
STYLE3
100
AcDbText
  0
TEXT
  5
1692
330
18
100
AcDbEntity
  8
文字
100
AcDbText
 10
317.3350888928603
 20
345.67239564437
 30
0.0
 40
1.5
  1
-0.03
  7
STYLE3
100
AcDbText
  0
LINE
  5
16AB
330
18
100
AcDbEntity
  8
0
  6
ByBlock
 62
     2
100
AcDbLine
 10
309.6046399144317
 20
262.9230361604335
 30
0.0
 11
309.6046399144317
 21
265.4657820364828
 31
0.0
  0
LINE
  5
16AC
330
18
100
AcDbEntity
  8
0
  6
ByBlock
 62
     2
100
AcDbLine
 10
317.2046399144318
 20
262.6319088709826
 30
0.0
 11
317.2046399144318
 21
265.4657820364828
 31
0.0
  0
LINE
  5
16AD
330
18
100
AcDbEntity
  8
0
  6
ByBlock
 62
     2
100
AcDbLine
 10
309.6046399144317
 20
264.2157820364829
 30
0.0
 11
317.2046399144318
 21
264.2157820364829
 31
0.0
  0
LINE
  5
16AE
330
18
100
AcDbEntity
  8
0
  6
ByBlock
 62
     2
100
AcDbLine
 10
317.2046399144318
 20
264.2157820364829
 30
0.0
 11
326.1927351525271
 21
264.2157820364829
 31
0.0
  0
MTEXT
  5
16B1
330
18
100
AcDbEntity
  8
0
  6
ByBlock
 62
     6
100
AcDbMText
 10
322.9486875334794
 20
266.0907820364828
 30
0.0
 40
2.5
 41
0.0
 71
     5
 72
     1
  1
\A1;7.6
  7
STYLE3
 73
     1
 44
1.0
  0
POINT
  5
16B2
330
18
100
AcDbEntity
  8
DEFPOINTS
  6
ByBlock
 62
     0
100
AcDbPoint
 10
309.6046399144317
 20
262.9230361604335
 30
0.0
  0
POINT
  5
16B3
330
18
100
AcDbEntity
  8
DEFPOINTS
  6
ByBlock
 62
     0
100
AcDbPoint
 10
317.2046399144318
 20
262.6319088709826
 30
0.0
  0
POINT
  5
16B4
330
18
100
AcDbEntity
  8
DEFPOINTS
  6
ByBlock
 62
     0
100
AcDbPoint
 10
317.2046399144318
 20
264.2157820364829
 30
0.0
  0
INSERT
  5
16B5
330
18
100
AcDbEntity
  8
0
  6
ByBlock
 62
     2
100
AcDbBlockReference
  2
_OPEN
 10
317.2046399144318
 20
264.2157820364829
 30
0.0
 41
-2.5
 42
2.5
 43
2.5
  0
INSERT
  5
16B6
330
18
100
AcDbEntity
  8
0
  6
ByBlock
 62
     2
100
AcDbBlockReference
  2
_OPEN
 10
309.6046399144317
 20
264.2157820364829
 30
0.0
 41
-2.5
 42
2.5
 43
2.5
 50
180.0
  0
LINE
  5
16B7
330
18
100
AcDbEntity
  8
寸法線
100
AcDbLine
 10
307.1046399144317
 20
264.2157820364829
 30
0.0
 11
304.8075972756188
 21
264.2157820364829
 31
0.0
  0
LINE
  5
16C0
330
18
100
AcDbEntity
  8
目盛
100
AcDbLine
 10
313.4046399144318
 20
309.5787392479309
 30
0.0
 11
313.4046399144318
 21
307.0787392479309
 31
0.0
  0
LINE
  5
192C
330
18
100
AcDbEntity
  8
針
100
AcDbLine
 10
305.0014581422725
 20
306.0256356003946
 30
0.0
 11
305.114720521485
 21
306.1079255357157
 31
0.0
  0
POINT
  5
1A22
330
18
100
AcDbEntity
  8
DEFPOINTS
  6
ByBlock
 62
     0
100
AcDbPoint
 10
393.5987354295537
 20
250.5787392479308
 30
0.0
  0
POINT
  5
1A23
330
18
100
AcDbEntity
  8
DEFPOINTS
  6
ByBlock
 62
     0
100
AcDbPoint
 10
393.5987354295537
 20
250.5787392479308
 30
0.0
  0
LINE
  5
1A6E
330
18
100
AcDbEntity
  8
目盛
100
AcDbLine
 10
314.3464977073715
 20
309.549140174355
 30
0.0
 11
314.2523119280775
 21
308.0521000817126
 31
0.0
  0
LINE
  5
1A6F
330
18
100
AcDbEntity
  8
目盛
100
AcDbLine
 10
315.2846384178963
 20
309.4604597676481
 30
0.0
 11
315.0966385675499
 21
307.9722877156764
 31
0.0
  0
LINE
  5
1A70
330
18
100
AcDbEntity
  8
目盛
100
AcDbLine
 10
316.2153596332176
 20
309.3130480088612
 30
0.0
 11
315.934287661339
 21
307.8396171327682
 31
0.0
  0
LINE
  5
1A71
330
18
100
AcDbEntity
  8
目盛
100
AcDbLine
 10
317.1349882219046
 20
309.1074866648604
 30
0.0
 11
316.7619533911572
 21
307.6546119231675
 31
0.0
  0
LINE
  5
1A72
330
18
100
AcDbEntity
  8
目盛
100
AcDbLine
 10
318.039894830056
 20
308.8445869923582
 30
0.0
 11
317.2673523441186
 21
306.4669457016203
 31
0.0
  0
LINE
  5
1A73
330
18
100
AcDbEntity
  8
目盛
100
AcDbLine
 10
318.9265082047019
 20
308.5253865362547
 30
0.0
 11
318.3743213756749
 21
307.1307218074224
 31
0.0
  0
LINE
  5
1A74
330
18
100
AcDbEntity
  8
目盛
100
AcDbLine
 10
319.7913292879078
 20
308.1511450349212
 30
0.0
 11
319.1526603505602
 21
306.7939044562222
 31
0.0
  0
LINE
  5
1A75
330
18
100
AcDbEntity
  8
目盛
100
AcDbLine
 10
320.6309450259575
 20
307.7233394485889
 30
0.0
 11
319.9083145148049
 21
306.408879428523
 31
0.0
  0
LINE
  5
1A76
330
18
100
AcDbEntity
  8
目盛
100
AcDbLine
 10
321.4420418391167
 20
307.2436581304612
 30
0.0
 11
320.6383016466483
 21
305.9771662422081
 31
0.0
  0
LINE
  5
1A78
330
18
100
AcDbEntity
  8
目盛
100
AcDbLine
 10
312.4627821214921
 20
309.549140174355
 30
0.0
 11
312.5569679007861
 21
308.0521000817125
 31
0.0
  0
LINE
  5
1A79
330
18
100
AcDbEntity
  8
目盛
100
AcDbLine
 10
310.5939201956459
 20
309.3130480088612
 30
0.0
 11
310.8749921675244
 21
307.8396171327682
 31
0.0
  0
LINE
  5
1A7A
330
18
100
AcDbEntity
  8
目盛
100
AcDbLine
 10
309.6742916069589
 20
309.1074866648603
 30
0.0
 11
310.0473264377062
 21
307.6546119231674
 31
0.0
  0
LINE
  5
1A7B
330
18
100
AcDbEntity
  8
目盛
100
AcDbLine
 10
307.8827716241616
 20
308.5253865362547
 30
0.0
 11
308.4349584531886
 21
307.1307218074224
 31
0.0
  0
LINE
  5
1A7C
330
18
100
AcDbEntity
  8
目盛
100
AcDbLine
 10
308.7693849988076
 20
308.8445869923582
 30
0.0
 11
309.541927484745
 21
306.4669457016203
 31
0.0
  0
LINE
  5
1A7D
330
18
100
AcDbEntity
  8
目盛
100
AcDbLine
 10
304.5878611300446
 20
306.7139941635551
 30
0.0
 11
306.0573242607759
 21
304.6914516776177
 31
0.0
  0
LINE
  5
1A7E
330
18
100
AcDbEntity
  8
目盛
100
AcDbLine
 10
311.5246414109672
 20
309.4604597676481
 30
0.0
 11
311.7126412613136
 21
307.9722877156763
 31
0.0
  0
LINE
  5
1A7F
330
18
100
AcDbEntity
  8
目盛
100
AcDbLine
 10
307.0179505409557
 20
308.1511450349212
 30
0.0
 11
307.6566194783033
 21
306.7939044562221
 31
0.0
  0
LINE
  5
1A80
330
18
100
AcDbEntity
  8
目盛
100
AcDbLine
 10
306.1783348029061
 20
307.7233394485888
 30
0.0
 11
306.9009653140587
 21
306.4088794285231
 31
0.0
  0
LINE
  5
1A81
330
18
100
AcDbEntity
  8
目盛
100
AcDbLine
 10
305.3672379897469
 20
307.2436581304611
 30
0.0
 11
306.1709781822153
 21
305.9771662422081
 31
0.0
  0
LINE
  5
1A82
330
18
100
AcDbEntity
  8
目盛
100
AcDbLine
 10
303.8432800682013
 20
306.1364378895679
 30
0.0
 11
304.7994160528245
 21
304.9806680254041
 31
0.0
  0
LINE
  5
1A83
330
18
100
AcDbEntity
  8
目盛
100
AcDbLine
 10
302.4701105031106
 20
304.8469458368613
 30
0.0
 11
303.5635634442426
 21
303.8201251779682
 31
0.0
  0
LINE
  5
1A84
330
18
100
AcDbEntity
  8
目盛
100
AcDbLine
 10
301.8469412727949
 20
304.1400990941613
 30
0.0
 11
303.0027111369585
 21
303.1839631095382
 31
0.0
  0
LINE
  5
1A85
330
18
100
AcDbEntity
  8
目盛
100
AcDbLine
 10
300.7397210319015
 20
302.6161411726159
 30
0.0
 11
302.0062129201545
 21
301.8124009801474
 31
0.0
  0
LINE
  5
1A86
330
18
100
AcDbEntity
  8
目盛
100
AcDbLine
 10
301.2693849988075
 20
303.395518032318
 30
0.0
 11
303.2919274847449
 21
301.9260549015869
 31
0.0
  0
LINE
  5
1A87
330
18
100
AcDbEntity
  8
目盛
100
AcDbLine
 10
299.1387921700044
 20
299.2139941635551
 30
0.0
 11
301.5164334607423
 21
298.4414516776178
 31
0.0
  0
LINE
  5
1A88
330
18
100
AcDbEntity
  8
目盛
100
AcDbLine
 10
303.1364333255014
 20
305.5132686592521
 30
0.0
 11
304.1632539843945
 21
304.41981571812
 31
0.0
  0
LINE
  5
1A89
330
18
100
AcDbEntity
  8
目盛
100
AcDbLine
 10
300.2600397137738
 20
301.8050443594566
 30
0.0
 11
301.5744997338396
 21
301.0824138483041
 31
0.0
  0
LINE
  5
1A8A
330
18
100
AcDbEntity
  8
目盛
100
AcDbLine
 10
299.8322341274415
 20
300.965428621407
 30
0.0
 11
301.1894747061405
 21
300.3267596840595
 31
0.0
  0
LINE
  5
1A8B
330
18
100
AcDbEntity
  8
目盛
100
AcDbLine
 10
299.457992626108
 20
300.1006075382012
 30
0.0
 11
300.8526573549403
 21
299.5484207091741
 31
0.0
  0
LINE
  5
1A8C
330
18
100
AcDbEntity
  8
目盛
100
AcDbLine
 10
298.8758924975023
 20
298.3090875554038
 30
0.0
 11
300.3287672391954
 21
297.9360527246565
 31
0.0
  0
LINE
  5
1A8D
330
18
100
AcDbEntity
  8
目盛
100
AcDbLine
 10
298.5229193947146
 20
296.4587377513955
 30
0.0
 11
300.0110914466863
 21
296.270737901049
 31
0.0
  0
LINE
  5
1A8E
330
18
100
AcDbEntity
  8
目盛
100
AcDbLine
 10
298.4342389880077
 20
295.5205970408706
 30
0.0
 11
299.9312790806501
 21
295.4264112615766
 31
0.0
  0
LINE
  5
1A8F
330
18
100
AcDbEntity
  8
目盛
100
AcDbLine
 10
298.4342389880077
 20
293.6368814549912
 30
0.0
 11
299.9312790806501
 21
293.7310672342851
 31
0.0
  0
LINE
  5
1A90
330
18
100
AcDbEntity
  8
目盛
100
AcDbLine
 10
298.4046399144319
 20
294.5787392479309
 30
0.0
 11
300.9046399144319
 21
294.5787392479309
 31
0.0
  0
LINE
  5
1A91
330
18
100
AcDbEntity
  8
目盛
100
AcDbLine
 10
299.1387921700045
 20
289.9434843323067
 30
0.0
 11
301.5164334607424
 21
290.7160268182441
 31
0.0
  0
LINE
  5
1A92
330
18
100
AcDbEntity
  8
目盛
100
AcDbLine
 10
298.6703311535015
 20
297.3894589667168
 30
0.0
 11
300.1437620295945
 21
297.1083869948381
 31
0.0
  0
LINE
  5
1A93
330
18
100
AcDbEntity
  8
目盛
100
AcDbLine
 10
298.5229193947147
 20
292.6987407444664
 30
0.0
 11
300.0110914466864
 21
292.8867405948129
 31
0.0
  0
LINE
  5
1A94
330
18
100
AcDbEntity
  8
目盛
100
AcDbLine
 10
298.6703311535015
 20
291.768019529145
 30
0.0
 11
300.1437620295945
 21
292.0490915010237
 31
0.0
  0
LINE
  5
1A95
330
18
100
AcDbEntity
  8
目盛
100
AcDbLine
 10
298.8758924975023
 20
290.8483909404582
 30
0.0
 11
300.3287672391953
 21
291.2214257712053
 31
0.0
  0
LINE
  5
1A96
330
18
100
AcDbEntity
  8
目盛
100
AcDbLine
 10
299.457992626108
 20
289.0568709576607
 30
0.0
 11
300.8526573549404
 21
289.6090577866878
 31
0.0
  0
LINE
  5
1A97
330
18
100
AcDbEntity
  8
目盛
100
AcDbLine
 10
300.2600397137738
 20
287.3524341364051
 30
0.0
 11
301.5744997338396
 21
288.0750646475576
 31
0.0
  0
LINE
  5
1A98
330
18
100
AcDbEntity
  8
目盛
100
AcDbLine
 10
300.7397210319016
 20
286.5413373232459
 30
0.0
 11
302.0062129201546
 21
287.3450775157144
 31
0.0
  0
LINE
  5
1A99
330
18
100
AcDbEntity
  8
目盛
100
AcDbLine
 10
301.846941272795
 20
285.0173794017005
 30
0.0
 11
303.0027111369586
 21
285.9735153863235
 31
0.0
  0
LINE
  5
1A9A
330
18
100
AcDbEntity
  8
目盛
100
AcDbLine
 10
301.2693849988076
 20
285.7619604635438
 30
0.0
 11
303.2919274847448
 21
287.231423594275
 31
0.0
  0
LINE
  5
1A9B
330
18
100
AcDbEntity
  8
目盛
100
AcDbLine
 10
304.5878611300447
 20
282.4434843323066
 30
0.0
 11
306.0573242607759
 21
284.466026818244
 31
0.0
  0
LINE
  5
1A9C
330
18
100
AcDbEntity
  8
目盛
100
AcDbLine
 10
299.8322341274414
 20
288.1920498744548
 30
0.0
 11
301.1894747061406
 21
288.8307188118024
 31
0.0
  0
LINE
  5
1A9D
330
18
100
AcDbEntity
  8
目盛
100
AcDbLine
 10
302.4701105031106
 20
284.3105326590006
 30
0.0
 11
303.5635634442428
 21
285.3373533178936
 31
0.0
  0
LINE
  5
1A9E
330
18
100
AcDbEntity
  8
目盛
100
AcDbLine
 10
303.1364333255015
 20
283.6442098366097
 30
0.0
 11
304.1632539843945
 21
284.7376627777419
 31
0.0
  0
LINE
  5
1A9F
330
18
100
AcDbEntity
  8
目盛
100
AcDbLine
 10
303.8432800682014
 20
283.021040606294
 30
0.0
 11
304.7994160528244
 21
284.1768104704577
 31
0.0
  0
LINE
  5
1AA0
330
18
100
AcDbEntity
  8
目盛
100
AcDbLine
 10
305.3672379897467
 20
281.9138203654007
 30
0.0
 11
306.1709781822152
 21
283.1803122536538
 31
0.0
  0
LINE
  5
1AA1
330
18
100
AcDbEntity
  8
目盛
100
AcDbLine
 10
307.0179505409556
 20
281.0063334609406
 30
0.0
 11
307.6566194783032
 21
282.3635740396397
 31
0.0
  0
LINE
  5
1AA2
330
18
100
AcDbEntity
  8
目盛
100
AcDbLine
 10
307.8827716241615
 20
280.6320919596072
 30
0.0
 11
308.4349584531886
 21
282.0267566884396
 31
0.0
  0
LINE
  5
1AA3
330
18
100
AcDbEntity
  8
目盛
100
AcDbLine
 10
309.6742916069589
 20
280.0499918310015
 30
0.0
 11
310.0473264377062
 21
281.5028665726944
 31
0.0
  0
LINE
  5
1AA4
330
18
100
AcDbEntity
  8
目盛
100
AcDbLine
 10
308.7693849988075
 20
280.3128915035037
 30
0.0
 11
309.5419274847448
 21
282.6905327942416
 31
0.0
  0
LINE
  5
1AA5
330
18
100
AcDbEntity
  8
目盛
100
AcDbLine
 10
313.4046399144317
 20
279.578739247931
 30
0.0
 11
313.4046399144317
 21
282.078739247931
 31
0.0
  0
LINE
  5
1AA6
330
18
100
AcDbEntity
  8
目盛
100
AcDbLine
 10
306.178334802906
 20
281.434139047273
 30
0.0
 11
306.9009653140586
 21
282.7485990673388
 31
0.0
  0
LINE
  5
1AA7
330
18
100
AcDbEntity
  8
目盛
100
AcDbLine
 10
310.5939201956458
 20
279.8444304870006
 30
0.0
 11
310.8749921675244
 21
281.3178613630937
 31
0.0
  0
LINE
  5
1AA8
330
18
100
AcDbEntity
  8
目盛
100
AcDbLine
 10
311.5246414109671
 20
279.6970187282138
 30
0.0
 11
311.7126412613135
 21
281.1851907801855
 31
0.0
  0
LINE
  5
1AA9
330
18
100
AcDbEntity
  8
目盛
100
AcDbLine
 10
312.4627821214919
 20
279.6083383215069
 30
0.0
 11
312.5569679007859
 21
281.1053784141493
 31
0.0
  0
LINE
  5
1AAA
330
18
100
AcDbEntity
  8
目盛
100
AcDbLine
 10
314.3464977073715
 20
279.6083383215068
 30
0.0
 11
314.2523119280775
 21
281.1053784141493
 31
0.0
  0
LINE
  5
1AAB
330
18
100
AcDbEntity
  8
目盛
100
AcDbLine
 10
316.2153596332176
 20
279.8444304870006
 30
0.0
 11
315.934287661339
 21
281.3178613630936
 31
0.0
  0
LINE
  5
1AAC
330
18
100
AcDbEntity
  8
目盛
100
AcDbLine
 10
317.1349882219046
 20
280.0499918310014
 30
0.0
 11
316.7619533911574
 21
281.5028665726944
 31
0.0
  0
LINE
  5
1AAD
330
18
100
AcDbEntity
  8
目盛
100
AcDbLine
 10
318.9265082047019
 20
280.6320919596071
 30
0.0
 11
318.374321375675
 21
282.0267566884396
 31
0.0
  0
LINE
  5
1AAE
330
18
100
AcDbEntity
  8
目盛
100
AcDbLine
 10
318.039894830056
 20
280.3128915035037
 30
0.0
 11
317.2673523441186
 21
282.6905327942415
 31
0.0
  0
LINE
  5
1AAF
330
18
100
AcDbEntity
  8
目盛
100
AcDbLine
 10
322.2214186988189
 20
282.4434843323068
 30
0.0
 11
320.7519555680877
 21
284.4660268182441
 31
0.0
  0
LINE
  5
1AB0
330
18
100
AcDbEntity
  8
目盛
100
AcDbLine
 10
315.2846384178963
 20
279.6970187282137
 30
0.0
 11
315.0966385675499
 21
281.1851907801855
 31
0.0
  0
LINE
  5
1AB1
330
18
100
AcDbEntity
  8
目盛
100
AcDbLine
 10
319.7913292879078
 20
281.0063334609406
 30
0.0
 11
319.1526603505602
 21
282.3635740396397
 31
0.0
  0
LINE
  5
1AB2
330
18
100
AcDbEntity
  8
目盛
100
AcDbLine
 10
320.6309450259575
 20
281.434139047273
 30
0.0
 11
319.9083145148049
 21
282.7485990673388
 31
0.0
  0
LINE
  5
1AB3
330
18
100
AcDbEntity
  8
目盛
100
AcDbLine
 10
321.4420418391167
 20
281.9138203654007
 30
0.0
 11
320.6383016466482
 21
283.1803122536537
 31
0.0
  0
LINE
  5
1AB4
330
18
100
AcDbEntity
  8
目盛
100
AcDbLine
 10
322.9659997606621
 20
283.021040606294
 30
0.0
 11
322.009863776039
 21
284.1768104704577
 31
0.0
  0
LINE
  5
1AB5
330
18
100
AcDbEntity
  8
目盛
100
AcDbLine
 10
324.3391693257529
 20
284.3105326590006
 30
0.0
 11
323.2457163846208
 21
285.3373533178936
 31
0.0
  0
LINE
  5
1AB6
330
18
100
AcDbEntity
  8
目盛
100
AcDbLine
 10
324.9623385560686
 20
285.0173794017006
 30
0.0
 11
323.8065686919049
 21
285.9735153863237
 31
0.0
  0
LINE
  5
1AB7
330
18
100
AcDbEntity
  8
目盛
100
AcDbLine
 10
326.0695587969619
 20
286.541337323246
 30
0.0
 11
324.803066908709
 21
287.3450775157145
 31
0.0
  0
LINE
  5
1AB8
330
18
100
AcDbEntity
  8
目盛
100
AcDbLine
 10
325.5398948300559
 20
285.7619604635439
 30
0.0
 11
323.5173523441186
 21
287.2314235942749
 31
0.0
  0
LINE
  5
1AB9
330
18
100
AcDbEntity
  8
目盛
100
AcDbLine
 10
327.670487658859
 20
289.9434843323068
 30
0.0
 11
325.2928463681211
 21
290.7160268182441
 31
0.0
  0
LINE
  5
1ABA
330
18
100
AcDbEntity
  8
目盛
100
AcDbLine
 10
323.6728465033621
 20
283.6442098366097
 30
0.0
 11
322.646025844469
 21
284.7376627777419
 31
0.0
  0
LINE
  5
1ABB
330
18
100
AcDbEntity
  8
目盛
100
AcDbLine
 10
326.5492401150897
 20
287.3524341364052
 30
0.0
 11
325.2347800950239
 21
288.0750646475577
 31
0.0
  0
LINE
  5
1ABC
330
18
100
AcDbEntity
  8
目盛
100
AcDbLine
 10
326.977045701422
 20
288.1920498744549
 30
0.0
 11
325.6198051227229
 21
288.8307188118024
 31
0.0
  0
LINE
  5
1ABD
330
18
100
AcDbEntity
  8
目盛
100
AcDbLine
 10
327.3512872027555
 20
289.0568709576608
 30
0.0
 11
325.9566224739231
 21
289.6090577866877
 31
0.0
  0
LINE
  5
1ABE
330
18
100
AcDbEntity
  8
目盛
100
AcDbLine
 10
327.9333873313613
 20
290.8483909404581
 30
0.0
 11
326.4805125896682
 21
291.2214257712053
 31
0.0
  0
LINE
  5
1ABF
330
18
100
AcDbEntity
  8
目盛
100
AcDbLine
 10
328.286360434149
 20
292.6987407444664
 30
0.0
 11
326.7981883821772
 21
292.8867405948129
 31
0.0
  0
LINE
  5
1AC0
330
18
100
AcDbEntity
  8
目盛
100
AcDbLine
 10
328.3750408408558
 20
293.6368814549912
 30
0.0
 11
326.8780007482134
 21
293.7310672342853
 31
0.0
  0
LINE
  5
1AC1
330
18
100
AcDbEntity
  8
目盛
100
AcDbLine
 10
328.3750408408559
 20
295.5205970408707
 30
0.0
 11
326.8780007482135
 21
295.4264112615767
 31
0.0
  0
LINE
  5
1AC2
330
18
100
AcDbEntity
  8
目盛
100
AcDbLine
 10
328.4046399144318
 20
294.5787392479309
 30
0.0
 11
325.9046399144318
 21
294.5787392479309
 31
0.0
  0
LINE
  5
1AC3
330
18
100
AcDbEntity
  8
目盛
100
AcDbLine
 10
327.6704876588591
 20
299.2139941635552
 30
0.0
 11
325.2928463681211
 21
298.4414516776178
 31
0.0
  0
LINE
  5
1AC4
330
18
100
AcDbEntity
  8
目盛
100
AcDbLine
 10
328.1389486753621
 20
291.7680195291451
 30
0.0
 11
326.6655177992691
 21
292.0490915010237
 31
0.0
  0
LINE
  5
1AC5
330
18
100
AcDbEntity
  8
目盛
100
AcDbLine
 10
328.286360434149
 20
296.4587377513955
 30
0.0
 11
326.7981883821772
 21
296.270737901049
 31
0.0
  0
LINE
  5
1AC6
330
18
100
AcDbEntity
  8
目盛
100
AcDbLine
 10
328.1389486753621
 20
297.3894589667168
 30
0.0
 11
326.6655177992691
 21
297.1083869948382
 31
0.0
  0
LINE
  5
1AC7
330
18
100
AcDbEntity
  8
目盛
100
AcDbLine
 10
327.9333873313612
 20
298.3090875554037
 30
0.0
 11
326.4805125896683
 21
297.9360527246565
 31
0.0
  0
LINE
  5
1AC8
330
18
100
AcDbEntity
  8
目盛
100
AcDbLine
 10
327.3512872027556
 20
300.1006075382011
 30
0.0
 11
325.9566224739232
 21
299.548420709174
 31
0.0
  0
LINE
  5
1AC9
330
18
100
AcDbEntity
  8
目盛
100
AcDbLine
 10
326.5492401150897
 20
301.8050443594567
 30
0.0
 11
325.2347800950239
 21
301.0824138483041
 31
0.0
  0
LINE
  5
1ACA
330
18
100
AcDbEntity
  8
目盛
100
AcDbLine
 10
326.069558796962
 20
302.6161411726159
 30
0.0
 11
324.803066908709
 21
301.8124009801474
 31
0.0
  0
LINE
  5
1ACB
330
18
100
AcDbEntity
  8
目盛
100
AcDbLine
 10
324.9623385560686
 20
304.1400990941613
 30
0.0
 11
323.8065686919049
 21
303.1839631095382
 31
0.0
  0
LINE
  5
1ACC
330
18
100
AcDbEntity
  8
目盛
100
AcDbLine
 10
325.5398948300559
 20
303.395518032318
 30
0.0
 11
323.5173523441186
 21
301.9260549015868
 31
0.0
  0
LINE
  5
1ACD
330
18
100
AcDbEntity
  8
目盛
100
AcDbLine
 10
322.2214186988189
 20
306.7139941635551
 30
0.0
 11
320.7519555680877
 21
304.6914516776177
 31
0.0
  0
LINE
  5
1ACE
330
18
100
AcDbEntity
  8
目盛
100
AcDbLine
 10
326.9770457014221
 20
300.965428621407
 30
0.0
 11
325.619805122723
 21
300.3267596840594
 31
0.0
  0
LINE
  5
1ACF
330
18
100
AcDbEntity
  8
目盛
100
AcDbLine
 10
324.3391693257529
 20
304.8469458368612
 30
0.0
 11
323.2457163846208
 21
303.8201251779682
 31
0.0
  0
LINE
  5
1AD0
330
18
100
AcDbEntity
  8
目盛
100
AcDbLine
 10
323.6728465033621
 20
305.5132686592521
 30
0.0
 11
322.6460258444691
 21
304.4198157181199
 31
0.0
  0
LINE
  5
1AD1
330
18
100
AcDbEntity
  8
目盛
100
AcDbLine
 10
322.9659997606622
 20
306.1364378895677
 30
0.0
 11
322.0098637760391
 21
304.980668025404
 31
0.0
  0
TEXT
  5
1AD5
330
18
100
AcDbEntity
  8
文字
100
AcDbText
 10
312.5533852976308
 20
304.8801478378889
 30
0.0
 40
1.8
  1
0
  7
STYLE3
100
AcDbText
  0
TEXT
  5
1AD6
330
18
100
AcDbEntity
  8
文字
100
AcDbText
 10
318.4293830327519
 20
302.1688541987834
 30
0.0
 40
1.8
  1
10
  7
STYLE3
100
AcDbText
  0
TEXT
  5
1AD7
330
18
100
AcDbEntity
  8
文字
100
AcDbText
 10
321.8478994321511
 20
296.7084897415422
 30
0.0
 40
1.8
  1
20
  7
STYLE3
100
AcDbText
  0
TEXT
  5
1AD8
330
18
100
AcDbEntity
  8
文字
100
AcDbText
 10
321.9075925235762
 20
290.5268832716501
 30
0.0
 40
1.8
  1
30
  7
STYLE3
100
AcDbText
  0
TEXT
  5
1AD9
330
18
100
AcDbEntity
  8
文字
100
AcDbText
 10
318.7517806535488
 20
285.1596975305701
 30
0.0
 40
1.8
  1
40
  7
STYLE3
100
AcDbText
  0
TEXT
  5
1ADA
330
18
100
AcDbEntity
  8
文字
100
AcDbText
 10
311.6904571683889
 20
282.5284970911903
 30
0.0
 40
1.8
  1
50
  7
STYLE3
100
AcDbText
  0
TEXT
  5
1ADB
330
18
100
AcDbEntity
  8
文字
100
AcDbText
 10
305.5307073989571
 20
285.0588147779277
 30
0.0
 40
1.8
  1
40
  7
STYLE3
100
AcDbText
  0
TEXT
  5
1ADC
330
18
100
AcDbEntity
  8
文字
100
AcDbText
 10
301.6834019588233
 20
290.0640573044471
 30
0.0
 40
1.8
  1
30
  7
STYLE3
100
AcDbText
  0
TEXT
  5
1ADD
330
18
100
AcDbEntity
  8
文字
100
AcDbText
 10
301.4765956756327
 20
297.1677900401362
 30
0.0
 40
1.8
  1
20
  7
STYLE3
100
AcDbText
  0
TEXT
  5
1ADE
330
18
100
AcDbEntity
  8
文字
100
AcDbText
 10
305.2920175184508
 20
302.4527428856812
 30
0.0
 40
1.8
  1
10
  7
STYLE3
100
AcDbText
  0
LINE
  5
1C59
330
18
100
AcDbEntity
  8
外形線
100
AcDbLine
 10
311.9046399144318
 20
220.6787392479309
 30
0.0
 11
314.9046399144318
 21
220.6787392479309
 31
0.0
  0
LINE
  5
1C5D
330
18
100
AcDbEntity
  8
外形線
100
AcDbLine
 10
311.9046399144318
 20
245.8628820907852
 30
0.0
 11
314.9046399144318
 21
245.8628820907852
 31
0.0
  0
LINE
  5
1C5E
330
18
100
AcDbEntity
  8
外形線
 62
     4
100
AcDbLine
 10
312.6546399144317
 20
242.3628820907852
 30
0.0
 11
314.1546399144319
 21
242.3628820907853
 31
0.0
  0
LINE
  5
1C60
330
18
100
AcDbEntity
  8
外形線
100
AcDbLine
 10
311.9046399144318
 20
242.6728820907852
 30
0.0
 11
314.9046399144318
 21
242.6728820907852
 31
0.0
  0
LINE
  5
1C61
330
18
100
AcDbEntity
  8
外形線
100
AcDbLine
 10
311.9046399144318
 20
242.0528820907852
 30
0.0
 11
314.9046399144318
 21
242.0528820907851
 31
0.0
  0
LINE
  5
1C66
330
18
100
AcDbEntity
  8
外形線
100
AcDbLine
 10
311.9046399144318
 20
242.6728820907852
 30
0.0
 11
312.6546399144317
 21
242.3628820907852
 31
0.0
  0
LINE
  5
1C67
330
18
100
AcDbEntity
  8
外形線
100
AcDbLine
 10
312.6546399144317
 20
242.3628820907852
 30
0.0
 11
311.9046399144318
 21
242.0528820907852
 31
0.0
  0
LINE
  5
1C68
330
18
100
AcDbEntity
  8
外形線
100
AcDbLine
 10
314.9046399144318
 20
242.6728820907852
 30
0.0
 11
314.1546399144317
 21
242.3628820907852
 31
0.0
  0
LINE
  5
1C69
330
18
100
AcDbEntity
  8
外形線
100
AcDbLine
 10
314.1546399144317
 20
242.3628820907852
 30
0.0
 11
314.9046399144318
 21
242.0528820907852
 31
0.0
  0
LINE
  5
1C6A
330
18
100
AcDbEntity
  8
外形線
100
AcDbLine
 10
311.9046399144318
 20
242.0528820907852
 30
0.0
 11
311.9046399144318
 21
220.6787392479309
 31
0.0
  0
LINE
  5
1C6B
330
18
100
AcDbEntity
  8
外形線
100
AcDbLine
 10
314.9046399144318
 20
242.0528820907852
 30
0.0
 11
314.9046399144318
 21
220.6787392479309
 31
0.0
  0
LINE
  5
1C6E
330
18
100
AcDbEntity
  8
外形線
100
AcDbLine
 10
314.9046399144318
 20
245.8628820907852
 30
0.0
 11
314.6418913405265
 21
247.378739247931
 31
0.0
  0
LINE
  5
1C6F
330
18
100
AcDbEntity
  8
外形線
100
AcDbLine
 10
311.9046399144317
 20
245.8628820907852
 30
0.0
 11
312.167388488337
 21
247.3787392479309
 31
0.0
  0
LINE
  5
1C70
330
18
100
AcDbEntity
  8
外形線
100
AcDbLine
 10
314.9046399144318
 20
245.8628820907851
 30
0.0
 11
314.9046399144318
 21
242.6728820907852
 31
0.0
  0
LINE
  5
1C71
330
18
100
AcDbEntity
  8
外形線
100
AcDbLine
 10
311.9046399144318
 20
245.8628820907856
 30
0.0
 11
311.9046399144318
 21
242.6728820907852
 31
0.0
  0
LINE
  5
1C81
330
18
100
AcDbEntity
  8
外形線
100
AcDbLine
 10
392.0987354295537
 20
220.6787392479309
 30
0.0
 11
392.8987354295537
 21
208.3928820907852
 31
0.0
  0
LINE
  5
1C82
330
18
100
AcDbEntity
  8
外形線
100
AcDbLine
 10
395.0987354295537
 20
220.6787392479309
 30
0.0
 11
394.2987354295537
 21
208.3928820907852
 31
0.0
  0
ARC
  5
1C83
330
18
100
AcDbEntity
  8
外形線
100
AcDbCircle
 10
393.5987354295537
 20
207.6787392479309
 30
0.0
 40
1.0
100
AcDbArc
 50
134.427004000808
 51
45.57299599919653
  0
LINE
  5
1C84
330
18
100
AcDbEntity
  8
隠れ線
 62
     4
 48
0.3
100
AcDbLine
 10
393.5987354295537
 20
208.6257742255259
 30
0.0
 11
392.8987354295537
 21
208.3928820907852
 31
0.0
  0
LINE
  5
1C85
330
18
100
AcDbEntity
  8
外形線
100
AcDbLine
 10
394.2998720894749
 20
208.3928820907853
 30
0.0
 11
392.8987354295537
 21
208.3928820907853
 31
0.0
  0
LINE
  5
1C86
330
18
100
AcDbEntity
  8
中心線
 48
0.5
100
AcDbLine
 10
389.8501306132315
 20
207.6787392479309
 30
0.0
 11
397.7297840289423
 21
207.6787392479309
 31
0.0
  0
LINE
  5
1C87
330
18
100
AcDbEntity
  8
隠れ線
 62
     4
 48
0.3
100
AcDbLine
 10
393.5987354295537
 20
208.6257742255259
 30
0.0
 11
394.2987354295537
 21
208.3928820907852
 31
0.0
  0
POINT
  5
1C88
330
18
100
AcDbEntity
  8
DEFPOINTS
  6
ByBlock
 62
     0
100
AcDbPoint
 10
393.5987354295536
 20
207.6787392479309
 30
0.0
  0
POINT
  5
1C89
330
18
100
AcDbEntity
  8
DEFPOINTS
  6
ByBlock
 62
     0
100
AcDbPoint
 10
394.1228533780941
 20
206.8270935610295
 30
0.0
  0
LINE
  5
1C8B
330
18
100
AcDbEntity
  8
外形線
100
AcDbLine
 10
392.0987354295537
 20
220.6787392479309
 30
0.0
 11
395.0987354295537
 21
220.6787392479309
 31
0.0
  0
LINE
  5
1C8C
330
18
100
AcDbEntity
  8
外形線
100
AcDbLine
 10
395.0987354295538
 20
242.0528820907852
 30
0.0
 11
395.0987354295537
 21
220.6787392479309
 31
0.0
  0
LINE
  5
1C8D
330
18
100
AcDbEntity
  8
外形線
100
AcDbLine
 10
392.0987354295538
 20
242.0528820907852
 30
0.0
 11
392.0987354295537
 21
220.6787392479309
 31
0.0
  0
LINE
  5
1C8E
330
18
100
AcDbEntity
  8
外形線
100
AcDbLine
 10
392.0987354295537
 20
245.8628820907852
 30
0.0
 11
395.0987354295538
 21
245.8628820907852
 31
0.0
  0
LINE
  5
1C8F
330
18
100
AcDbEntity
  8
外形線
100
AcDbLine
 10
392.0987354295537
 20
242.6728820907852
 30
0.0
 11
395.0987354295537
 21
242.6728820907852
 31
0.0
  0
LINE
  5
1C90
330
18
100
AcDbEntity
  8
外形線
100
AcDbLine
 10
392.0987354295537
 20
242.0528820907852
 30
0.0
 11
395.0987354295537
 21
242.0528820907851
 31
0.0
  0
LINE
  5
1C91
330
18
100
AcDbEntity
  8
外形線
 62
     4
100
AcDbLine
 10
392.8487354295537
 20
242.3628820907852
 30
0.0
 11
394.3487354295539
 21
242.3628820907853
 31
0.0
  0
LINE
  5
1C92
330
18
100
AcDbEntity
  8
外形線
100
AcDbLine
 10
392.0987354295537
 20
245.8628820907856
 30
0.0
 11
392.0987354295538
 21
242.6728820907852
 31
0.0
  0
LINE
  5
1C93
330
18
100
AcDbEntity
  8
外形線
100
AcDbLine
 10
392.8487354295537
 20
242.3628820907852
 30
0.0
 11
392.0987354295537
 21
242.0528820907852
 31
0.0
  0
LINE
  5
1C94
330
18
100
AcDbEntity
  8
外形線
100
AcDbLine
 10
392.0987354295537
 20
242.6728820907852
 30
0.0
 11
392.8487354295537
 21
242.3628820907852
 31
0.0
  0
LINE
  5
1C95
330
18
100
AcDbEntity
  8
外形線
100
AcDbLine
 10
395.0987354295538
 20
245.8628820907851
 30
0.0
 11
395.0987354295538
 21
242.6728820907852
 31
0.0
  0
LINE
  5
1C96
330
18
100
AcDbEntity
  8
外形線
100
AcDbLine
 10
394.3487354295537
 20
242.3628820907852
 30
0.0
 11
395.0987354295537
 21
242.0528820907852
 31
0.0
  0
LINE
  5
1C97
330
18
100
AcDbEntity
  8
外形線
100
AcDbLine
 10
395.0987354295537
 20
242.6728820907852
 30
0.0
 11
394.3487354295537
 21
242.3628820907852
 31
0.0
  0
LINE
  5
1C98
330
18
100
AcDbEntity
  8
外形線
100
AcDbLine
 10
395.0987354295538
 20
245.8628820907852
 30
0.0
 11
394.8389547784685
 21
247.361616616277
 31
0.0
  0
LINE
  5
1C99
330
18
100
AcDbEntity
  8
外形線
100
AcDbLine
 10
392.0987354295537
 20
245.8628820907852
 30
0.0
 11
392.3585160806388
 21
247.361616616277
 31
0.0
  0
POINT
  5
1CC8
330
18
100
AcDbEntity
  8
DEFPOINTS
  6
ByBlock
 62
     0
100
AcDbPoint
 10
393.5987354295536
 20
331.7832411058621
 30
0.0
  0
POINT
  5
1CC9
330
18
100
AcDbEntity
  8
DEFPOINTS
  6
ByBlock
 62
     0
100
AcDbPoint
 10
393.5987354295537
 20
250.5787392479308
 30
0.0
  0
POINT
  5
1CCB
330
18
100
AcDbEntity
  8
DEFPOINTS
  6
ByBlock
 62
     0
100
AcDbPoint
 10
393.5987354295538
 20
204.7911432247424
 30
0.0
  0
LINE
  5
1D0F
330
18
100
AcDbEntity
  8
0
  6
ByBlock
 62
     2
100
AcDbLine
 10
393.5987354295537
 20
328.1787392479308
 30
0.0
 11
415.9087786117809
 21
328.1787392479308
 31
0.0
  0
LINE
  5
1D10
330
18
100
AcDbEntity
  8
0
  6
ByBlock
 62
     2
100
AcDbLine
 10
399.9987354295537
 20
312.2287392479309
 30
0.0
 11
415.9087786117809
 21
312.2287392479309
 31
0.0
  0
LINE
  5
1D11
330
18
100
AcDbEntity
  8
0
  6
ByBlock
 62
     2
100
AcDbLine
 10
414.658778611781
 20
325.6787392479308
 30
0.0
 11
414.658778611781
 21
314.7287392479309
 31
0.0
  0
INSERT
  5
1D12
330
18
100
AcDbEntity
  8
0
  6
ByBlock
 62
     2
100
AcDbBlockReference
  2
_OPEN
 10
414.658778611781
 20
328.1787392479308
 30
0.0
 41
2.5
 42
2.5
 43
2.5
 50
90.0
  0
INSERT
  5
1D13
330
18
100
AcDbEntity
  8
0
  6
ByBlock
 62
     2
100
AcDbBlockReference
  2
_OPEN
 10
414.658778611781
 20
312.2287392479309
 30
0.0
 41
2.5
 42
2.5
 43
2.5
 50
270.0
  0
MTEXT
  5
1D14
330
18
100
AcDbEntity
  8
0
  6
ByBlock
 62
     6
100
AcDbMText
 10
412.7837786117809
 20
320.2037392479308
 30
0.0
 40
2.5
 41
0.0
 71
     5
 72
     1
  1
\A1;16
  7
STYLE3
 11
0.0000000000000001
 21
1.0
 31
0.0
 73
     1
 44
1.0
  0
POINT
  5
1D15
330
18
100
AcDbEntity
  8
DEFPOINTS
  6
ByBlock
 62
     0
100
AcDbPoint
 10
393.5987354295537
 20
328.1787392479308
 30
0.0
  0
POINT
  5
1D16
330
18
100
AcDbEntity
  8
DEFPOINTS
  6
ByBlock
 62
     0
100
AcDbPoint
 10
399.9987354295537
 20
312.2287392479309
 30
0.0
  0
POINT
  5
1D17
330
18
100
AcDbEntity
  8
DEFPOINTS
  6
ByBlock
 62
     0
100
AcDbPoint
 10
414.658778611781
 20
312.2287392479309
 30
0.0
  0
LINE
  5
1D18
330
18
100
AcDbEntity
  8
0
  6
ByBlock
 62
     2
100
AcDbLine
 10
387.1987354295536
 20
312.2287392479308
 30
0.0
 11
387.1987354295536
 21
337.4570726489703
 31
0.0
  0
LINE
  5
1D19
330
18
100
AcDbEntity
  8
0
  6
ByBlock
 62
     2
100
AcDbLine
 10
399.9987354295537
 20
312.2287392479309
 30
0.0
 11
399.9987354295537
 21
337.4570726489703
 31
0.0
  0
LINE
  5
1D1A
330
18
100
AcDbEntity
  8
0
  6
ByBlock
 62
     2
100
AcDbLine
 10
389.6987354295536
 20
336.2070726489703
 30
0.0
 11
397.4987354295537
 21
336.2070726489703
 31
0.0
  0
INSERT
  5
1D1B
330
18
100
AcDbEntity
  8
0
  6
ByBlock
 62
     2
100
AcDbBlockReference
  2
_OPEN
 10
387.1987354295536
 20
336.2070726489703
 30
0.0
 41
2.5
 42
2.5
 43
2.5
 50
180.0
  0
INSERT
  5
1D1C
330
18
100
AcDbEntity
  8
0
  6
ByBlock
 62
     2
100
AcDbBlockReference
  2
_OPEN
 10
399.9987354295537
 20
336.2070726489703
 30
0.0
 41
2.5
 42
2.5
 43
2.5
  0
MTEXT
  5
1D1D
330
18
100
AcDbEntity
  8
0
  6
ByBlock
 62
     6
100
AcDbMText
 10
393.5987354295536
 20
338.0820726489702
 30
0.0
 40
2.5
 41
0.0
 71
     5
 72
     1
  1
\A1;12.8
  7
STYLE3
 73
     1
 44
1.0
  0
POINT
  5
1D1E
330
18
100
AcDbEntity
  8
DEFPOINTS
  6
ByBlock
 62
     0
100
AcDbPoint
 10
387.1987354295536
 20
312.2287392479308
 30
0.0
  0
POINT
  5
1D1F
330
18
100
AcDbEntity
  8
DEFPOINTS
  6
ByBlock
 62
     0
100
AcDbPoint
 10
399.9987354295537
 20
312.2287392479309
 30
0.0
  0
POINT
  5
1D20
330
18
100
AcDbEntity
  8
DEFPOINTS
  6
ByBlock
 62
     0
100
AcDbPoint
 10
399.9987354295537
 20
336.2070726489703
 30
0.0
  0
LINE
  5
1D21
330
18
100
AcDbEntity
  8
0
  6
ByBlock
 62
     2
100
AcDbLine
 10
378.1349934609608
 20
294.5787392479309
 30
0.0
 11
378.1349934609608
 21
344.4291597053204
 31
0.0
  0
LINE
  5
1D22
330
18
100
AcDbEntity
  8
0
  6
ByBlock
 62
     2
100
AcDbLine
 10
401.6487354295536
 20
310.5787392479308
 30
0.0
 11
401.6487354295536
 21
344.4291597053204
 31
0.0
  0
LINE
  5
1D23
330
18
100
AcDbEntity
  8
0
  6
ByBlock
 62
     2
100
AcDbLine
 10
380.6349934609608
 20
343.1791597053204
 30
0.0
 11
399.1487354295537
 21
343.1791597053204
 31
0.0
  0
INSERT
  5
1D24
330
18
100
AcDbEntity
  8
0
  6
ByBlock
 62
     2
100
AcDbBlockReference
  2
_OPEN
 10
378.1349934609608
 20
343.1791597053204
 30
0.0
 41
2.5
 42
2.5
 43
2.5
 50
180.0
  0
INSERT
  5
1D25
330
18
100
AcDbEntity
  8
0
  6
ByBlock
 62
     2
100
AcDbBlockReference
  2
_OPEN
 10
401.6487354295536
 20
343.1791597053204
 30
0.0
 41
2.5
 42
2.5
 43
2.5
  0
MTEXT
  5
1D26
330
18
100
AcDbEntity
  8
0
  6
ByBlock
 62
     6
100
AcDbMText
 10
389.8918644452572
 20
345.0541597053204
 30
0.0
 40
2.5
 41
0.0
 71
     5
 72
     1
  1
\A1;23.5
  7
STYLE3
 73
     1
 44
1.0
  0
POINT
  5
1D27
330
18
100
AcDbEntity
  8
DEFPOINTS
  6
ByBlock
 62
     0
100
AcDbPoint
 10
378.1349934609608
 20
294.5787392479309
 30
0.0
  0
POINT
  5
1D28
330
18
100
AcDbEntity
  8
DEFPOINTS
  6
ByBlock
 62
     0
100
AcDbPoint
 10
401.6487354295536
 20
310.5787392479308
 30
0.0
  0
POINT
  5
1D29
330
18
100
AcDbEntity
  8
DEFPOINTS
  6
ByBlock
 62
     0
100
AcDbPoint
 10
401.6487354295536
 20
343.1791597053204
 30
0.0
  0
LINE
  5
1D2A
330
18
100
AcDbEntity
  8
0
  6
ByBlock
 62
     2
100
AcDbLine
 10
313.4046399144318
 20
328.1787392479309
 30
0.0
 11
348.7723464890486
 21
328.1787392479309
 31
0.0
  0
LINE
  5
1D2B
330
18
100
AcDbEntity
  8
0
  6
ByBlock
 62
     2
100
AcDbLine
 10
313.4046399144318
 20
206.6787392479309
 30
0.0
 11
348.7723464890486
 21
206.6787392479309
 31
0.0
  0
LINE
  5
1D2C
330
18
100
AcDbEntity
  8
0
  6
ByBlock
 62
     2
100
AcDbLine
 10
347.5223464890486
 20
325.6787392479309
 30
0.0
 11
347.5223464890486
 21
209.1787392479309
 31
0.0
  0
INSERT
  5
1D2D
330
18
100
AcDbEntity
  8
0
  6
ByBlock
 62
     2
100
AcDbBlockReference
  2
_OPEN
 10
347.5223464890486
 20
328.1787392479309
 30
0.0
 41
2.5
 42
2.5
 43
2.5
 50
90.0
  0
INSERT
  5
1D2E
330
18
100
AcDbEntity
  8
0
  6
ByBlock
 62
     2
100
AcDbBlockReference
  2
_OPEN
 10
347.5223464890486
 20
206.6787392479309
 30
0.0
 41
2.5
 42
2.5
 43
2.5
 50
270.0
  0
MTEXT
  5
1D2F
330
18
100
AcDbEntity
  8
0
  6
ByBlock
 62
     6
100
AcDbMText
 10
345.6473464890486
 20
267.428739247931
 30
0.0
 40
2.5
 41
0.0
 71
     5
 72
     1
  1
\A1;121.5
  7
STYLE3
 11
0.0000000000000001
 21
1.0
 31
0.0
 73
     1
 44
1.0
  0
POINT
  5
1D30
330
18
100
AcDbEntity
  8
DEFPOINTS
  6
ByBlock
 62
     0
100
AcDbPoint
 10
313.4046399144318
 20
328.1787392479309
 30
0.0
  0
POINT
  5
1D31
330
18
100
AcDbEntity
  8
DEFPOINTS
  6
ByBlock
 62
     0
100
AcDbPoint
 10
313.4046399144318
 20
206.6787392479309
 30
0.0
  0
POINT
  5
1D32
330
18
100
AcDbEntity
  8
DEFPOINTS
  6
ByBlock
 62
     0
100
AcDbPoint
 10
347.5223464890486
 20
206.6787392479309
 30
0.0
  0
LINE
  5
1D33
330
18
100
AcDbEntity
  8
0
  6
ByBlock
 62
     2
100
AcDbLine
 10
334.0498425055225
 20
294.5787392479309
 30
0.0
 11
342.2461471783734
 21
294.5787392479309
 31
0.0
  0
LINE
  5
1D34
330
18
100
AcDbEntity
  8
0
  6
ByBlock
 62
     2
100
AcDbLine
 10
336.9054714454617
 20
207.6787392479309
 30
0.0
 11
342.2461471783734
 21
207.6787392479309
 31
0.0
  0
LINE
  5
1D35
330
18
100
AcDbEntity
  8
0
  6
ByBlock
 62
     2
100
AcDbLine
 10
340.9961471783734
 20
292.0787392479309
 30
0.0
 11
340.9961471783734
 21
210.1787392479309
 31
0.0
  0
INSERT
  5
1D36
330
18
100
AcDbEntity
  8
0
  6
ByBlock
 62
     2
100
AcDbBlockReference
  2
_OPEN
 10
340.9961471783734
 20
294.5787392479309
 30
0.0
 41
2.5
 42
2.5
 43
2.5
 50
90.0
  0
INSERT
  5
1D37
330
18
100
AcDbEntity
  8
0
  6
ByBlock
 62
     2
100
AcDbBlockReference
  2
_OPEN
 10
340.9961471783734
 20
207.6787392479309
 30
0.0
 41
2.5
 42
2.5
 43
2.5
 50
270.0
  0
MTEXT
  5
1D38
330
18
100
AcDbEntity
  8
0
  6
ByBlock
 62
     6
100
AcDbMText
 10
339.1211471783734
 20
251.1287392479309
 30
0.0
 40
2.5
 41
0.0
 71
     5
 72
     1
  1
\A1;86.9
  7
STYLE3
 11
0.0000000000000001
 21
1.0
 31
0.0
 73
     1
 44
1.0
  0
POINT
  5
1D39
330
18
100
AcDbEntity
  8
DEFPOINTS
  6
ByBlock
 62
     0
100
AcDbPoint
 10
334.0498425055225
 20
294.5787392479309
 30
0.0
  0
POINT
  5
1D3A
330
18
100
AcDbEntity
  8
DEFPOINTS
  6
ByBlock
 62
     0
100
AcDbPoint
 10
336.9054714454617
 20
207.6787392479309
 30
0.0
  0
POINT
  5
1D3B
330
18
100
AcDbEntity
  8
DEFPOINTS
  6
ByBlock
 62
     0
100
AcDbPoint
 10
340.9961471783734
 20
207.6787392479309
 30
0.0
  0
LINE
  5
1D3C
330
18
100
AcDbEntity
  8
0
  6
ByBlock
 62
     2
100
AcDbLine
 10
381.1987354295535
 20
312.0787392479309
 30
0.0
 11
368.6888981126063
 21
312.0787392479309
 31
0.0
  0
LINE
  5
1D3D
330
18
100
AcDbEntity
  8
0
  6
ByBlock
 62
     2
100
AcDbLine
 10
381.1987354295535
 20
277.0787392479309
 30
0.0
 11
368.6888981126063
 21
277.0787392479309
 31
0.0
  0
LINE
  5
1D3E
330
18
100
AcDbEntity
  8
0
  6
ByBlock
 62
     2
100
AcDbLine
 10
369.9388981126063
 20
309.5787392479309
 30
0.0
 11
369.9388981126063
 21
279.5787392479309
 31
0.0
  0
INSERT
  5
1D3F
330
18
100
AcDbEntity
  8
0
  6
ByBlock
 62
     2
100
AcDbBlockReference
  2
_OPEN
 10
369.9388981126063
 20
312.0787392479309
 30
0.0
 41
2.5
 42
2.5
 43
2.5
 50
90.0
  0
INSERT
  5
1D40
330
18
100
AcDbEntity
  8
0
  6
ByBlock
 62
     2
100
AcDbBlockReference
  2
_OPEN
 10
369.9388981126063
 20
277.0787392479309
 30
0.0
 41
2.5
 42
2.5
 43
2.5
 50
270.0
  0
MTEXT
  5
1D41
330
18
100
AcDbEntity
  8
0
  6
ByBlock
 62
     6
100
AcDbMText
 10
368.0638981126063
 20
294.5787392479309
 30
0.0
 40
2.5
 41
0.0
 71
     5
 72
     1
  1
\A1;φ35
  7
STYLE3
 11
0.0000000000000001
 21
1.0
 31
0.0
 73
     1
 44
1.0
  0
POINT
  5
1D42
330
18
100
AcDbEntity
  8
DEFPOINTS
  6
ByBlock
 62
     0
100
AcDbPoint
 10
381.1987354295535
 20
312.0787392479309
 30
0.0
  0
POINT
  5
1D43
330
18
100
AcDbEntity
  8
DEFPOINTS
  6
ByBlock
 62
     0
100
AcDbPoint
 10
381.1987354295535
 20
277.0787392479309
 30
0.0
  0
POINT
  5
1D44
330
18
100
AcDbEntity
  8
DEFPOINTS
  6
ByBlock
 62
     0
100
AcDbPoint
 10
369.9388981126063
 20
277.0787392479309
 30
0.0
  0
LINE
  5
1D45
330
18
100
AcDbEntity
  8
0
  6
ByBlock
 62
     2
100
AcDbLine
 10
320.6040322478744
 20
250.5787392479309
 30
0.0
 11
336.9054714454617
 21
250.5787392479309
 31
0.0
  0
LINE
  5
1D46
330
18
100
AcDbEntity
  8
0
  6
ByBlock
 62
     2
100
AcDbLine
 10
317.5356885138204
 20
207.6787392479309
 30
0.0
 11
336.9054714454617
 21
207.6787392479309
 31
0.0
  0
LINE
  5
1D47
330
18
100
AcDbEntity
  8
0
  6
ByBlock
 62
     2
100
AcDbLine
 10
335.6554714454617
 20
248.0787392479309
 30
0.0
 11
335.6554714454617
 21
210.1787392479309
 31
0.0
  0
INSERT
  5
1D48
330
18
100
AcDbEntity
  8
0
  6
ByBlock
 62
     2
100
AcDbBlockReference
  2
_OPEN
 10
335.6554714454617
 20
250.5787392479309
 30
0.0
 41
2.5
 42
2.5
 43
2.5
 50
90.0
  0
INSERT
  5
1D49
330
18
100
AcDbEntity
  8
0
  6
ByBlock
 62
     2
100
AcDbBlockReference
  2
_OPEN
 10
335.6554714454617
 20
207.6787392479309
 30
0.0
 41
2.5
 42
2.5
 43
2.5
 50
270.0
  0
MTEXT
  5
1D4A
330
18
100
AcDbEntity
  8
0
  6
ByBlock
 62
     6
100
AcDbMText
 10
333.7804714454617
 20
229.1287392479309
 30
0.0
 40
2.5
 41
0.0
 71
     5
 72
     1
  1
\A1;42.9
  7
STYLE3
 11
0.0000000000000001
 21
1.0
 31
0.0
 73
     1
 44
1.0
  0
POINT
  5
1D4B
330
18
100
AcDbEntity
  8
DEFPOINTS
  6
ByBlock
 62
     0
100
AcDbPoint
 10
320.6040322478744
 20
250.5787392479309
 30
0.0
  0
POINT
  5
1D4C
330
18
100
AcDbEntity
  8
DEFPOINTS
  6
ByBlock
 62
     0
100
AcDbPoint
 10
317.5356885138204
 20
207.6787392479309
 30
0.0
  0
POINT
  5
1D4D
330
18
100
AcDbEntity
  8
DEFPOINTS
  6
ByBlock
 62
     0
100
AcDbPoint
 10
335.6554714454617
 20
207.6787392479309
 30
0.0
  0
LINE
  5
1D4E
330
18
100
AcDbEntity
  8
0
  6
ByBlock
 62
     2
100
AcDbLine
 10
308.4046399144317
 20
248.5787392479309
 30
0.0
 11
308.4046399144317
 21
232.0475433417794
 31
0.0
  0
LINE
  5
1D4F
330
18
100
AcDbEntity
  8
0
  6
ByBlock
 62
     2
100
AcDbLine
 10
318.4046399144317
 20
248.5787392479309
 30
0.0
 11
318.4046399144317
 21
232.0475433417794
 31
0.0
  0
LINE
  5
1D50
330
18
100
AcDbEntity
  8
0
  6
ByBlock
 62
     2
100
AcDbLine
 10
310.9046399144318
 20
233.2975433417794
 30
0.0
 11
315.9046399144318
 21
233.2975433417794
 31
0.0
  0
LINE
  5
1D51
330
18
100
AcDbEntity
  8
0
  6
ByBlock
 62
     2
100
AcDbLine
 10
318.4046399144317
 20
233.2975433417794
 30
0.0
 11
329.2974970572889
 21
233.2975433417794
 31
0.0
  0
INSERT
  5
1D52
330
18
100
AcDbEntity
  8
0
  6
ByBlock
 62
     2
100
AcDbBlockReference
  2
_OPEN
 10
308.4046399144317
 20
233.2975433417794
 30
0.0
 41
2.5
 42
2.5
 43
2.5
 50
180.0
  0
INSERT
  5
1D53
330
18
100
AcDbEntity
  8
0
  6
ByBlock
 62
     2
100
AcDbBlockReference
  2
_OPEN
 10
318.4046399144317
 20
233.2975433417794
 30
0.0
 41
2.5
 42
2.5
 43
2.5
  0
MTEXT
  5
1D54
330
18
100
AcDbEntity
  8
0
  6
ByBlock
 62
     6
100
AcDbMText
 10
325.1010684858603
 20
235.8273052465413
 30
0.0
 40
2.5
 41
0.0
 71
     5
 72
     1
  1
\A1;(10)
  7
STYLE3
 73
     1
 44
1.0
  0
POINT
  5
1D55
330
18
100
AcDbEntity
  8
DEFPOINTS
  6
ByBlock
 62
     0
100
AcDbPoint
 10
308.4046399144317
 20
248.5787392479309
 30
0.0
  0
POINT
  5
1D56
330
18
100
AcDbEntity
  8
DEFPOINTS
  6
ByBlock
 62
     0
100
AcDbPoint
 10
318.4046399144317
 20
248.5787392479309
 30
0.0
  0
POINT
  5
1D57
330
18
100
AcDbEntity
  8
DEFPOINTS
  6
ByBlock
 62
     0
100
AcDbPoint
 10
318.4046399144317
 20
233.2975433417794
 30
0.0
  0
LINE
  5
1D58
330
18
100
AcDbEntity
  8
0
  6
ByBlock
 62
     2
100
AcDbLine
 10
309.6046399144317
 20
247.0787392479309
 30
0.0
 11
299.8438323095116
 21
247.0787392479309
 31
0.0
  0
LINE
  5
1D59
330
18
100
AcDbEntity
  8
0
  6
ByBlock
 62
     2
100
AcDbLine
 10
309.6560350981095
 20
207.6787392479309
 30
0.0
 11
299.8438323095116
 21
207.6787392479309
 31
0.0
  0
LINE
  5
1D5A
330
18
100
AcDbEntity
  8
0
  6
ByBlock
 62
     2
100
AcDbLine
 10
301.0938323095116
 20
244.5787392479309
 30
0.0
 11
301.0938323095116
 21
210.1787392479309
 31
0.0
  0
INSERT
  5
1D5B
330
18
100
AcDbEntity
  8
0
  6
ByBlock
 62
     2
100
AcDbBlockReference
  2
_OPEN
 10
301.0938323095116
 20
247.0787392479309
 30
0.0
 41
2.5
 42
2.5
 43
2.5
 50
90.0
  0
INSERT
  5
1D5C
330
18
100
AcDbEntity
  8
0
  6
ByBlock
 62
     2
100
AcDbBlockReference
  2
_OPEN
 10
301.0938323095116
 20
207.6787392479309
 30
0.0
 41
2.5
 42
2.5
 43
2.5
 50
270.0
  0
MTEXT
  5
1D5D
330
18
100
AcDbEntity
  8
0
  6
ByBlock
 62
     6
100
AcDbMText
 10
299.2188323095116
 20
227.3787392479309
 30
0.0
 40
2.5
 41
0.0
 71
     5
 72
     1
  1
\A1;39.4
  7
STYLE3
 11
0.0000000000000001
 21
1.0
 31
0.0
 73
     1
 44
1.0
  0
POINT
  5
1D5E
330
18
100
AcDbEntity
  8
DEFPOINTS
  6
ByBlock
 62
     0
100
AcDbPoint
 10
309.6046399144317
 20
247.0787392479309
 30
0.0
  0
POINT
  5
1D5F
330
18
100
AcDbEntity
  8
DEFPOINTS
  6
ByBlock
 62
     0
100
AcDbPoint
 10
309.6560350981095
 20
207.6787392479309
 30
0.0
  0
POINT
  5
1D60
330
18
100
AcDbEntity
  8
DEFPOINTS
  6
ByBlock
 62
     0
100
AcDbPoint
 10
301.0938323095116
 20
207.6787392479309
 30
0.0
  0
LINE
  5
1D61
330
18
100
AcDbEntity
  8
0
  6
ByBlock
 62
     2
100
AcDbLine
 10
452.3902408799478
 20
275.6722410738392
 30
0.0
 11
452.3902408799478
 21
286.6980053025841
 31
0.0
  0
LINE
  5
1D62
330
18
100
AcDbEntity
  8
0
  6
ByBlock
 62
     2
100
AcDbLine
 10
464.8443718247416
 20
275.6722410738393
 30
0.0
 11
464.8443718247416
 21
286.6980053025841
 31
0.0
  0
LINE
  5
1D63
330
18
100
AcDbEntity
  8
0
  6
ByBlock
 62
     2
100
AcDbLine
 10
454.8902408799477
 20
285.4480053025841
 30
0.0
 11
462.3443718247416
 21
285.4480053025841
 31
0.0
  0
INSERT
  5
1D64
330
18
100
AcDbEntity
  8
0
  6
ByBlock
 62
     2
100
AcDbBlockReference
  2
_OPEN
 10
452.3902408799478
 20
285.4480053025841
 30
0.0
 41
2.5
 42
2.5
 43
2.5
 50
180.0
  0
INSERT
  5
1D65
330
18
100
AcDbEntity
  8
0
  6
ByBlock
 62
     2
100
AcDbBlockReference
  2
_OPEN
 10
464.8443718247416
 20
285.4480053025841
 30
0.0
 41
2.5
 42
2.5
 43
2.5
  0
MTEXT
  5
1D66
330
18
100
AcDbEntity
  8
0
  6
ByBlock
 62
     6
100
AcDbMText
 10
458.6173063523447
 20
287.977767207346
 30
0.0
 40
2.5
 41
0.0
 71
     5
 72
     1
  1
\A1;(6.35)
  7
STYLE3
 73
     1
 44
1.0
  0
POINT
  5
1D67
330
18
100
AcDbEntity
  8
DEFPOINTS
  6
ByBlock
 62
     0
100
AcDbPoint
 10
452.3902408799478
 20
275.6722410738392
 30
0.0
  0
POINT
  5
1D68
330
18
100
AcDbEntity
  8
DEFPOINTS
  6
ByBlock
 62
     0
100
AcDbPoint
 10
464.8443718247416
 20
275.6722410738393
 30
0.0
  0
POINT
  5
1D69
330
18
100
AcDbEntity
  8
DEFPOINTS
  6
ByBlock
 62
     0
100
AcDbPoint
 10
464.8443718247416
 20
285.4480053025841
 30
0.0
  0
LINE
  5
1D6A
330
18
100
AcDbEntity
  8
0
  6
ByBlock
 62
     2
100
AcDbLine
 10
450.2002408799476
 20
273.8722410738392
 30
0.0
 11
450.2002408799476
 21
293.2979867049865
 31
0.0
  0
LINE
  5
1D6B
330
18
100
AcDbEntity
  8
0
  6
ByBlock
 62
     2
100
AcDbLine
 10
467.2802408799478
 20
273.8722410738392
 30
0.0
 11
467.2802408799478
 21
293.2979867049865
 31
0.0
  0
LINE
  5
1D6C
330
18
100
AcDbEntity
  8
0
  6
ByBlock
 62
     2
100
AcDbLine
 10
452.7002408799477
 20
292.0479867049865
 30
0.0
 11
464.7802408799479
 21
292.0479867049865
 31
0.0
  0
INSERT
  5
1D6D
330
18
100
AcDbEntity
  8
0
  6
ByBlock
 62
     2
100
AcDbBlockReference
  2
_OPEN
 10
450.2002408799476
 20
292.0479867049865
 30
0.0
 41
2.5
 42
2.5
 43
2.5
 50
180.0
  0
INSERT
  5
1D6E
330
18
100
AcDbEntity
  8
0
  6
ByBlock
 62
     2
100
AcDbBlockReference
  2
_OPEN
 10
467.2802408799478
 20
292.0479867049865
 30
0.0
 41
2.5
 42
2.5
 43
2.5
  0
MTEXT
  5
1D6F
330
18
100
AcDbEntity
  8
0
  6
ByBlock
 62
     6
100
AcDbMText
 10
458.7402408799477
 20
293.9229867049865
 30
0.0
 40
2.5
 41
0.0
 71
     5
 72
     1
  1
\A1;8.54
  7
STYLE3
 73
     1
 44
1.0
  0
POINT
  5
1D70
330
18
100
AcDbEntity
  8
DEFPOINTS
  6
ByBlock
 62
     0
100
AcDbPoint
 10
450.2002408799476
 20
273.8722410738392
 30
0.0
  0
POINT
  5
1D71
330
18
100
AcDbEntity
  8
DEFPOINTS
  6
ByBlock
 62
     0
100
AcDbPoint
 10
467.2802408799478
 20
273.8722410738392
 30
0.0
  0
POINT
  5
1D72
330
18
100
AcDbEntity
  8
DEFPOINTS
  6
ByBlock
 62
     0
100
AcDbPoint
 10
467.2802408799478
 20
292.0479867049865
 30
0.0
  0
LINE
  5
1D73
330
18
100
AcDbEntity
  8
文字
 62
     2
100
AcDbLine
 10
387.3371865066677
 20
260.2625567758053
 30
0.0
 11
380.5811421783032
 21
248.3356039638219
 31
0.0
1001
ACAD
1000
DSTYLE
1002
{
1070
   271
1070
     2
1002
}
  0
LINE
  5
1D74
330
18
100
AcDbEntity
  8
文字
 62
     2
100
AcDbLine
 10
380.5811421783032
 20
248.3356039638219
 30
0.0
 11
375.6704278925889
 21
248.3356039638219
 31
0.0
1001
ACAD
1000
DSTYLE
1002
{
1070
   271
1070
     2
1002
}
  0
TEXT
  5
1D75
330
18
100
AcDbEntity
  8
外形線
 62
     6
100
AcDbText
 10
376.7398245558407
 20
249.0361068042643
 30
0.0
 40
2.5
  1
C
  7
STYLE3
100
AcDbText
  0
HATCH
  5
1D76
330
18
100
AcDbEntity
  8
ROGO
 62
     4
100
AcDbHatch
 10
0.0
 20
0.0
 30
0.0
210
0.0
220
0.0
230
1.0
  2
SOLID
 70
     1
 71
     1
 91
        1
 92
        7
 72
     0
 73
     1
 93
       11
 10
317.3043575136079
 20
299.5787392479309
 10
317.8515321400679
 20
299.5787392479309
 10
318.0447945881688
 20
299.9663243467426
 10
318.2380570362696
 20
299.5787392479309
 10
318.785219690989
 20
299.578739247931
 10
318.4150011537084
 20
300.3212072739947
 10
319.3144889884792
 20
301.0636753000586
 10
318.7673263337601
 20
301.0636753000586
 10
318.5111285535326
 20
300.9015505007152
 10
318.5919692146288
 20
301.0636753000586
 10
318.0447945881688
 20
301.0636753000586
 97
       11
330
1DC4
330
1DC7
330
1DC6
330
1DC5
330
1D7B
330
1D78
330
1DC1
330
1DC0
330
1DC2
330
1DBF
330
1DC3
 75
     0
 76
     1
 47
0.0514683685270805
 98
        1
 10
317.9977028006554
 20
300.4266087969242
450
        0
451
        0
460
0.0
461
0.0
452
        0
462
0.0
453
        0
470

  0
HATCH
  5
1D77
330
18
100
AcDbEntity
  8
ROGO
 62
     4
100
AcDbHatch
 10
0.0
 20
0.0
 30
0.0
210
0.0
220
0.0
230
1.0
  2
SOLID
 70
     1
 71
     1
 91
        1
 92
        5
 93
        8
 72
     4
 94
        3
 73
     0
 74
     0
 95
       26
 96
       22
 40
0.0
 40
0.0
 40
0.0
 40
0.0
 40
0.1723984759424608
 40
0.2878059064036966
 40
0.3710240621887089
 40
0.4331603664333254
 40
0.5137544142124919
 40
0.5725802121924054
 40
0.6788058922657609
 40
0.7652720686804421
 40
0.824082923352279
 40
0.8817499774613345
 40
0.9849051260984204
 40
1.057848128260906
 40
1.097133570529051
 40
1.152937380796411
 40
1.193234564309733
 40
1.251611879021433
 40
1.284648389624335
 40
1.356539542405977
 40
1.389365667278781
 40
1.389365667278781
 40
1.389365667278781
 40
1.389365667278781
 10
316.8940723374357
 20
301.0636753000586
 10
316.8355576309971
 20
301.0601842123302
 10
316.7378718595167
 20
301.0543561116902
 10
316.6306134766811
 20
300.9891977959875
 10
316.552029706166
 20
300.9513176146132
 10
316.4959838563376
 20
300.8998227352141
 10
316.4549020212202
 20
300.8466322864245
 10
316.4031106557548
 20
300.7832562566942
 10
316.3608762771576
 20
300.7094574346539
 10
316.3393688757312
 20
300.6281182671842
 10
316.320317823675
 20
300.5632904787661
 10
316.3061892445379
 20
300.4910483687731
 10
316.3097839550452
 20
300.4130014765352
 10
316.3149317450085
 20
300.3405155186104
 10
316.3379153754176
 20
300.2887713972882
 10
316.3640896593511
 20
300.2519331485521
 10
316.3961397115726
 20
300.2113599016333
 10
316.4312094774739
 20
300.1844883715803
 10
316.4602150364676
 20
300.1358087891662
 10
316.5109882890025
 20
300.1295969233706
 10
316.5432617882506
 20
300.1172334564437
 10
316.5533786852912
 20
300.1133578332581
 72
     1
 10
316.5533786852912
 20
300.1133578332582
 11
317.3718996294803
 21
300.1133578332581
 72
     1
 10
317.3718996294803
 20
300.1133578332581
 11
317.5482040262595
 21
300.466933800644
 72
     1
 10
317.5482040262595
 20
300.466933800644
 11
316.9405304008229
 21
300.466933800644
 72
     4
 94
        3
 73
     0
 74
     0
 95
       16
 96
       12
 40
0.0
 40
0.0
 40
0.0
 40
0.0
 40
0.0520638816757992
 40
0.1046647644702509
 40
0.1360388269655522
 40
0.1661200957203435
 40
0.1991564750640134
 40
0.2222266184462811
 40
0.24411818227865
 40
0.2885111307737157
 40
0.3794005943324707
 40
0.3794005943324707
 40
0.3794005943324707
 40
0.3794005943324707
 10
316.9405304008229
 20
300.4669338006439
 10
316.9222008228044
 20
300.4723266312569
 10
316.8853526104852
 20
300.483167915613
 10
316.8822687126701
 20
300.5357224794049
 10
316.8864700772807
 20
300.5731719066316
 10
316.9040654016531
 20
300.6004372765587
 10
316.9254115819852
 20
300.6202764205874
 10
316.9333597116523
 20
300.6461138037135
 10
316.9567225146583
 20
300.6656242605121
 10
316.9981510243233
 20
300.698418612961
 10
317.0439637843124
 20
300.7054030772903
 10
317.0747430786519
 20
300.7100955883602
 72
     1
 10
317.074743078652
 20
300.7100955883603
 11
317.6694523470096
 21
300.7100955883603
 72
     1
 10
317.6694523470096
 20
300.7100955883603
 11
317.8457586108241
 21
301.0636753000586
 72
     1
 10
317.8457586108241
 20
301.0636753000586
 11
316.8940723374356
 21
301.0636753000586
 97
        8
330
1D79
330
1D9D
330
1DA9
330
1DA2
330
1DBD
330
1DBC
330
1DBE
330
1D7A
 75
     0
 76
     1
 47
0.0514683685270805
 98
        1
 10
317.0582915275136
 20
300.8896689395768
450
        0
451
        0
460
0.0
461
0.0
452
        0
462
0.0
453
        0
470

  0
LINE
  5
1D78
102
{ACAD_REACTORS
330
1D76
330
1D81
102
}
330
18
100
AcDbEntity
  8
ROGO
 62
     4
100
AcDbLine
 10
307.7999929312638
 20
299.5787392479309
 30
0.0
 11
317.8515321400679
 21
299.5787392479309
 31
0.0
  0
LINE
  5
1D79
102
{ACAD_REACTORS
330
1D77
102
}
330
18
100
AcDbEntity
  8
ROGO
 62
     4
100
AcDbLine
 10
316.894072337436
 20
301.0636753000586
 30
0.0
 11
317.8457586108241
 21
301.0636753000586
 31
0.0
  0
LINE
  5
1D7A
102
{ACAD_REACTORS
330
1D77
102
}
330
18
100
AcDbEntity
  8
ROGO
 62
     4
100
AcDbLine
 10
317.8457586108241
 20
301.0636753000586
 30
0.0
 11
317.6694523470096
 21
300.7100955883603
 31
0.0
  0
LINE
  5
1D7B
102
{ACAD_REACTORS
330
1D76
102
}
330
18
100
AcDbEntity
  8
ROGO
 62
     4
100
AcDbLine
 10
318.0447945881688
 20
301.0636753000586
 30
0.0
 11
317.3043575136079
 21
299.5787392479309
 31
0.0
  0
HATCH
  5
1D7C
330
18
100
AcDbEntity
  8
ROGO
 62
     4
100
AcDbHatch
 10
0.0
 20
0.0
 30
0.0
210
0.0
220
0.0
230
1.0
  2
SOLID
 70
     1
 71
     0
 91
        1
 92
        7
 72
     0
 73
     1
 93
        4
 10
317.3785752729565
 20
299.7275819117456
 10
308.5575953172551
 20
299.7275819117456
 10
308.4902546740348
 20
299.5787392479308
 10
317.3043575136079
 20
299.5787392479308
 97
        0
 75
     0
 76
     1
 47
0.0514683685270805
 98
        1
 10
314.1273284265494
 20
299.6882154192411
450
        0
451
        0
460
0.0
461
0.0
452
        0
462
0.0
453
        0
470

  0
HATCH
  5
1D7D
330
18
100
AcDbEntity
  8
ROGO
 62
     4
100
AcDbHatch
 10
0.0
 20
0.0
 30
0.0
210
0.0
220
0.0
230
1.0
  2
SOLID
 70
     1
 71
     1
 91
        2
 92
        7
 72
     0
 73
     1
 93
        8
 10
312.5980212848131
 20
301.0636753000586
 10
312.0487749574739
 20
301.0636753000586
 10
311.3634825629595
 20
300.1133578332581
 10
311.8897883422246
 20
300.113357833258
 10
312.0202637741006
 20
300.2942923991349
 10
312.6265324681864
 20
300.2942923991348
 10
312.7570079000624
 20
300.1133578332581
 10
313.2833136793276
 20
300.1133578332581
 97
        8
330
1D7F
330
1D87
330
1D8C
330
1D88
330
1D7E
330
1DA0
330
1DA6
330
1D9F
 92
       22
 72
     0
 73
     1
 93
        3
 10
312.4889160957216
 20
300.4851295418172
 10
312.1578801465655
 20
300.4851295418172
 10
312.3233981211435
 20
300.7146587523703
 97
        3
330
1DAB
330
1DAA
330
1DAC
 75
     0
 76
     1
 47
0.0514683685270805
 98
        2
 10
312.6618468760673
 20
300.5767904239107
 10
312.6618468760673
 20
300.5767904239107
450
        0
451
        0
460
0.0
461
0.0
452
        0
462
0.0
453
        0
470

  0
LINE
  5
1D7E
102
{ACAD_REACTORS
330
1D7D
102
}
330
18
100
AcDbEntity
  8
ROGO
 62
     4
100
AcDbLine
 10
312.0202637741006
 20
300.2942923991349
 30
0.0
 11
312.6265324681864
 21
300.2942923991349
 31
0.0
  0
LINE
  5
1D7F
102
{ACAD_REACTORS
330
1D7D
102
}
330
18
100
AcDbEntity
  8
ROGO
 62
     4
100
AcDbLine
 10
312.0487749574739
 20
301.0636753000586
 30
0.0
 11
312.5980212848131
 21
301.0636753000586
 31
0.0
  0
LINE
  5
1D80
330
18
100
AcDbEntity
  8
ROGO
 62
     4
100
AcDbLine
 10
308.547272920674
 20
299.7275819117457
 30
0.0
 11
317.3785752729565
 21
299.7275819117457
 31
0.0
  0
HATCH
  5
1D81
330
18
100
AcDbEntity
  8
ROGO
 62
     4
100
AcDbHatch
 10
0.0
 20
0.0
 30
0.0
210
0.0
220
0.0
230
1.0
  2
SOLID
 70
     1
 71
     1
 91
        2
 92
        5
 93
        6
 72
     1
 10
307.7999929312638
 20
299.5787392479309
 11
308.4902546740348
 21
299.5787392479309
 72
     1
 10
308.4902546740348
 20
299.5787392479309
 11
308.7321312871698
 21
300.1133578332581
 72
     1
 10
308.7321312871698
 20
300.1133578332581
 11
309.3773844432156
 21
300.1133578332582
 72
     4
 94
        3
 73
     0
 74
     0
 95
       18
 96
       14
 40
0.108740278791501
 40
0.108740278791501
 40
0.108740278791501
 40
0.108740278791501
 40
0.6623149649549278
 40
1.384304701649787
 40
2.097394834876493
 40
2.774073369849618
 40
3.428974823686337
 40
4.005208313035923
 40
4.455173659284313
 40
4.720999734343524
 40
5.086034088486724
 40
5.569973738255373
 40
6.060470601257719
 40
6.060470601257719
 40
6.060470601257719
 40
6.060470601257719
 10
309.3773844432157
 20
300.1133578332581
 10
309.4227962943203
 20
300.1136960015631
 10
309.5274357279742
 20
300.1144752197419
 10
309.6738254768587
 20
300.1926798403011
 10
309.8126447851236
 20
300.2923068289808
 10
309.9244542942471
 20
300.4167803572299
 10
309.9941149871108
 20
300.559094511493
 10
310.0049052082498
 20
300.6954895564238
 10
309.9983180433417
 20
300.8033763412864
 10
309.9512494414936
 20
300.8785761087306
 10
309.9023158861563
 20
300.9548961825036
 10
309.8125882923288
 20
301.0210074651253
 10
309.7390695214663
 20
301.0499740344323
 10
309.7016837312158
 20
301.0636753000587
 72
     1
 10
309.7016837312159
 20
301.0636753000587
 11
308.5347254798021
 21
301.0636753000586
 72
     1
 10
308.5347254798021
 20
301.0636753000586
 11
307.7999929312638
 21
299.5787392479309
 97
        6
330
1D83
330
1D8D
330
1D84
330
1D78
330
1D8A
330
1D89
 92
       20
 93
        4
 72
     1
 10
308.8814764028583
 20
300.4434545443042
 11
308.9958187439818
 21
300.6961848097983
 72
     1
 10
308.9958187439818
 20
300.6961848097983
 11
309.2896298287739
 21
300.6961848097983
 72
     4
 94
        3
 73
     0
 74
     0
 95
       15
 96
       11
 40
0.0
 40
0.0
 40
0.0
 40
0.0
 40
0.1114278057886432
 40
0.1622327562563865
 40
0.2198997572250677
 40
0.259185199493265
 40
0.3213155338880433
 40
0.3585299069784071
 40
0.4223775764185194
 40
0.4436601464819452
 40
0.4436601464819452
 40
0.4436601464819452
 40
0.4436601464819452
 10
309.2896298287739
 20
300.6961848097983
 10
309.3314799517906
 20
300.6963765057007
 10
309.3924114289801
 20
300.6966556043906
 10
309.4257309308416
 20
300.6212831908997
 10
309.4107955414279
 20
300.5727551145648
 10
309.3920205396811
 20
300.5229319052768
 10
309.3588408593376
 20
300.4890762831248
 10
309.3143088683912
 20
300.4564676117228
 10
309.2722240088557
 20
300.4525201860349
 10
309.2448525319128
 20
300.4452676733446
 10
309.2380096594015
 20
300.4434545443041
 72
     1
 10
309.2380096594017
 20
300.4434545443042
 11
308.8814764028583
 21
300.4434545443042
 97
        4
330
1D90
330
1D8E
330
1D92
330
1D8F
 75
     0
 76
     1
 47
0.0514683685270805
 98
        2
 10
308.5409626906046
 20
300.6018207791492
 10
308.5409626906046
 20
300.6018207791492
450
        0
451
        0
460
0.0
461
0.0
452
        0
462
0.0
453
        0
470

  0
HATCH
  5
1D82
330
18
100
AcDbEntity
  8
ROGO
 62
     4
100
AcDbHatch
 10
0.0
 20
0.0
 30
0.0
210
0.0
220
0.0
230
1.0
  2
SOLID
 70
     1
 71
     1
 91
        1
 92
        1
 93
       12
 72
     1
 10
310.3910937110054
 20
301.0636753000586
 11
311.6764376202856
 21
301.0636753000587
 72
     1
 10
311.6764376202856
 20
301.0636753000586
 11
311.5687269384162
 21
300.8459859176767
 72
     1
 10
311.5687269384162
 20
300.8459859176767
 11
310.8931826596184
 21
300.8459859176767
 72
     1
 10
310.8931826596184
 20
300.8459859176767
 11
310.8089662911414
 21
300.6757798719811
 72
     1
 10
310.8089662911414
 20
300.6757798719811
 11
311.4845105699393
 21
300.6757798719811
 72
     1
 10
311.4845105699393
 20
300.6757798719811
 11
311.398154573456
 21
300.5012495170232
 72
     1
 10
311.398154573456
 20
300.5012495170232
 11
310.7226102946581
 21
300.5012495170232
 72
     1
 10
310.7226102946581
 20
300.5012495170232
 11
310.638390360865
 21
300.3310362656218
 72
     1
 10
310.6383903608651
 20
300.3310362656218
 11
311.3139346396629
 21
300.3310362656218
 72
     1
 10
311.3139346396629
 20
300.3310362656218
 11
311.2062293757607
 21
300.1133578332581
 72
     1
 10
311.2062293757607
 20
300.1133578332581
 11
309.9208854664805
 21
300.1133578332581
 72
     1
 10
309.9208854664805
 20
300.1133578332581
 11
310.3910937110054
 21
301.0636753000586
 97
       12
330
1D91
330
1D93
330
1D95
330
1D94
330
1D96
330
1D99
330
1D98
330
1D9A
330
1D97
330
1D86
330
1D8B
330
1D85
 75
     0
 76
     1
 98
        1
 10
257.8145007339723
 20
235.3534748348928
450
        0
451
        0
460
0.0
461
0.0
452
        0
462
0.0
453
        0
470

  0
SPLINE
  5
1D83
102
{ACAD_REACTORS
330
1D81
102
}
330
18
100
AcDbEntity
  8
ROGO
 62
     4
100
AcDbSpline
210
0.0
220
0.0
230
1.0
 70
     8
 71
     3
 72
    18
 73
    14
 74
     0
 42
0.0000000001
 43
0.0000000001
 40
0.1087402787915014
 40
0.1087402787915014
 40
0.1087402787915014
 40
0.1087402787915014
 40
0.5992371417938475
 40
1.083176791562496
 40
1.448211145705696
 40
1.714037220764907
 40
2.164002567013297
 40
2.740236056362883
 40
3.395137510199602
 40
4.071816045172726
 40
4.784906178399433
 40
5.506895915094292
 40
6.060470601257719
 40
6.060470601257719
 40
6.060470601257719
 40
6.060470601257719
 10
309.7016837312158
 20
301.0636753000587
 30
0.0
 10
309.7390695214663
 20
301.0499740344323
 30
0.0
 10
309.8125882923288
 20
301.0210074651253
 30
0.0
 10
309.9023158861563
 20
300.9548961825036
 30
0.0
 10
309.9512494414936
 20
300.8785761087306
 30
0.0
 10
309.9983180433417
 20
300.8033763412864
 30
0.0
 10
310.0049052082498
 20
300.6954895564238
 30
0.0
 10
309.9941149871108
 20
300.559094511493
 30
0.0
 10
309.9244542942471
 20
300.4167803572299
 30
0.0
 10
309.8126447851236
 20
300.2923068289808
 30
0.0
 10
309.6738254768587
 20
300.1926798403011
 30
0.0
 10
309.5274357279742
 20
300.1144752197419
 30
0.0
 10
309.4227962943203
 20
300.1136960015631
 30
0.0
 10
309.3773844432157
 20
300.1133578332581
 30
0.0
  0
LINE
  5
1D84
102
{ACAD_REACTORS
330
1D81
102
}
330
18
100
AcDbEntity
  8
ROGO
 62
     4
100
AcDbLine
 10
308.5347254798021
 20
301.0636753000586
 30
0.0
 11
307.7999929312638
 21
299.5787392479309
 31
0.0
  0
LINE
  5
1D85
102
{ACAD_REACTORS
330
1D82
102
}
330
18
100
AcDbEntity
  8
ROGO
 62
     4
100
AcDbLine
 10
310.3910937110054
 20
301.0636753000586
 30
0.0
 11
309.9208854664805
 21
300.1133578332581
 31
0.0
  0
LINE
  5
1D86
102
{ACAD_REACTORS
330
1D82
102
}
330
18
100
AcDbEntity
  8
ROGO
 62
     4
100
AcDbLine
 10
311.3139346396629
 20
300.3310362656218
 30
0.0
 11
311.2062293757607
 21
300.1133578332581
 31
0.0
  0
LINE
  5
1D87
102
{ACAD_REACTORS
330
1D7D
102
}
330
18
100
AcDbEntity
  8
ROGO
 62
     4
100
AcDbLine
 10
312.0487749574739
 20
301.0636753000586
 30
0.0
 11
311.3634825629595
 21
300.1133578332581
 31
0.0
  0
LINE
  5
1D88
102
{ACAD_REACTORS
330
1D7D
102
}
330
18
100
AcDbEntity
  8
ROGO
 62
     4
100
AcDbLine
 10
312.0202637741006
 20
300.2942923991349
 30
0.0
 11
311.8897883422247
 21
300.1133578332581
 31
0.0
  0
LINE
  5
1D89
102
{ACAD_REACTORS
330
1D81
102
}
330
18
100
AcDbEntity
  8
ROGO
 62
     4
100
AcDbLine
 10
309.3773844434393
 20
300.1133578332581
 30
0.0
 11
308.7321312871698
 21
300.1133578332581
 31
0.0
  0
LINE
  5
1D8A
102
{ACAD_REACTORS
330
1D81
102
}
330
18
100
AcDbEntity
  8
ROGO
 62
     4
100
AcDbLine
 10
308.7321312871699
 20
300.1133578332581
 30
0.0
 11
308.4902546740348
 21
299.5787392479309
 31
0.0
  0
LINE
  5
1D8B
102
{ACAD_REACTORS
330
1D82
102
}
330
18
100
AcDbEntity
  8
ROGO
 62
     4
100
AcDbLine
 10
309.9208854664805
 20
300.1133578332581
 30
0.0
 11
311.2062293757607
 21
300.1133578332581
 31
0.0
  0
LINE
  5
1D8C
102
{ACAD_REACTORS
330
1D7D
102
}
330
18
100
AcDbEntity
  8
ROGO
 62
     4
100
AcDbLine
 10
311.3634825629595
 20
300.1133578332581
 30
0.0
 11
311.8897883422247
 21
300.1133578332581
 31
0.0
  0
LINE
  5
1D8D
102
{ACAD_REACTORS
330
1D81
102
}
330
18
100
AcDbEntity
  8
ROGO
 62
     4
100
AcDbLine
 10
308.5347254798021
 20
301.0636753000586
 30
0.0
 11
309.7016837312158
 21
301.0636753000586
 31
0.0
  0
LINE
  5
1D8E
102
{ACAD_REACTORS
330
1D81
102
}
330
18
100
AcDbEntity
  8
ROGO
 62
     4
100
AcDbLine
 10
309.2896298287739
 20
300.6961848097983
 30
0.0
 11
308.9958187439818
 21
300.6961848097983
 31
0.0
  0
LINE
  5
1D8F
102
{ACAD_REACTORS
330
1D81
102
}
330
18
100
AcDbEntity
  8
ROGO
 62
     4
100
AcDbLine
 10
309.2380096594015
 20
300.4434545443041
 30
0.0
 11
308.8814764028583
 21
300.4434545443042
 31
0.0
  0
LINE
  5
1D90
102
{ACAD_REACTORS
330
1D81
102
}
330
18
100
AcDbEntity
  8
ROGO
 62
     4
100
AcDbLine
 10
308.9958187439818
 20
300.6961848097983
 30
0.0
 11
308.8814764028583
 21
300.4434545443042
 31
0.0
  0
LINE
  5
1D91
102
{ACAD_REACTORS
330
1D82
102
}
330
18
100
AcDbEntity
  8
ROGO
 62
     4
100
AcDbLine
 10
310.3910937110054
 20
301.0636753000586
 30
0.0
 11
311.6764376202856
 21
301.0636753000587
 31
0.0
  0
SPLINE
  5
1D92
102
{ACAD_REACTORS
330
1D81
102
}
330
18
100
AcDbEntity
  8
ROGO
 62
     4
100
AcDbSpline
210
0.0
220
0.0
230
1.0
 70
     8
 71
     3
 72
    15
 73
    11
 74
     9
 42
0.0000000001
 43
0.0000000001
 44
0.0000000001
 40
0.0
 40
0.0
 40
0.0
 40
0.0
 40
0.1114278057886432
 40
0.1622327562563865
 40
0.2198997572250677
 40
0.259185199493265
 40
0.3213155338880433
 40
0.3585299069784071
 40
0.4223775764185194
 40
0.4436601464819452
 40
0.4436601464819452
 40
0.4436601464819452
 40
0.4436601464819452
 10
309.2896298287739
 20
300.6961848097983
 30
0.0
 10
309.3314799517906
 20
300.6963765057007
 30
0.0
 10
309.3924114289801
 20
300.6966556043906
 30
0.0
 10
309.4257309308416
 20
300.6212831908997
 30
0.0
 10
309.4107955414279
 20
300.5727551145648
 30
0.0
 10
309.3920205396811
 20
300.5229319052768
 30
0.0
 10
309.3588408593376
 20
300.4890762831248
 30
0.0
 10
309.3143088683912
 20
300.4564676117228
 30
0.0
 10
309.2722240088557
 20
300.4525201860349
 30
0.0
 10
309.2448525319128
 20
300.4452676733446
 30
0.0
 10
309.2380096594015
 20
300.4434545443041
 30
0.0
 11
309.2896298287739
 21
300.6961848097983
 31
0.0
 11
309.3980322735036
 21
300.670395938565
 31
0.0
 11
309.4186804006178
 21
300.6239761384932
 31
0.0
 11
309.4083564854738
 21
300.5672407899279
 31
0.0
 11
309.3928704643448
 21
300.5311363702012
 31
0.0
 11
309.3515742101164
 21
300.4847165701294
 31
0.0
 11
309.3206021678583
 21
300.4640854731428
 31
0.0
 11
309.2586577865158
 21
300.4486123185508
 31
0.0
 11
309.2380096594015
 21
300.4434545443041
 31
0.0
  0
LINE
  5
1D93
102
{ACAD_REACTORS
330
1D82
102
}
330
18
100
AcDbEntity
  8
ROGO
 62
     4
100
AcDbLine
 10
311.6764376202856
 20
301.0636753000586
 30
0.0
 11
311.5687269384162
 21
300.8459859176767
 31
0.0
  0
LINE
  5
1D94
102
{ACAD_REACTORS
330
1D82
102
}
330
18
100
AcDbEntity
  8
ROGO
 62
     4
100
AcDbLine
 10
310.8931826596184
 20
300.8459859176767
 30
0.0
 11
310.8089662911414
 21
300.6757798719811
 31
0.0
  0
LINE
  5
1D95
102
{ACAD_REACTORS
330
1D82
102
}
330
18
100
AcDbEntity
  8
ROGO
 62
     4
100
AcDbLine
 10
310.8931826596184
 20
300.8459859176767
 30
0.0
 11
311.5687269384162
 21
300.8459859176767
 31
0.0
  0
LINE
  5
1D96
102
{ACAD_REACTORS
330
1D82
102
}
330
18
100
AcDbEntity
  8
ROGO
 62
     4
100
AcDbLine
 10
310.8089662911414
 20
300.6757798719811
 30
0.0
 11
311.4845105699393
 21
300.6757798719811
 31
0.0
  0
LINE
  5
1D97
102
{ACAD_REACTORS
330
1D82
102
}
330
18
100
AcDbEntity
  8
ROGO
 62
     4
100
AcDbLine
 10
310.6383903608651
 20
300.3310362656218
 30
0.0
 11
311.3139346396629
 21
300.3310362656218
 31
0.0
  0
LINE
  5
1D98
102
{ACAD_REACTORS
330
1D82
102
}
330
18
100
AcDbEntity
  8
ROGO
 62
     4
100
AcDbLine
 10
310.7226102946581
 20
300.5012495170232
 30
0.0
 11
311.398154573456
 21
300.5012495170232
 31
0.0
  0
LINE
  5
1D99
102
{ACAD_REACTORS
330
1D82
102
}
330
18
100
AcDbEntity
  8
ROGO
 62
     4
100
AcDbLine
 10
311.4845105699393
 20
300.6757798719811
 30
0.0
 11
311.398154573456
 21
300.5012495170232
 31
0.0
  0
LINE
  5
1D9A
102
{ACAD_REACTORS
330
1D82
102
}
330
18
100
AcDbEntity
  8
ROGO
 62
     4
100
AcDbLine
 10
310.7226102946581
 20
300.5012495170232
 30
0.0
 11
310.638390360865
 21
300.3310362656218
 31
0.0
  0
HATCH
  5
1D9B
330
18
100
AcDbEntity
  8
ROGO
 62
     4
100
AcDbHatch
 10
0.0
 20
0.0
 30
0.0
210
0.0
220
0.0
230
1.0
  2
SOLID
 70
     1
 71
     1
 91
        2
 92
        7
 72
     1
 73
     1
 93
        4
 10
315.6496994217932
 20
301.0636753000586
 42
0.0
 10
315.2654254220154
 20
301.0636753000586
 42
0.9597396185048657
 10
315.2654254220152
 20
300.1133578332581
 42
0.0
 10
315.6773150475201
 20
300.1133578332581
 42
0.9713627655752649
 97
        4
330
1DBB
330
1DA3
330
1DA8
330
1DA4
 92
       22
 72
     1
 73
     1
 93
        2
 10
315.5856135752856
 20
300.5425247495085
 42
0.1034173650212171
 10
315.5912726114362
 20
300.5830120815919
 42
0.0
 97
        8
330
1DB3
330
1DB9
330
1DB5
330
1DB8
330
1DB4
330
1DB7
330
1DB2
330
1DB6
 75
     0
 76
     1
 47
0.0514683685270805
 98
        2
 10
315.7431156857498
 20
300.6769115085683
 10
315.7431156857498
 20
300.6769115085683
450
        0
451
        0
460
0.0
461
0.0
452
        0
462
0.0
453
        0
470

  0
HATCH
  5
1D9C
330
18
100
AcDbEntity
  8
ROGO
 62
     4
100
AcDbHatch
 10
0.0
 20
0.0
 30
0.0
210
0.0
220
0.0
230
1.0
  2
SOLID
 70
     1
 71
     1
 91
        1
 92
        5
 93
        8
 72
     1
 10
314.6074449379285
 20
300.7100955883602
 11
314.783751201743
 21
301.0636753000587
 72
     1
 10
314.783751201743
 20
301.0636753000587
 11
313.8320649283548
 21
301.0636753000586
 72
     4
 94
        3
 73
     0
 74
     0
 95
       26
 96
       22
 40
0.0
 40
0.0
 40
0.0
 40
0.0
 40
0.172398475942452
 40
0.2878059064037132
 40
0.3710240621887256
 40
0.4331603664333846
 40
0.5137544142125073
 40
0.5725802121924657
 40
0.6788058922658211
 40
0.7652720686804854
 40
0.8240829233522674
 40
0.8817499774613789
 40
0.9849051260984648
 40
1.05784812826095
 40
1.097133570529095
 40
1.152937380796455
 40
1.193234564309741
 40
1.251611879021481
 40
1.284648389624348
 40
1.356539542406023
 40
1.389365667278791
 40
1.389365667278791
 40
1.389365667278791
 40
1.389365667278791
 10
313.8320649283547
 20
301.0636753000586
 10
313.7735502219161
 20
301.0601842123303
 10
313.6758644504356
 20
301.0543561116902
 10
313.5686060676001
 20
300.9891977959875
 10
313.490022297085
 20
300.9513176146132
 10
313.4339764472565
 20
300.8998227352141
 10
313.392894612139
 20
300.8466322864246
 10
313.3411032466737
 20
300.7832562566942
 10
313.2988688680764
 20
300.7094574346539
 10
313.2773614666503
 20
300.6281182671842
 10
313.258310414594
 20
300.5632904787662
 10
313.2441818354568
 20
300.491048368773
 10
313.2477765459644
 20
300.4130014765355
 10
313.2529243359274
 20
300.3405155186102
 10
313.2759079663366
 20
300.2887713972883
 10
313.3020822502701
 20
300.2519331485519
 10
313.3341323024914
 20
300.2113599016333
 10
313.3692020683929
 20
300.1844883715803
 10
313.3982076273865
 20
300.1358087891662
 10
313.4489808799214
 20
300.1295969233706
 10
313.4812543791696
 20
300.1172334564437
 10
313.4913712762101
 20
300.1133578332581
 72
     1
 10
313.4913712762101
 20
300.1133578332581
 11
314.3098922203992
 21
300.1133578332581
 72
     1
 10
314.3098922203992
 20
300.1133578332581
 11
314.4861966171784
 21
300.466933800644
 72
     1
 10
314.4861966171784
 20
300.466933800644
 11
313.8785229917419
 21
300.466933800644
 72
     4
 94
        3
 73
     0
 74
     0
 95
       16
 96
       12
 40
0.0
 40
0.0
 40
0.0
 40
0.0
 40
0.0520638816757735
 40
0.1046647644702809
 40
0.1360388269655169
 40
0.1661200957203374
 40
0.1991564750640073
 40
0.2222266184463259
 40
0.2441181822786546
 40
0.2885111307736739
 40
0.3794005943324437
 40
0.3794005943324437
 40
0.3794005943324437
 40
0.3794005943324437
 10
313.8785229917419
 20
300.466933800644
 10
313.8601934137234
 20
300.472326631257
 10
313.8233452014042
 20
300.4831679156131
 10
313.820261303589
 20
300.5357224794047
 10
313.8244626681995
 20
300.5731719066316
 10
313.8420579925721
 20
300.6004372765586
 10
313.8634041729042
 20
300.6202764205873
 10
313.8713523025713
 20
300.6461138037136
 10
313.8947151055774
 20
300.6656242605121
 10
313.9361436152422
 20
300.698418612961
 10
313.9819563752313
 20
300.7054030772903
 10
314.0127356695708
 20
300.7100955883603
 72
     1
 10
314.0127356695709
 20
300.7100955883603
 11
314.6074449379285
 21
300.7100955883602
 97
        8
330
1DB1
330
1D9E
330
1DA5
330
1DA1
330
1DB0
330
1DAD
330
1DAF
330
1DAE
 75
     0
 76
     1
 47
0.0514683685270805
 98
        1
 10
314.164904853729
 20
300.8521234907931
450
        0
451
        0
460
0.0
461
0.0
452
        0
462
0.0
453
        0
470

  0
SPLINE
  5
1D9D
102
{ACAD_REACTORS
330
1D77
102
}
330
18
100
AcDbEntity
  8
ROGO
 62
     4
100
AcDbSpline
210
0.0
220
0.0
230
1.0
 70
     8
 71
     3
 72
    26
 73
    22
 74
    20
 42
0.0000000001
 43
0.0000000001
 44
0.0000000001
 40
0.0
 40
0.0
 40
0.0
 40
0.0
 40
0.1723984759424608
 40
0.2878059064036966
 40
0.3710240621887089
 40
0.4331603664333254
 40
0.5137544142124919
 40
0.5725802121924054
 40
0.6788058922657609
 40
0.7652720686804421
 40
0.824082923352279
 40
0.8817499774613345
 40
0.9849051260984204
 40
1.057848128260906
 40
1.097133570529051
 40
1.152937380796411
 40
1.193234564309733
 40
1.251611879021433
 40
1.284648389624335
 40
1.356539542405977
 40
1.389365667278781
 40
1.389365667278781
 40
1.389365667278781
 40
1.389365667278781
 10
316.8940723374357
 20
301.0636753000586
 30
0.0
 10
316.8355576309971
 20
301.0601842123302
 30
0.0
 10
316.7378718595167
 20
301.0543561116902
 30
0.0
 10
316.6306134766811
 20
300.9891977959875
 30
0.0
 10
316.552029706166
 20
300.9513176146132
 30
0.0
 10
316.4959838563376
 20
300.8998227352141
 30
0.0
 10
316.4549020212202
 20
300.8466322864245
 30
0.0
 10
316.4031106557548
 20
300.7832562566942
 30
0.0
 10
316.3608762771576
 20
300.7094574346539
 30
0.0
 10
316.3393688757312
 20
300.6281182671842
 30
0.0
 10
316.320317823675
 20
300.5632904787661
 30
0.0
 10
316.3061892445379
 20
300.4910483687731
 30
0.0
 10
316.3097839550452
 20
300.4130014765352
 30
0.0
 10
316.3149317450085
 20
300.3405155186104
 30
0.0
 10
316.3379153754176
 20
300.2887713972882
 30
0.0
 10
316.3640896593511
 20
300.2519331485521
 30
0.0
 10
316.3961397115726
 20
300.2113599016333
 30
0.0
 10
316.4312094774739
 20
300.1844883715803
 30
0.0
 10
316.4602150364676
 20
300.1358087891662
 30
0.0
 10
316.5109882890025
 20
300.1295969233706
 30
0.0
 10
316.5432617882506
 20
300.1172334564437
 30
0.0
 10
316.5533786852912
 20
300.1133578332581
 30
0.0
 11
316.8940723374357
 21
301.0636753000586
 31
0.0
 11
316.7237255113635
 21
301.0371575068927
 31
0.0
 11
316.6204848757926
 21
300.9855799325742
 31
0.0
 11
316.5482165793061
 21
300.9443179067489
 31
0.0
 11
316.5017585159189
 21
300.9030557127756
 31
0.0
 11
316.4501383465466
 21
300.8411625899638
 31
0.0
 11
316.4140041983034
 21
300.794742789892
 31
0.0
 11
316.3623837321048
 21
300.7019030216
 31
0.0
 11
316.3365737958317
 21
300.6193788018015
 31
0.0
 11
316.3210877747027
 21
300.5626434532363
 31
0.0
 11
316.3107635627324
 21
300.5059081046711
 31
0.0
 11
316.3107635627324
 21
300.402752956034
 31
0.0
 11
316.3210877747027
 21
300.3305442847288
 31
0.0
 11
316.3365737958317
 21
300.2944398650022
 31
0.0
 11
316.3675458380898
 21
300.2480200649302
 31
0.0
 11
316.3933560711892
 21
300.2170734194503
 31
0.0
 11
316.4346520285912
 21
300.1758113936251
 31
0.0
 11
316.4553001557055
 21
300.1500225223917
 31
0.0
 11
316.5224066430331
 21
300.1242338193065
 31
0.0
 11
316.5533786852912
 21
300.1133578332581
 31
0.0
  0
SPLINE
  5
1D9E
102
{ACAD_REACTORS
330
1D9C
102
}
330
18
100
AcDbEntity
  8
ROGO
 62
     4
100
AcDbSpline
210
0.0
220
0.0
230
1.0
 70
     8
 71
     3
 72
    26
 73
    22
 74
    20
 42
0.0000000001
 43
0.0000000001
 44
0.0000000001
 40
0.0
 40
0.0
 40
0.0
 40
0.0
 40
0.172398475942452
 40
0.2878059064037132
 40
0.3710240621887256
 40
0.4331603664333846
 40
0.5137544142125073
 40
0.5725802121924657
 40
0.6788058922658211
 40
0.7652720686804854
 40
0.8240829233522674
 40
0.8817499774613789
 40
0.9849051260984648
 40
1.05784812826095
 40
1.097133570529095
 40
1.152937380796455
 40
1.193234564309741
 40
1.251611879021481
 40
1.284648389624348
 40
1.356539542406023
 40
1.389365667278791
 40
1.389365667278791
 40
1.389365667278791
 40
1.389365667278791
 10
313.8320649283547
 20
301.0636753000586
 30
0.0
 10
313.7735502219161
 20
301.0601842123303
 30
0.0
 10
313.6758644504356
 20
301.0543561116902
 30
0.0
 10
313.5686060676001
 20
300.9891977959875
 30
0.0
 10
313.490022297085
 20
300.9513176146132
 30
0.0
 10
313.4339764472565
 20
300.8998227352141
 30
0.0
 10
313.392894612139
 20
300.8466322864246
 30
0.0
 10
313.3411032466737
 20
300.7832562566942
 30
0.0
 10
313.2988688680764
 20
300.7094574346539
 30
0.0
 10
313.2773614666503
 20
300.6281182671842
 30
0.0
 10
313.258310414594
 20
300.5632904787662
 30
0.0
 10
313.2441818354568
 20
300.491048368773
 30
0.0
 10
313.2477765459644
 20
300.4130014765355
 30
0.0
 10
313.2529243359274
 20
300.3405155186102
 30
0.0
 10
313.2759079663366
 20
300.2887713972883
 30
0.0
 10
313.3020822502701
 20
300.2519331485519
 30
0.0
 10
313.3341323024914
 20
300.2113599016333
 30
0.0
 10
313.3692020683929
 20
300.1844883715803
 30
0.0
 10
313.3982076273865
 20
300.1358087891662
 30
0.0
 10
313.4489808799214
 20
300.1295969233706
 30
0.0
 10
313.4812543791696
 20
300.1172334564437
 30
0.0
 10
313.4913712762101
 20
300.1133578332581
 30
0.0
 11
313.8320649283547
 21
301.0636753000586
 31
0.0
 11
313.6617181022824
 21
301.0371575068928
 31
0.0
 11
313.5584774667115
 21
300.9855799325742
 31
0.0
 11
313.486209170225
 21
300.9443179067489
 31
0.0
 11
313.4397511068378
 21
300.9030557127756
 31
0.0
 11
313.3881309374655
 21
300.8411625899638
 31
0.0
 11
313.3519967892222
 21
300.794742789892
 31
0.0
 11
313.3003763230237
 21
300.7019030216
 31
0.0
 11
313.2745663867507
 21
300.6193788018015
 31
0.0
 11
313.2590803656216
 21
300.5626434532363
 31
0.0
 11
313.2487561536513
 21
300.5059081046711
 31
0.0
 11
313.2487561536513
 21
300.402752956034
 31
0.0
 11
313.2590803656216
 21
300.3305442847288
 31
0.0
 11
313.2745663867507
 21
300.2944398650022
 31
0.0
 11
313.3055384290088
 21
300.2480200649302
 31
0.0
 11
313.3313486621081
 21
300.2170734194503
 31
0.0
 11
313.3726446195101
 21
300.1758113936251
 31
0.0
 11
313.3932927466243
 21
300.1500225223917
 31
0.0
 11
313.4603992339521
 21
300.1242338193065
 31
0.0
 11
313.4913712762101
 21
300.1133578332581
 31
0.0
  0
LINE
  5
1D9F
102
{ACAD_REACTORS
330
1D7D
102
}
330
18
100
AcDbEntity
  8
ROGO
 62
     4
100
AcDbLine
 10
312.5980212848131
 20
301.0636753000586
 30
0.0
 11
313.2833136793276
 21
300.1133578332581
 31
0.0
  0
LINE
  5
1DA0
102
{ACAD_REACTORS
330
1D7D
102
}
330
18
100
AcDbEntity
  8
ROGO
 62
     4
100
AcDbLine
 10
312.6265324681864
 20
300.2942923991349
 30
0.0
 11
312.7570079000624
 21
300.1133578332581
 31
0.0
  0
LINE
  5
1DA1
102
{ACAD_REACTORS
330
1D9C
102
}
330
18
100
AcDbEntity
  8
ROGO
 62
     4
100
AcDbLine
 10
314.4861966171785
 20
300.466933800644
 30
0.0
 11
314.3098922203992
 21
300.1133578332581
 31
0.0
  0
LINE
  5
1DA2
102
{ACAD_REACTORS
330
1D77
102
}
330
18
100
AcDbEntity
  8
ROGO
 62
     4
100
AcDbLine
 10
317.5482040262596
 20
300.466933800644
 30
0.0
 11
317.3718996294803
 21
300.1133578332581
 31
0.0
  0
ARC
  5
1DA3
102
{ACAD_REACTORS
330
1D9B
102
}
330
18
100
AcDbEntity
  8
ROGO
 62
     4
100
AcDbCircle
 10
315.2849567402187
 20
300.5885165666584
 30
0.0
 40
0.4755599797263065
100
AcDbArc
 50
92.3538081120337
 51
270.0
  0
ARC
  5
1DA4
102
{ACAD_REACTORS
330
1D9B
102
}
330
18
100
AcDbEntity
  8
ROGO
 62
     4
100
AcDbCircle
 10
315.6496994217932
 20
300.5881153203323
 30
0.0
 40
0.4755599797263065
100
AcDbArc
 50
273.3290215232082
 51
90.0000000000006
  0
LINE
  5
1DA5
102
{ACAD_REACTORS
330
1D9C
102
}
330
18
100
AcDbEntity
  8
ROGO
 62
     4
100
AcDbLine
 10
313.4913712762101
 20
300.1133578332581
 30
0.0
 11
314.3098922203992
 21
300.1133578332581
 31
0.0
  0
LINE
  5
1DA6
102
{ACAD_REACTORS
330
1D7D
102
}
330
18
100
AcDbEntity
  8
ROGO
 62
     4
100
AcDbLine
 10
313.2833136793276
 20
300.1133578332581
 30
0.0
 11
312.7570079000624
 21
300.1133578332581
 31
0.0
  0
LINE
  5
1DA7
330
18
100
AcDbEntity
  8
ROGO
 62
     4
100
AcDbLine
 10
315.2654254220158
 20
300.1133578332581
 30
0.0
 11
315.6773150475198
 21
300.1133578332581
 31
0.0
  0
LINE
  5
1DA8
102
{ACAD_REACTORS
330
1D9B
102
}
330
18
100
AcDbEntity
  8
ROGO
 62
     4
100
AcDbLine
 10
315.2654254220154
 20
300.1133578332581
 30
0.0
 11
315.6773150475201
 21
300.1133578332581
 31
0.0
  0
LINE
  5
1DA9
102
{ACAD_REACTORS
330
1D77
102
}
330
18
100
AcDbEntity
  8
ROGO
 62
     4
100
AcDbLine
 10
316.5533786852912
 20
300.1133578332581
 30
0.0
 11
317.3718996294803
 21
300.1133578332581
 31
0.0
  0
LINE
  5
1DAA
102
{ACAD_REACTORS
330
1D7D
102
}
330
18
100
AcDbEntity
  8
ROGO
 62
     4
100
AcDbLine
 10
312.3233981211435
 20
300.7146587523703
 30
0.0
 11
312.1578801465655
 21
300.4851295418171
 31
0.0
  0
LINE
  5
1DAB
102
{ACAD_REACTORS
330
1D7D
102
}
330
18
100
AcDbEntity
  8
ROGO
 62
     4
100
AcDbLine
 10
312.1578801465655
 20
300.4851295418172
 30
0.0
 11
312.4889160957216
 21
300.4851295418172
 31
0.0
  0
LINE
  5
1DAC
102
{ACAD_REACTORS
330
1D7D
102
}
330
18
100
AcDbEntity
  8
ROGO
 62
     4
100
AcDbLine
 10
312.3233981211435
 20
300.7146587523703
 30
0.0
 11
312.4889160957216
 21
300.4851295418171
 31
0.0
  0
SPLINE
  5
1DAD
102
{ACAD_REACTORS
330
1D9C
102
}
330
18
100
AcDbEntity
  8
ROGO
 62
     4
100
AcDbSpline
210
0.0
220
0.0
230
1.0
 70
     8
 71
     3
 72
    16
 73
    12
 74
    10
 42
0.0000000001
 43
0.0000000001
 44
0.0000000001
 40
0.0
 40
0.0
 40
0.0
 40
0.0
 40
0.0908894635587698
 40
0.1352824120537892
 40
0.1571739758861179
 40
0.1802441192684364
 40
0.2132804986121064
 40
0.2433617673669269
 40
0.2747358298621628
 40
0.3273367126566702
 40
0.3794005943324437
 40
0.3794005943324437
 40
0.3794005943324437
 40
0.3794005943324437
 10
314.0127356695708
 20
300.7100955883603
 30
0.0
 10
313.9819563752313
 20
300.7054030772903
 30
0.0
 10
313.9361436152422
 20
300.698418612961
 30
0.0
 10
313.8947151055774
 20
300.6656242605121
 30
0.0
 10
313.8713523025713
 20
300.6461138037136
 30
0.0
 10
313.8634041729042
 20
300.6202764205873
 30
0.0
 10
313.8420579925721
 20
300.6004372765586
 30
0.0
 10
313.8244626681995
 20
300.5731719066316
 30
0.0
 10
313.820261303589
 20
300.5357224794047
 30
0.0
 10
313.8233452014042
 20
300.4831679156131
 30
0.0
 10
313.8601934137234
 20
300.472326631257
 30
0.0
 10
313.8785229917419
 20
300.466933800644
 30
0.0
 11
314.0127356695708
 21
300.7100955883603
 31
0.0
 11
313.9249813519553
 21
300.6864296988601
 31
0.0
 11
313.8888472037121
 21
300.6606409957748
 31
0.0
 11
313.8733611825831
 21
300.6451676730348
 31
0.0
 11
313.8630369706128
 21
300.6245365760482
 31
0.0
 11
313.8423888434986
 21
300.598747872963
 31
0.0
 11
313.8269028223695
 21
300.5729590017296
 31
0.0
 11
313.8217407163844
 21
300.5420125243978
 31
0.0
 11
313.8320649283547
 21
300.4904347819311
 31
0.0
 11
313.8785229917419
 21
300.466933800644
 31
0.0
  0
LINE
  5
1DAE
102
{ACAD_REACTORS
330
1D9C
102
}
330
18
100
AcDbEntity
  8
ROGO
 62
     4
100
AcDbLine
 10
314.783751201743
 20
301.0636753000586
 30
0.0
 11
314.6074449379286
 21
300.7100955883603
 31
0.0
  0
LINE
  5
1DAF
102
{ACAD_REACTORS
330
1D9C
102
}
330
18
100
AcDbEntity
  8
ROGO
 62
     4
100
AcDbLine
 10
314.0127356695708
 20
300.7100955883603
 30
0.0
 11
314.6074449379286
 21
300.7100955883603
 31
0.0
  0
LINE
  5
1DB0
102
{ACAD_REACTORS
330
1D9C
102
}
330
18
100
AcDbEntity
  8
ROGO
 62
     4
100
AcDbLine
 10
313.8785229917418
 20
300.466933800644
 30
0.0
 11
314.4861966171785
 21
300.466933800644
 31
0.0
  0
LINE
  5
1DB1
102
{ACAD_REACTORS
330
1D9C
102
}
330
18
100
AcDbEntity
  8
ROGO
 62
     4
100
AcDbLine
 10
313.832064928355
 20
301.0636753000587
 30
0.0
 11
314.783751201743
 21
301.0636753000587
 31
0.0
  0
LINE
  5
1DB2
102
{ACAD_REACTORS
330
1D9B
102
}
330
18
100
AcDbEntity
  8
ROGO
 62
     4
100
AcDbLine
 10
315.4741620548734
 20
300.6795431343073
 30
0.0
 11
315.5086009431016
 21
300.6747295073421
 31
0.0
  0
LINE
  5
1DB3
102
{ACAD_REACTORS
330
1D9B
102
}
330
18
100
AcDbEntity
  8
ROGO
 62
     4
100
AcDbLine
 10
315.5912726114362
 20
300.5830120815919
 30
0.0
 11
315.5786258829876
 21
300.4925316038484
 31
0.0
  0
LINE
  5
1DB4
102
{ACAD_REACTORS
330
1D9B
102
}
330
18
100
AcDbEntity
  8
ROGO
 62
     4
100
AcDbLine
 10
315.3522753644452
 20
300.5259752815549
 30
0.0
 11
315.3649220928938
 21
300.6164557592984
 31
0.0
  0
LINE
  5
1DB5
102
{ACAD_REACTORS
330
1D9B
102
}
330
18
100
AcDbEntity
  8
ROGO
 62
     4
100
AcDbLine
 10
315.4413191805617
 20
300.4445701948427
 30
0.0
 11
315.4757580687899
 21
300.4397565678774
 31
0.0
  0
ARC
  5
1DB6
102
{ACAD_REACTORS
330
1D9B
102
}
330
18
100
AcDbEntity
  8
ROGO
 62
     4
100
AcDbCircle
 10
315.4916162356827
 20
300.576302196606
 30
0.0
 40
0.0998820093152177
100
AcDbArc
 50
3.851923331663601
 51
80.20940670206341
  0
ARC
  5
1DB7
102
{ACAD_REACTORS
330
1D9B
102
}
330
18
100
AcDbEntity
  8
ROGO
 62
     4
100
AcDbCircle
 10
315.460758873057
 20
300.5766298332475
 30
0.0
 40
0.1037824301982561
100
AcDbArc
 50
82.57970078354313
 51
157.4341870372611
  0
ARC
  5
1DB8
102
{ACAD_REACTORS
330
1D9B
102
}
330
18
100
AcDbEntity
  8
ROGO
 62
     4
100
AcDbCircle
 10
315.4470469840299
 20
300.5402376826979
 30
0.0
 40
0.0958388019806556
100
AcDbArc
 50
188.5583509056651
 51
266.5736774635929
  0
ARC
  5
1DB9
102
{ACAD_REACTORS
330
1D9B
102
}
330
18
100
AcDbEntity
  8
ROGO
 62
     4
100
AcDbCircle
 10
315.4963716521301
 20
300.5262183099651
 30
0.0
 40
0.0888850530907803
100
AcDbArc
 50
256.5902863289752
 51
337.7287536965499
  0
LINE
  5
1DBA
330
18
100
AcDbEntity
  8
ROGO
 62
     4
100
AcDbLine
 10
315.2654254220156
 20
301.0636753000586
 30
0.0
 11
315.534738831162
 21
301.0636753000586
 31
0.0
  0
LINE
  5
1DBB
102
{ACAD_REACTORS
330
1D9B
102
}
330
18
100
AcDbEntity
  8
ROGO
 62
     4
100
AcDbLine
 10
315.2654254220154
 20
301.0636753000586
 30
0.0
 11
315.6496994217932
 21
301.0636753000586
 31
0.0
  0
SPLINE
  5
1DBC
102
{ACAD_REACTORS
330
1D77
102
}
330
18
100
AcDbEntity
  8
ROGO
 62
     4
100
AcDbSpline
210
0.0
220
0.0
230
1.0
 70
     8
 71
     3
 72
    16
 73
    12
 74
    10
 42
0.0000000001
 43
0.0000000001
 44
0.0000000001
 40
0.0
 40
0.0
 40
0.0
 40
0.0
 40
0.090889463558755
 40
0.1352824120538207
 40
0.1571739758861895
 40
0.1802441192684573
 40
0.2132804986121272
 40
0.2433617673669184
 40
0.2747358298622198
 40
0.3273367126566715
 40
0.3794005943324707
 40
0.3794005943324707
 40
0.3794005943324707
 40
0.3794005943324707
 10
317.0747430786519
 20
300.7100955883602
 30
0.0
 10
317.0439637843124
 20
300.7054030772903
 30
0.0
 10
316.9981510243233
 20
300.698418612961
 30
0.0
 10
316.9567225146583
 20
300.6656242605121
 30
0.0
 10
316.9333597116523
 20
300.6461138037135
 30
0.0
 10
316.9254115819852
 20
300.6202764205874
 30
0.0
 10
316.9040654016531
 20
300.6004372765587
 30
0.0
 10
316.8864700772807
 20
300.5731719066316
 30
0.0
 10
316.8822687126701
 20
300.5357224794049
 30
0.0
 10
316.8853526104852
 20
300.483167915613
 30
0.0
 10
316.9222008228044
 20
300.4723266312569
 30
0.0
 10
316.9405304008229
 20
300.4669338006439
 30
0.0
 11
317.0747430786519
 21
300.7100955883602
 31
0.0
 11
316.9869887610364
 21
300.6864296988601
 31
0.0
 11
316.9508546127931
 21
300.6606409957748
 31
0.0
 11
316.9353685916641
 21
300.6451676730348
 31
0.0
 11
316.9250443796938
 21
300.6245365760482
 31
0.0
 11
316.9043962525797
 21
300.598747872963
 31
0.0
 11
316.8889102314506
 21
300.5729590017296
 31
0.0
 11
316.8837481254655
 21
300.5420125243977
 31
0.0
 11
316.8940723374357
 21
300.4904347819311
 31
0.0
 11
316.9405304008229
 21
300.4669338006439
 31
0.0
  0
LINE
  5
1DBD
102
{ACAD_REACTORS
330
1D77
102
}
330
18
100
AcDbEntity
  8
ROGO
 62
     4
100
AcDbLine
 10
316.9405304008229
 20
300.466933800644
 30
0.0
 11
317.5482040262596
 21
300.466933800644
 31
0.0
  0
LINE
  5
1DBE
102
{ACAD_REACTORS
330
1D77
102
}
330
18
100
AcDbEntity
  8
ROGO
 62
     4
100
AcDbLine
 10
317.0747430786519
 20
300.7100955883603
 30
0.0
 11
317.6694523470096
 21
300.7100955883603
 31
0.0
  0
LINE
  5
1DBF
102
{ACAD_REACTORS
330
1D76
102
}
330
18
100
AcDbEntity
  8
ROGO
 62
     4
100
AcDbLine
 10
318.4150011537085
 20
300.3212072739947
 30
0.0
 11
318.7852196909889
 21
299.5787392479309
 31
0.0
  0
LINE
  5
1DC0
102
{ACAD_REACTORS
330
1D76
102
}
330
18
100
AcDbEntity
  8
ROGO
 62
     4
100
AcDbLine
 10
318.0447945881688
 20
299.9663243467426
 30
0.0
 11
318.2380570362696
 21
299.5787392479309
 31
0.0
  0
LINE
  5
1DC1
102
{ACAD_REACTORS
330
1D76
102
}
330
18
100
AcDbEntity
  8
ROGO
 62
     4
100
AcDbLine
 10
318.0447945881688
 20
299.9663243467425
 30
0.0
 11
317.8515321400679
 21
299.5787392479309
 31
0.0
  0
LINE
  5
1DC2
102
{ACAD_REACTORS
330
1D76
102
}
330
18
100
AcDbEntity
  8
ROGO
 62
     4
100
AcDbLine
 10
318.2380570362696
 20
299.5787392479309
 30
0.0
 11
318.7852196909889
 21
299.5787392479309
 31
0.0
  0
LINE
  5
1DC3
102
{ACAD_REACTORS
330
1D76
102
}
330
18
100
AcDbEntity
  8
ROGO
 62
     4
100
AcDbLine
 10
318.4150011537085
 20
300.3212072739947
 30
0.0
 11
319.3144889884792
 21
301.0636753000586
 31
0.0
  0
LINE
  5
1DC4
102
{ACAD_REACTORS
330
1D76
102
}
330
18
100
AcDbEntity
  8
ROGO
 62
     4
100
AcDbLine
 10
318.76732633376
 20
301.0636753000586
 30
0.0
 11
319.3144889884792
 21
301.0636753000586
 31
0.0
  0
LINE
  5
1DC5
102
{ACAD_REACTORS
330
1D76
102
}
330
18
100
AcDbEntity
  8
ROGO
 62
     4
100
AcDbLine
 10
318.0447945881688
 20
301.0636753000586
 30
0.0
 11
318.5919692146288
 21
301.0636753000586
 31
0.0
  0
LINE
  5
1DC6
102
{ACAD_REACTORS
330
1D76
102
}
330
18
100
AcDbEntity
  8
ROGO
 62
     4
100
AcDbLine
 10
318.5919692146288
 20
301.0636753000586
 30
0.0
 11
318.5111285535326
 21
300.9015505007152
 31
0.0
  0
LINE
  5
1DC7
102
{ACAD_REACTORS
330
1D76
102
}
330
18
100
AcDbEntity
  8
ROGO
 62
     4
100
AcDbLine
 10
318.5111285535326
 20
300.9015505007152
 30
0.0
 11
318.76732633376
 21
301.0636753000586
 31
0.0
  0
LINE
  5
1DC8
330
18
100
AcDbEntity
  8
寸法線
 62
     2
100
AcDbLine
 10
389.4784531607314
 20
311.1726990004482
 30
0.0
 11
384.7480017385682
 21
327.9465645753618
 31
0.0
1001
ACAD
1000
DSTYLE
1002
{
1070
   271
1070
     2
1002
}
  0
LINE
  5
1DC9
330
18
100
AcDbEntity
  8
寸法線
 62
     2
100
AcDbLine
 10
384.7480017385682
 20
327.9465645753618
 30
0.0
 11
379.9563350719016
 21
327.9465645753618
 31
0.0
1001
ACAD
1000
DSTYLE
1002
{
1070
   271
1070
     2
1002
}
  0
TEXT
  5
1DCA
330
18
100
AcDbEntity
  8
外形線
 62
     6
100
AcDbText
 10
380.8784543600936
 20
328.5715645753618
 30
0.0
 40
2.5
  1
B
  7
STYLE3
100
AcDbText
  0
LINE
  5
1DCB
330
18
100
AcDbEntity
  8
寸法線
 62
     2
100
AcDbLine
 10
400.7056187612359
 20
281.528523558666
 30
0.0
 11
407.4877692775624
 21
293.5211881315137
 31
0.0
1001
ACAD
1000
DSTYLE
1002
{
1070
   271
1070
     2
1002
}
  0
LINE
  5
1DCC
330
18
100
AcDbEntity
  8
寸法線
 62
     2
100
AcDbLine
 10
407.4877692775624
 20
293.5211881315137
 30
0.0
 11
412.5175311823244
 21
293.5211881315137
 31
0.0
1001
ACAD
1000
DSTYLE
1002
{
1070
   271
1070
     2
1002
}
  0
INSERT
  5
234E
330
18
100
AcDbEntity
  8
目盛
100
AcDbBlockReference
  2
PC_PCN針
 10
313.4046399144317
 20
294.578739247931
 30
0.0
 50
306.0000000000002
  0
LINE
  5
238E
330
18
100
AcDbEntity
  8
外形線
100
AcDbLine
 10
312.0051581998195
 20
358.9286870672709
 30
0.0
 11
417.0051581998195
 21
358.9286870672709
 31
0.0
  0
LINE
  5
238F
330
18
100
AcDbEntity
  8
外形線
100
AcDbLine
 10
312.0051581998195
 20
357.9286870672709
 30
0.0
 11
417.0051581998195
 21
357.9286870672709
 31
0.0
  0
TEXT
  5
2390
330
18
100
AcDbEntity
  8
文字
100
AcDbText
 10
312.5816701998195
 20
360.058273067271
 30
0.0
 40
4.0
  1
Model No.PC-1L Pic Test Indicator
  7
STYLE3
100
AcDbText
  0
LINE
  5
2399
330
18
100
AcDbEntity
  8
外形線
100
AcDbLine
 10
350.9271511998195
 20
192.5291020672709
 30
0.0
 11
491.7185691998195
 21
192.5291020672709
 31
0.0
  0
LINE
  5
239A
330
18
100
AcDbEntity
  8
外形線
100
AcDbLine
 10
350.9271511998195
 20
181.7488960672709
 30
0.0
 11
491.7185691998195
 21
181.7488960672709
 31
0.0
  0
TEXT
  5
239B
330
18
100
AcDbEntity
  8
0
  6
Continuous
100
AcDbText
 10
352.3846181998195
 20
183.6468860672709
 30
0.0
 40
2.1
  1
Design and specifications are subject to change without notice for future improvement.
  7
STYLE3
100
AcDbText
  0
TEXT
  5
239C
330
18
100
AcDbEntity
  8
0
  6
Continuous
100
AcDbText
 10
352.6761121998196
 20
187.5760340672709
 30
0.0
 40
3.5
  1
仕様及び外観は予告なく変更される場合がございますのでご了承下さい。
  7
STYLE3
100
AcDbText
  0
TEXT
  5
239D
330
18
100
AcDbEntity
  8
0
  6
Continuous
100
AcDbText
 10
352.0931271998195
 20
173.8822580672709
 30
0.0
 40
2.1
  1
3RD Angle Projection
  7
STYLE3
100
AcDbText
  0
TEXT
  5
239E
330
18
100
AcDbEntity
  8
0
  6
Continuous
100
AcDbText
 10
354.7165701998196
 20
177.3785410672709
 30
0.0
 40
3.0
  1
三　　角　　法
  7
STYLE3
100
AcDbText
  0
LINE
  5
239F
330
18
100
AcDbEntity
  8
外形線
100
AcDbLine
 10
350.9271511998195
 20
172.1341180672709
 30
0.0
 11
350.9271511998195
 21
192.5291020672709
 31
0.0
  0
LINE
  5
23A0
330
18
100
AcDbEntity
  8
外形線
100
AcDbLine
 10
452.9499181998195
 20
181.7488960672709
 30
0.0
 11
452.9499181998195
 21
172.1341180672709
 31
0.0
  0
LINE
  5
23A1
330
18
100
AcDbEntity
  8
外形線
100
AcDbLine
 10
423.2175681998195
 20
181.7488960672709
 30
0.0
 11
423.2175681998195
 21
172.1341180672709
 31
0.0
  0
LINE
  5
23A2
330
18
100
AcDbEntity
  8
外形線
100
AcDbLine
 10
403.6874961998194
 20
181.7488960672709
 30
0.0
 11
403.6874961998194
 21
172.1341180672709
 31
0.0
  0
LINE
  5
23A3
330
18
100
AcDbEntity
  8
外形線
100
AcDbLine
 10
386.1978791998195
 20
181.7488960672709
 30
0.0
 11
386.1978791998195
 21
172.1341180672709
 31
0.0
  0
TEXT
  5
23A4
330
18
100
AcDbEntity
  8
0
  6
Continuous
100
AcDbText
 10
387.6553481998195
 20
177.3844960672709
 30
0.0
 40
3.0
  1
単位
  7
STYLE3
100
AcDbText
  0
TEXT
  5
23A5
330
18
100
AcDbEntity
  8
0
  6
Continuous
100
AcDbText
 10
387.8270691998196
 20
173.8822590672709
 30
0.0
 40
2.1
  1
Unit
  7
STYLE3
100
AcDbText
  0
TEXT
  5
23A6
330
18
100
AcDbEntity
  8
0
  6
Continuous
100
AcDbText
 10
404.9732441998195
 20
177.0931380672709
 30
0.0
 40
3.0
  1
尺 度
  7
STYLE3
100
AcDbText
  0
TEXT
  5
23A7
330
18
100
AcDbEntity
  8
0
  6
Continuous
100
AcDbText
 10
395.6973961998195
 20
175.6304020672709
 30
0.0
 40
2.399999999999999
  1
mm
  7
STYLE3
100
AcDbText
  0
TEXT
  5
23A8
330
18
100
AcDbEntity
  8
0
  6
Continuous
100
AcDbText
 10
405.4364591998194
 20
174.1736160672709
 30
0.0
 40
2.1
  1
Scale
  7
STYLE3
100
AcDbText
  0
TEXT
  5
23A9
330
18
100
AcDbEntity
  8
0
  6
Continuous
100
AcDbText
 10
415.0557481998196
 20
175.9217590672709
 30
0.0
 40
2.399999999999999
  1
1/1
  7
STYLE3
100
AcDbText
  0
TEXT
  5
23AA
330
18
100
AcDbEntity
  8
0
  6
Continuous
100
AcDbText
 10
425.1495191998195
 20
173.8822600672709
 30
0.0
 40
2.1
  1
Date
  7
STYLE3
100
AcDbText
  0
TEXT
  5
23AB
330
18
100
AcDbEntity
  8
0
  6
Continuous
100
AcDbText
 10
424.7661581998195
 20
177.2153430672709
 30
0.0
 40
3.0
  1
日 付
  7
STYLE3
100
AcDbText
  0
TEXT
  5
23AC
330
18
100
AcDbEntity
  8
0
  6
Continuous
100
AcDbText
 10
433.8943271998195
 20
175.6304010672709
 30
0.0
 40
2.1
  1
2010.06.14
  7
STYLE3
100
AcDbText
  0
TEXT
  5
23AD
330
18
100
AcDbEntity
  8
0
  6
Continuous
100
AcDbText
 10
454.2988811998196
 20
177.6698980672709
 30
0.0
 40
3.0
  1
株式会社　尾崎製作所
  7
STYLE3
100
AcDbText
  0
TEXT
  5
23AE
330
18
100
AcDbEntity
  8
0
  6
Continuous
100
AcDbText
 10
455.1733601998194
 20
173.8822590672709
 30
0.0
 40
2.1
  1
OZAKI MFG. CO., LTD.
  7
STYLE3
100
AcDbText
  0
ENDSEC
  0
SECTION
  2
OBJECTS
  0
DICTIONARY
  5
C
330
0
100
AcDbDictionary
281
     1
  3
ACAD_COLOR
350
1DD9
  3
ACAD_GROUP
350
D
  3
ACAD_IMAGE_DICT
350
B2C
  3
ACAD_LAYOUT
350
1DDC
  3
ACAD_MATERIAL
350
1DD8
  3
ACAD_MLINESTYLE
350
1B
  3
ACAD_PLOTSETTINGS
350
1DDD
  3
ACAD_PLOTSTYLENAME
350
1DD6
  3
ACAD_TABLESTYLE
350
1DDA
  3
ACDBVARIABLEDICTIONARY
350
1297
  0
DICTIONARY
  5
1E02
330
1E01
100
AcDbDictionary
280
     1
281
     1
  3
ACAD_SORTENTS
360
1E03
  0
DICTIONARY
  5
1DD9
102
{ACAD_REACTORS
330
C
102
}
330
C
100
AcDbDictionary
281
     1
  0
DICTIONARY
  5
D
102
{ACAD_REACTORS
330
C
102
}
330
C
100
AcDbDictionary
281
     1
  0
DICTIONARY
  5
B2C
102
{ACAD_REACTORS
330
C
102
}
330
C
100
AcDbDictionary
281
     1
  3
ROGO01
350
B2D
  0
DICTIONARY
  5
1DDC
102
{ACAD_REACTORS
330
C
102
}
330
C
100
AcDbDictionary
281
     1
  3
Model
350
1DDE
  3
レイアウト1
350
1DDF
  0
DICTIONARY
  5
1DD8
102
{ACAD_REACTORS
330
C
102
}
330
C
100
AcDbDictionary
281
     1
  0
DICTIONARY
  5
1B
102
{ACAD_REACTORS
330
C
102
}
330
C
100
AcDbDictionary
281
     1
  3
STANDARD
350
1C
  0
DICTIONARY
  5
1DDD
102
{ACAD_REACTORS
330
C
102
}
330
C
100
AcDbDictionary
281
     1
  0
ACDBDICTIONARYWDFLT
  5
1DD6
102
{ACAD_REACTORS
330
C
102
}
330
C
100
AcDbDictionary
281
     1
  3
Normal
350
1DD7
100
AcDbDictionaryWithDefault
340
1DD7
  0
DICTIONARY
  5
1DDA
102
{ACAD_REACTORS
330
C
102
}
330
C
100
AcDbDictionary
281
     1
  3
Standard
350
1DDB
  0
DICTIONARY
  5
1297
102
{ACAD_REACTORS
330
C
102
}
330
C
100
AcDbDictionary
281
     1
  3
CTABLESTYLE
350
1DEF
  3
SORTENTS
350
1298
  0
SORTENTSTABLE
  5
1E03
102
{ACAD_REACTORS
330
1E02
102
}
330
1E02
100
AcDbSortentsTable
330
1E01
  0
IMAGEDEF
  5
B2D
102
{ACAD_REACTORS
330
B2C
102
}
330
B2C
100
AcDbRasterImageDef
 90
        0
  1
D:\ﾃｽﾄ\rogo01.TIF
 10
3388.0
 20
4668.0
 11
0.0635
 21
0.0635
280
     1
281
     5
  0
LAYOUT
  5
1DDE
102
{ACAD_REACTORS
330
1DDC
102
}
330
1DDC
100
AcDbPlotSettings
  1

  2
A4 EPSON LP-6100.pc3
  4
A4
  6

 40
5.873749732971191
 41
5.873747825622558
 42
5.873748779296875
 43
5.873748779296875
 44
209.9733276367187
 45
297.0106506347656
 46
0.0
 47
25.0
 48
0.0
 49
0.0
140
0.0
141
0.0
142
1.0
143
1.0
 70
 28336
 72
     1
 73
     1
 74
     1
  7
AutoCAD LT 98.ctb
 75
    16
147
1.0
 76
     1
 77
     2
 78
   300
148
-236.4547188150987
149
-171.62613327917
100
AcDbLayout
  1
Model
 70
     1
 71
     0
 10
0.0
 20
0.0
 11
12.0
 21
9.0
 12
0.0
 22
0.0
 32
0.0
 14
0.0
 24
0.0
 34
0.0
 15
0.0
 25
0.0
 35
0.0
146
0.0
 13
0.0
 23
0.0
 33
0.0
 16
1.0
 26
0.0
 36
0.0
 17
0.0
 27
1.0
 37
0.0
 76
     0
330
18
1001
ACAD_PSEXT
1000
A4 EPSON LP-6100.pc3
1000
EPSON LP-6100
1000
\\SATO-MATE2
1000

1070
     0
  0
LAYOUT
  5
1DDF
102
{ACAD_REACTORS
330
1DDC
102
}
330
1DDC
100
AcDbPlotSettings
  1

  2
WIDR Printer
  4

  6

 40
0.0
 41
0.0
 42
0.0
 43
0.0
 44
0.0
 45
0.0
 46
0.0
 47
0.0
 48
0.0
 49
0.0
140
0.0
141
0.0
142
1.0
143
1.0
 70
   688
 72
     0
 73
     0
 74
     5
  7
AutoCad LT 98.ctb
 75
    16
147
1.0
 76
     0
 77
     2
 78
   300
148
0.0
149
0.0
100
AcDbLayout
  1
レイアウト1
 70
     1
 71
     1
 10
0.0
 20
0.0
 11
420.0
 21
297.0
 12
0.0
 22
0.0
 32
0.0
 14
1.000000000000000E+20
 24
1.000000000000000E+20
 34
1.000000000000000E+20
 15
-1.000000000000000E+20
 25
-1.000000000000000E+20
 35
-1.000000000000000E+20
146
0.0
 13
0.0
 23
0.0
 33
0.0
 16
1.0
 26
0.0
 36
0.0
 17
0.0
 27
1.0
 37
0.0
 76
     0
330
15
  0
MLINESTYLE
  5
1C
102
{ACAD_REACTORS
330
1B
102
}
330
1B
100
AcDbMlineStyle
  2
STANDARD
 70
     0
  3

 62
   256
 51
90.0
 52
90.0
 71
     2
 49
0.5
 62
   256
  6
BYLAYER
 49
-0.5
 62
   256
  6
BYLAYER
  0
ACDBPLACEHOLDER
  5
1DD7
102
{ACAD_REACTORS
330
1DD6
102
}
330
1DD6
  0
ACAD_PROXY_OBJECT
  5
1DDB
102
{ACAD_REACTORS
330
1DDA
102
}
330
1DDA
100
AcDbProxyObject
 90
      499
 91
      505
 95
  2555929
 70
     0
 93
     1849
310
4214DD185B99185C992420000000000000F83F0000000000003E0FC00000000000004901028000000C1008070000C3001FDFF8000000C1003FBFF000000182007F7FE00000030400FEFFC00000060801FDFF8000000C1003FBFF000000182000000000000000C2020B0000001820100E000186003FBFF000000182007F7FE0
310
0000030400FEFFC00000060801FDFF8000000C1003FBFF000000182007F7FE0000003040000000000000012404160000003040201C00030C007F7FE00000030400FEFFC00000060801FDFF8000000C1003FBFF000000182007F7FE00000030400FEFFC000000608065
340
F
340
F
340
F
 94
        0
  0
DICTIONARYVAR
  5
1DEF
102
{ACAD_REACTORS
330
1297
102
}
330
1297
100
DictionaryVariables
280
     0
  1
STANDARD
  0
DICTIONARYVAR
  5
1298
102
{ACAD_REACTORS
330
1297
102
}
330
1297
100
DictionaryVariables
280
     0
  1
96
  0
ENDSEC
  0
EOF
