  0
SECTION
  2
HEADER
  9
$ACADVER
  1
AC1018
  9
$ACADMAINTVER
 70
     0
  9
$DWGCODEPAGE
  3
ANSI_932
  9
$INSBASE
 10
0.0
 20
0.0
 30
0.0
  9
$EXTMIN
 10
236.4583261120649
 20
171.6287515666504
 30
-0.000000001396689
  9
$EXTMAX
 10
491.9215858715545
 20
367.0725802714662
 30
0.0000000044238995
  9
$LIMMIN
 10
0.0
 20
0.0
  9
$LIMMAX
 10
420.0
 20
297.0
  9
$ORTHOMODE
 70
     0
  9
$REGENMODE
 70
     1
  9
$FILLMODE
 70
     1
  9
$QTEXTMODE
 70
     0
  9
$MIRRTEXT
 70
     1
  9
$LTSCALE
 40
1.0
  9
$ATTMODE
 70
     1
  9
$TEXTSIZE
 40
1.5
  9
$TRACEWID
 40
1.0
  9
$TEXTSTYLE
  7
STYLE3
  9
$CLAYER
  8
外形線
  9
$CELTYPE
  6
BYLAYER
  9
$CECOLOR
 62
   256
  9
$CELTSCALE
 40
1.0
  9
$DISPSILH
 70
     0
  9
$DIMSCALE
 40
1.0
  9
$DIMASZ
 40
2.5
  9
$DIMEXO
 40
0.0
  9
$DIMDLI
 40
3.75
  9
$DIMRND
 40
0.0
  9
$DIMDLE
 40
0.0
  9
$DIMEXE
 40
1.25
  9
$DIMTP
 40
0.0
  9
$DIMTM
 40
0.0
  9
$DIMTXT
 40
2.5
  9
$DIMCEN
 40
2.5
  9
$DIMTSZ
 40
0.0
  9
$DIMTOL
 70
     0
  9
$DIMLIM
 70
     0
  9
$DIMTIH
 70
     0
  9
$DIMTOH
 70
     0
  9
$DIMSE1
 70
     0
  9
$DIMSE2
 70
     0
  9
$DIMTAD
 70
     1
  9
$DIMZIN
 70
     8
  9
$DIMBLK
  1

  9
$DIMASO
 70
     1
  9
$DIMSHO
 70
     1
  9
$DIMPOST
  1

  9
$DIMAPOST
  1

  9
$DIMALT
 70
     0
  9
$DIMALTD
 70
     4
  9
$DIMALTF
 40
0.0394
  9
$DIMLFAC
 40
1.0
  9
$DIMTOFL
 70
     1
  9
$DIMTVP
 40
0.0
  9
$DIMTIX
 70
     0
  9
$DIMSOXD
 70
     0
  9
$DIMSAH
 70
     1
  9
$DIMBLK1
  1
OPEN
  9
$DIMBLK2
  1
OPEN
  9
$DIMSTYLE
  2
STYLE3
  9
$DIMCLRD
 70
     2
  9
$DIMCLRE
 70
     2
  9
$DIMCLRT
 70
     6
  9
$DIMTFAC
 40
1.0
  9
$DIMGAP
 40
0.625
  9
$DIMJUST
 70
     0
  9
$DIMSD1
 70
     0
  9
$DIMSD2
 70
     0
  9
$DIMTOLJ
 70
     1
  9
$DIMTZIN
 70
     0
  9
$DIMALTZ
 70
     0
  9
$DIMALTTZ
 70
     0
  9
$DIMUPT
 70
     0
  9
$DIMDEC
 70
     2
  9
$DIMTDEC
 70
     4
  9
$DIMALTU
 70
     8
  9
$DIMALTTD
 70
     4
  9
$DIMTXSTY
  7
STYLE3
  9
$DIMAUNIT
 70
     0
  9
$DIMADEC
 70
     0
  9
$DIMALTRND
 40
0.0
  9
$DIMAZIN
 70
     0
  9
$DIMDSEP
 70
    46
  9
$DIMATFIT
 70
     3
  9
$DIMFRAC
 70
     0
  9
$DIMLDRBLK
  1

  9
$DIMLUNIT
 70
     2
  9
$DIMLWD
 70
    -2
  9
$DIMLWE
 70
    -2
  9
$DIMTMOVE
 70
     0
  9
$LUNITS
 70
     2
  9
$LUPREC
 70
     4
  9
$SKETCHINC
 40
1.0
  9
$FILLETRAD
 40
0.0
  9
$AUNITS
 70
     0
  9
$AUPREC
 70
     0
  9
$MENU
  1
.
  9
$ELEVATION
 40
0.0
  9
$PELEVATION
 40
0.0
  9
$THICKNESS
 40
0.0
  9
$LIMCHECK
 70
     0
  9
$CHAMFERA
 40
0.35
  9
$CHAMFERB
 40
0.35
  9
$CHAMFERC
 40
20.0
  9
$CHAMFERD
 40
0.0
  9
$SKPOLY
 70
     0
  9
$TDCREATE
 40
2451066.662483449
  9
$TDUCREATE
 40
2451066.287483449
  9
$TDUPDATE
 40
2455363.355606193
  9
$TDUUPDATE
 40
2455362.980606192
  9
$TDINDWG
 40
0.6725333796
  9
$TDUSRTIMER
 40
0.6725333796
  9
$USRTIMER
 70
     1
  9
$ANGBASE
 50
0.0
  9
$ANGDIR
 70
     0
  9
$PDMODE
 70
     0
  9
$PDSIZE
 40
0.0
  9
$PLINEWID
 40
0.0
  9
$SPLFRAME
 70
     0
  9
$SPLINETYPE
 70
     6
  9
$SPLINESEGS
 70
     8
  9
$HANDSEED
  5
218F
  9
$SURFTAB1
 70
     6
  9
$SURFTAB2
 70
     6
  9
$SURFTYPE
 70
     6
  9
$SURFU
 70
     6
  9
$SURFV
 70
     6
  9
$UCSBASE
  2

  9
$UCSNAME
  2

  9
$UCSORG
 10
0.0
 20
0.0
 30
0.0
  9
$UCSXDIR
 10
1.0
 20
0.0
 30
0.0
  9
$UCSYDIR
 10
0.0
 20
1.0
 30
0.0
  9
$UCSORTHOREF
  2

  9
$UCSORTHOVIEW
 70
     0
  9
$UCSORGTOP
 10
0.0
 20
0.0
 30
0.0
  9
$UCSORGBOTTOM
 10
0.0
 20
0.0
 30
0.0
  9
$UCSORGLEFT
 10
0.0
 20
0.0
 30
0.0
  9
$UCSORGRIGHT
 10
0.0
 20
0.0
 30
0.0
  9
$UCSORGFRONT
 10
0.0
 20
0.0
 30
0.0
  9
$UCSORGBACK
 10
0.0
 20
0.0
 30
0.0
  9
$PUCSBASE
  2

  9
$PUCSNAME
  2

  9
$PUCSORG
 10
0.0
 20
0.0
 30
0.0
  9
$PUCSXDIR
 10
1.0
 20
0.0
 30
0.0
  9
$PUCSYDIR
 10
0.0
 20
1.0
 30
0.0
  9
$PUCSORTHOREF
  2

  9
$PUCSORTHOVIEW
 70
     0
  9
$PUCSORGTOP
 10
0.0
 20
0.0
 30
0.0
  9
$PUCSORGBOTTOM
 10
0.0
 20
0.0
 30
0.0
  9
$PUCSORGLEFT
 10
0.0
 20
0.0
 30
0.0
  9
$PUCSORGRIGHT
 10
0.0
 20
0.0
 30
0.0
  9
$PUCSORGFRONT
 10
0.0
 20
0.0
 30
0.0
  9
$PUCSORGBACK
 10
0.0
 20
0.0
 30
0.0
  9
$USERI1
 70
     0
  9
$USERI2
 70
     0
  9
$USERI3
 70
     0
  9
$USERI4
 70
     0
  9
$USERI5
 70
     0
  9
$USERR1
 40
0.0
  9
$USERR2
 40
0.0
  9
$USERR3
 40
0.0
  9
$USERR4
 40
0.0
  9
$USERR5
 40
0.0
  9
$WORLDVIEW
 70
     1
  9
$SHADEDGE
 70
     3
  9
$SHADEDIF
 70
    70
  9
$TILEMODE
 70
     1
  9
$MAXACTVP
 70
    48
  9
$PINSBASE
 10
0.0
 20
0.0
 30
0.0
  9
$PLIMCHECK
 70
     0
  9
$PEXTMIN
 10
1.000000000000000E+20
 20
1.000000000000000E+20
 30
1.000000000000000E+20
  9
$PEXTMAX
 10
-1.000000000000000E+20
 20
-1.000000000000000E+20
 30
-1.000000000000000E+20
  9
$PLIMMIN
 10
0.0
 20
0.0
  9
$PLIMMAX
 10
420.0
 20
297.0
  9
$UNITMODE
 70
     0
  9
$VISRETAIN
 70
     1
  9
$PLINEGEN
 70
     0
  9
$PSLTSCALE
 70
     1
  9
$TREEDEPTH
 70
  3020
  9
$CMLSTYLE
  2
STANDARD
  9
$CMLJUST
 70
     0
  9
$CMLSCALE
 40
20.0
  9
$PROXYGRAPHICS
 70
     1
  9
$MEASUREMENT
 70
     1
  9
$CELWEIGHT
370
    -1
  9
$ENDCAPS
280
     0
  9
$JOINSTYLE
280
     0
  9
$LWDISPLAY
290
     0
  9
$INSUNITS
 70
     0
  9
$HYPERLINKBASE
  1

  9
$STYLESHEET
  1
AutoCAD LT 98.ctb
  9
$XEDIT
290
     1
  9
$CEPSNTYPE
380
     0
  9
$PSTYLEMODE
290
     1
  9
$FINGERPRINTGUID
  2
{FA1EBBB6-2DC3-480F-BDFC-889AA3854D37}
  9
$VERSIONGUID
  2
{98997942-D445-40B5-9DFE-9C8AB3C9AFE8}
  9
$EXTNAMES
290
     1
  9
$PSVPSCALE
 40
0.0
  9
$OLESTARTUP
290
     0
  9
$SORTENTS
280
    96
  9
$INDEXCTL
280
     0
  9
$HIDETEXT
280
     0
  9
$XCLIPFRAME
290
     0
  9
$HALOGAP
280
     0
  9
$OBSCOLOR
 70
   257
  9
$OBSLTYPE
280
     0
  9
$INTERSECTIONDISPLAY
280
     0
  9
$INTERSECTIONCOLOR
 70
   257
  9
$DIMASSOC
280
     1
  9
$PROJECTNAME
  1

  0
ENDSEC
  0
SECTION
  2
CLASSES
  0
CLASS
  1
HATCH
  2
AcDbHatch
  3
ObjectDBX Classes
 90
        0
 91
       12
280
     0
281
     1
  0
CLASS
  1
LWPOLYLINE
  2
AcDbPolyline
  3
ObjectDBX Classes
 90
        0
 91
        1
280
     0
281
     1
  0
CLASS
  1
IMAGEDEF
  2
AcDbRasterImageDef
  3
ISM
 90
        0
 91
        1
280
     0
281
     0
  0
CLASS
  1
DICTIONARYVAR
  2
AcDbDictionaryVar
  3
ObjectDBX Classes
 90
        0
 91
        2
280
     0
281
     0
  0
CLASS
  1
ACDBDICTIONARYWDFLT
  2
AcDbDictionaryWithDefault
  3
ObjectDBX Classes
 90
        0
 91
        1
280
     0
281
     0
  0
CLASS
  1
TABLESTYLE
  2
AcDbTableStyle
  3
ObjectDBX Classes
 90
     2047
 91
        1
280
     0
281
     0
  0
CLASS
  1
SORTENTSTABLE
  2
AcDbSortentsTable
  3
ObjectDBX Classes
 90
        0
 91
        2
280
     0
281
     0
  0
ENDSEC
  0
SECTION
  2
TABLES
  0
TABLE
  2
VPORT
  5
8
330
0
100
AcDbSymbolTable
 70
     2
  0
VPORT
  5
218E
330
8
100
AcDbSymbolTableRecord
100
AcDbViewportTableRecord
  2
*Active
 70
     0
 10
0.0
 20
0.0
 11
1.0
 21
1.0
 12
364.1899559918097
 22
269.3506659190583
 13
0.0
 23
0.0
 14
10.0
 24
10.0
 15
10.0
 25
10.0
 16
0.0
 26
0.0
 36
1.0
 17
0.0
 27
0.0
 37
0.0
 40
196.9300935618867
 41
1.530456852791878
 42
50.0
 43
0.0
 44
0.0
 50
0.0
 51
0.0
 71
     0
 72
   100
 73
     1
 74
     1
 75
     0
 76
     0
 77
     0
 78
     0
281
     0
 65
     1
110
0.0
120
0.0
130
0.0
111
1.0
121
0.0
131
0.0
112
0.0
122
1.0
132
0.0
 79
     0
146
0.0
  0
ENDTAB
  0
TABLE
  2
LTYPE
  5
5
330
0
100
AcDbSymbolTable
 70
     3
  0
LTYPE
  5
12
330
5
100
AcDbSymbolTableRecord
100
AcDbLinetypeTableRecord
  2
BYBLOCK
 70
     0
  3

 72
    65
 73
     0
 40
0.0
  0
LTYPE
  5
13
330
5
100
AcDbSymbolTableRecord
100
AcDbLinetypeTableRecord
  2
BYLAYER
 70
     0
  3

 72
    65
 73
     0
 40
0.0
  0
LTYPE
  5
14
330
5
100
AcDbSymbolTableRecord
100
AcDbLinetypeTableRecord
  2
CONTINUOUS
 70
     0
  3
Solid line
 72
    65
 73
     0
 40
0.0
  0
LTYPE
  5
22
330
5
100
AcDbSymbolTableRecord
100
AcDbLinetypeTableRecord
  2
CENTER2
 70
     0
  3
Center (.5x) ___ _ ___ _ ___ _ ___ _ ___ _ ___
 72
    65
 73
     4
 40
28.575
 49
19.05
 74
     0
 49
-3.174999999999999
 74
     0
 49
3.174999999999999
 74
     0
 49
-3.174999999999999
 74
     0
  0
LTYPE
  5
23
330
5
100
AcDbSymbolTableRecord
100
AcDbLinetypeTableRecord
  2
HIDDEN2
 70
     0
  3
Hidden (.5x) _ _ _ _ _ _ _ _ _ _ _ _ _ _ _ _ _
 72
    65
 73
     2
 40
4.762499999999999
 49
3.174999999999999
 74
     0
 49
-1.587499999999999
 74
     0
  0
ENDTAB
  0
TABLE
  2
LAYER
  5
2
330
0
100
AcDbSymbolTable
 70
    11
  0
LAYER
  5
E
330
2
100
AcDbSymbolTableRecord
100
AcDbLayerTableRecord
  2
0
 70
     0
 62
     7
  6
CONTINUOUS
370
    -3
390
1BCB
  0
LAYER
  5
25
330
2
100
AcDbSymbolTableRecord
100
AcDbLayerTableRecord
  2
外形線
 70
     0
 62
     7
  6
CONTINUOUS
370
    -3
390
1BCB
  0
LAYER
  5
26
330
2
100
AcDbSymbolTableRecord
100
AcDbLayerTableRecord
  2
寸法線
 70
     0
 62
     2
  6
CONTINUOUS
370
    -3
390
1BCB
  0
LAYER
  5
27
330
2
100
AcDbSymbolTableRecord
100
AcDbLayerTableRecord
  2
中心線
 70
     0
 62
     4
  6
CENTER2
370
    -3
390
1BCB
  0
LAYER
  5
28
330
2
100
AcDbSymbolTableRecord
100
AcDbLayerTableRecord
  2
隠れ線
 70
     0
 62
     6
  6
HIDDEN2
370
    -3
390
1BCB
  0
LAYER
  5
2B
330
2
100
AcDbSymbolTableRecord
100
AcDbLayerTableRecord
  2
文字
 70
     0
 62
     6
  6
CONTINUOUS
370
    -3
390
1BCB
  0
LAYER
  5
2C
330
2
100
AcDbSymbolTableRecord
100
AcDbLayerTableRecord
  2
目盛
 70
     0
 62
    70
  6
CONTINUOUS
370
    -3
390
1BCB
  0
LAYER
  5
2D
330
2
100
AcDbSymbolTableRecord
100
AcDbLayerTableRecord
  2
針
 70
     0
 62
     5
  6
CONTINUOUS
370
    -3
390
1BCB
  0
LAYER
  5
53
330
2
100
AcDbSymbolTableRecord
100
AcDbLayerTableRecord
  2
DEFPOINTS
 70
     0
 62
     7
  6
CONTINUOUS
290
     0
370
    -3
390
1BCB
  0
LAYER
  5
A5
330
2
100
AcDbSymbolTableRecord
100
AcDbLayerTableRecord
  2
C
 70
     0
 62
     7
  6
CONTINUOUS
370
    -3
390
1BCB
  0
LAYER
  5
AD4
330
2
100
AcDbSymbolTableRecord
100
AcDbLayerTableRecord
  2
ROGO
 70
     0
 62
     6
  6
CONTINUOUS
370
    -3
390
1BCB
  0
ENDTAB
  0
TABLE
  2
STYLE
  5
3
330
0
100
AcDbSymbolTable
 70
     3
  0
STYLE
  5
F
330
3
100
AcDbSymbolTableRecord
100
AcDbTextStyleTableRecord
  2
STANDARD
 70
     0
 40
0.0
 41
1.0
 50
0.0
 71
     0
 42
2.5
  3
txt
  4

  0
STYLE
  5
3F
330
3
100
AcDbSymbolTableRecord
100
AcDbTextStyleTableRecord
  2
STYLE3
 70
     0
 40
0.0
 41
1.0
 50
0.0
 71
     0
 42
1.5
  3
romans.shx
  4
bigfont.shx
  0
ENDTAB
  0
TABLE
  2
VIEW
  5
6
330
0
100
AcDbSymbolTable
 70
     0
  0
ENDTAB
  0
TABLE
  2
UCS
  5
7
330
0
100
AcDbSymbolTable
 70
     0
  0
ENDTAB
  0
TABLE
  2
APPID
  5
9
330
0
100
AcDbSymbolTable
 70
     2
  0
APPID
  5
10
330
9
100
AcDbSymbolTableRecord
100
AcDbRegAppTableRecord
  2
ACAD
 70
     0
  0
APPID
  5
1BF3
330
9
100
AcDbSymbolTableRecord
100
AcDbRegAppTableRecord
  2
ACAD_PSEXT
 70
     0
  0
ENDTAB
  0
TABLE
  2
DIMSTYLE
  5
A
330
0
100
AcDbSymbolTable
 70
     3
100
AcDbDimStyleTable
 71
     1
340
8F
  0
DIMSTYLE
105
1D
330
A
100
AcDbSymbolTableRecord
100
AcDbDimStyleTableRecord
  2
STANDARD
 70
     0
 41
2.5
 42
0.625
 43
3.75
 44
1.25
 73
     0
 74
     0
 77
     1
 78
     8
140
2.5
141
2.5
143
0.0394
147
0.625
171
     4
172
     1
273
     8
274
     4
277
     6
340
F
  0
DIMSTYLE
105
8F
330
A
100
AcDbSymbolTableRecord
100
AcDbDimStyleTableRecord
  2
STYLE3
 70
     0
 41
2.5
 42
0.0
 43
3.75
 44
1.25
 73
     0
 74
     0
 77
     1
 78
     8
140
2.5
141
2.5
143
0.0394
147
0.625
171
     4
172
     1
173
     1
176
     2
177
     2
178
     6
271
     1
273
     8
274
     4
340
3F
341
45
343
45
344
45
  0
ENDTAB
  0
TABLE
  2
BLOCK_RECORD
  5
1
330
0
100
AcDbSymbolTable
 70
     7
  0
BLOCK_RECORD
  5
18
330
1
100
AcDbSymbolTableRecord
100
AcDbBlockTableRecord
  2
*MODEL_SPACE
340
1BD2
  0
BLOCK_RECORD
  5
15
330
1
100
AcDbSymbolTableRecord
100
AcDbBlockTableRecord
  2
*PAPER_SPACE
340
1BD3
  0
BLOCK_RECORD
  5
45
330
1
100
AcDbSymbolTableRecord
100
AcDbBlockTableRecord
  2
_OPEN
340
0
102
{BLKREFS
331
1463
331
1464
331
1637
331
1638
331
1654
331
1669
331
166A
331
168B
331
168C
331
16B5
331
16B6
331
1A72
331
1A73
331
1A7B
331
1A7C
331
1A84
331
1A85
331
1A8D
331
1A8E
331
1A96
331
1A97
331
1AF1
331
1AF2
331
1AFB
331
1AFC
331
1B04
331
1B05
331
1B0D
331
1B0E
331
1B16
331
1B17
331
1B1F
331
1B20
102
}
  0
BLOCK_RECORD
  5
ADD
330
1
100
AcDbSymbolTableRecord
100
AcDbBlockTableRecord
  2
ROGO1
340
0
102
{BLKREFS
331
B43
331
B44
331
FCB
331
FCC
102
}
  0
BLOCK_RECORD
  5
1BD8
102
{ACAD_XDICTIONARY
360
1BD9
102
}
330
1
100
AcDbSymbolTableRecord
100
AcDbBlockTableRecord
  2
PC_PCN針
340
0
102
{BLKREFS
331
2133
102
}
  0
ENDTAB
  0
ENDSEC
  0
SECTION
  2
BLOCKS
  0
BLOCK
  5
19
330
18
100
AcDbEntity
  8
0
100
AcDbBlockBegin
  2
*MODEL_SPACE
 70
     0
 10
0.0
 20
0.0
 30
0.0
  3
*MODEL_SPACE
  1

  0
ENDBLK
  5
1A
330
18
100
AcDbEntity
  8
0
100
AcDbBlockEnd
  0
BLOCK
  5
16
330
15
100
AcDbEntity
 67
     1
  8
0
100
AcDbBlockBegin
  2
*PAPER_SPACE
 70
     0
 10
0.0
 20
0.0
 30
0.0
  3
*PAPER_SPACE
  1

  0
ENDBLK
  5
17
330
15
100
AcDbEntity
 67
     1
  8
0
100
AcDbBlockEnd
  0
BLOCK
  5
46
330
45
100
AcDbEntity
  8
0
100
AcDbBlockBegin
  2
_OPEN
 70
     0
 10
0.0
 20
0.0
 30
0.0
  3
_OPEN
  1

  0
LINE
  5
47
330
45
100
AcDbEntity
  8
0
  6
ByBlock
 62
     0
100
AcDbLine
 10
-1.0
 20
0.1666666666666666
 30
0.0
 11
0.0
 21
0.0
 31
0.0
  0
LINE
  5
48
330
45
100
AcDbEntity
  8
0
  6
ByBlock
 62
     0
100
AcDbLine
 10
0.0
 20
0.0
 30
0.0
 11
-1.0
 21
-0.1666666666666666
 31
0.0
  0
LINE
  5
49
330
45
100
AcDbEntity
  8
0
  6
ByBlock
 62
     0
100
AcDbLine
 10
0.0
 20
0.0
 30
0.0
 11
-1.0
 21
0.0
 31
0.0
  0
ENDBLK
  5
4A
330
45
100
AcDbEntity
  8
0
100
AcDbBlockEnd
  0
BLOCK
  5
B2A
330
ADD
100
AcDbEntity
  8
0
100
AcDbBlockBegin
  2
ROGO1
 70
     0
 10
0.0
 20
0.0
 30
0.0
  3
ROGO1
  1

  0
MTEXT
  5
B42
330
ADD
100
AcDbEntity
  8
DEFPOINTS
  6
Continuous
100
AcDbMText
 10
1039.786461861274
 20
160.9640365185991
 30
0.0
 40
1.0
 41
0.0
 71
     4
 72
     1
  1
\A1;
 73
     1
 44
1.0
  0
ENDBLK
  5
B2B
330
ADD
100
AcDbEntity
  8
0
100
AcDbBlockEnd
  0
BLOCK
  5
1BDB
330
1BD8
100
AcDbEntity
  8
0
100
AcDbBlockBegin
  2
PC_PCN針
 70
     0
 10
0.0
 20
0.0
 30
0.0
  3
PC_PCN針
  1

  0
HATCH
  5
1BDC
330
1BD8
100
AcDbEntity
  8
針
 62
     5
100
AcDbHatch
 10
0.0
 20
0.0
 30
0.0
210
0.0
220
0.0
230
1.0
  2
SOLID
 70
     1
 71
     1
 91
        2
 92
        7
 72
     1
 73
     1
 93
        7
 10
-2.023904563850578
 20
-0.2645931338153105
 42
-0.1640812035095904
 10
-1.421638696153195
 20
-0.4784803210162636
 42
-0.0813437861988258
 10
-1.5
 20
0.0
 42
-0.0813437861988211
 10
-1.421638696153195
 20
0.4784803210162352
 42
-0.1640812035095877
 10
-2.023904563850578
 20
0.2645931338153105
 42
0.0
 10
-14.19999999999993
 20
0.07000000000005
 42
0.0
 10
-14.20000000000004
 20
-0.0700000000000216
 42
0.0
 97
        6
330
1BE0
330
1BE2
330
1BDD
330
1BE3
330
1BE1
330
1BE9
 92
        7
 72
     1
 73
     1
 93
        9
 10
1.601307174430758
 20
0.4866168858272318
 42
-0.1053331282509662
 10
1.399713151580613
 20
0.5392616185973793
 42
-0.0921949713546931
 10
1.5
 20
0.0
 42
-0.0921949713546883
 10
1.399713151580613
 20
-0.5392616185973509
 42
-0.1053331282510194
 10
1.601307174430871
 20
-0.4866168858272318
 42
0.0
 10
6.657469727507077
 20
-0.256172195646343
 42
-0.2863987309427536
 10
6.842033426437637
 20
-0.359972204586029
 42
3.911320250910649
 10
6.842033426437637
 20
0.3599722045860858
 42
-0.2863987309427981
 10
6.657469727507077
 20
0.256172195646343
 42
0.0
 97
        8
330
1BE7
330
1BE4
330
1BDF
330
1BE9
330
1BDE
330
1BE5
330
1BE8
330
1BE6
 75
     0
 76
     1
 47
0.0259966004614645
 98
        2
 10
-6.998752094249084
 20
-0.0094903483859525
 10
3.014397170732763
 20
0.0944959703959967
450
        0
451
        0
460
0.0
461
0.0
452
        1
462
1.0
453
        2
463
0.0
 63
     5
421
      255
463
1.0
 63
    51
421
 16777113
470
LINEAR
  0
LINE
  5
1BDD
102
{ACAD_REACTORS
330
1BDC
102
}
330
1BD8
100
AcDbEntity
  8
針
100
AcDbLine
 10
-14.20000000000004
 20
0.0700000000000216
 30
0.0
 11
-14.20000000000004
 21
-0.0699999999999932
 31
0.0
  0
ARC
  5
1BDE
102
{ACAD_REACTORS
330
1BDC
102
}
330
1BD8
100
AcDbEntity
  8
針
100
AcDbCircle
 10
1.624072039381871
 20
-0.9860983779005323
 30
0.0
 40
0.5
100
AcDbArc
 50
92.60956348104661
 51
116.6614474826241
  0
ARC
  5
1BDF
102
{ACAD_REACTORS
330
1BDC
102
}
330
1BD8
100
AcDbEntity
  8
針
100
AcDbCircle
 10
1.624072039381871
 20
0.9860983779005323
 30
0.0
 40
0.5
100
AcDbArc
 50
243.3385525173759
 51
267.3904365189533
  0
ARC
  5
1BE0
102
{ACAD_REACTORS
330
1BDC
102
}
330
1BD8
100
AcDbEntity
  8
針
100
AcDbCircle
 10
-2.039884094318267
 20
1.264465452967101
 30
0.0
 40
1.0
100
AcDbArc
 50
270.9155986228672
 51
308.1881170613605
  0
ARC
  5
1BE1
102
{ACAD_REACTORS
330
1BDC
102
}
330
1BD8
100
AcDbEntity
  8
針
100
AcDbCircle
 10
-2.039884094318267
 20
-1.264465452967101
 30
0.0
 40
1.0
100
AcDbArc
 50
51.8118829386395
 51
89.08440137713276
  0
LINE
  5
1BE2
102
{ACAD_REACTORS
330
1BDC
102
}
330
1BD8
100
AcDbEntity
  8
針
100
AcDbLine
 10
-14.20000000000004
 20
0.0700000000000216
 30
0.0
 11
-2.023904563850578
 21
0.2645931338153105
 31
0.0
  0
LINE
  5
1BE3
102
{ACAD_REACTORS
330
1BDC
102
}
330
1BD8
100
AcDbEntity
  8
針
100
AcDbLine
 10
-2.023904563850578
 20
-0.2645931338153105
 30
0.0
 11
-14.20000000000004
 21
-0.0699999999999932
 31
0.0
  0
LINE
  5
1BE4
102
{ACAD_REACTORS
330
1BDC
102
}
330
1BD8
100
AcDbEntity
  8
針
100
AcDbLine
 10
1.601307174430758
 20
0.4866168858272318
 30
0.0
 11
6.657469727507077
 21
0.256172195646343
 31
0.0
  0
LINE
  5
1BE5
102
{ACAD_REACTORS
330
1BDC
102
}
330
1BD8
100
AcDbEntity
  8
針
100
AcDbLine
 10
1.601307174430758
 20
-0.4866168858272318
 30
0.0
 11
6.657469727507077
 21
-0.256172195646343
 31
0.0
  0
ARC
  5
1BE6
102
{ACAD_REACTORS
330
1BDC
102
}
330
1BD8
100
AcDbEntity
  8
針
100
AcDbCircle
 10
7.5
 20
0.0
 30
0.0
 40
0.75
100
AcDbArc
 50
208.6829815593726
 51
151.3170184406274
  0
ARC
  5
1BE7
102
{ACAD_REACTORS
330
1BDC
102
}
330
1BD8
100
AcDbEntity
  8
針
100
AcDbCircle
 10
6.666575673487614
 20
0.4559647924756405
 30
0.0
 40
0.2
100
AcDbArc
 50
267.3904365189468
 51
331.3170184406275
  0
ARC
  5
1BE8
102
{ACAD_REACTORS
330
1BDC
102
}
330
1BD8
100
AcDbEntity
  8
針
100
AcDbCircle
 10
6.666575673487614
 20
-0.4559647924756405
 30
0.0
 40
0.2
100
AcDbArc
 50
28.68298155937256
 51
92.60956348105315
  0
CIRCLE
  5
1BE9
102
{ACAD_REACTORS
330
1BDC
102
}
330
1BD8
100
AcDbEntity
  8
外形線
100
AcDbCircle
 10
0.0
 20
0.0
 30
0.0
 40
1.5
  0
CIRCLE
  5
1BEA
330
1BD8
100
AcDbEntity
  8
外形線
 62
     4
100
AcDbCircle
 10
0.0
 20
0.0
 30
0.0
 40
0.25
  0
ENDBLK
  5
1BEB
330
1BD8
100
AcDbEntity
  8
0
100
AcDbBlockEnd
  0
ENDSEC
  0
SECTION
  2
ENTITIES
  0
LWPOLYLINE
  5
10B
330
18
100
AcDbEntity
  8
C
100
AcDbPolyline
 90
        5
 70
     0
 43
0.4
 10
236.6915604445414
 20
366.8501752555372
 10
491.6915604445414
 20
366.8501752555372
 10
491.6915604445414
 20
171.8501752555372
 10
236.6915604445414
 20
171.8501752555372
 10
236.6915604445414
 20
366.8501752555372
  0
LINE
  5
16B
330
18
100
AcDbEntity
  8
中心線
 48
0.5
100
AcDbLine
 10
314.8707387616321
 20
319.6822908648003
 30
0.0
 11
314.8707387616321
 21
221.6206324763448
 31
0.0
  0
LINE
  5
16C
330
18
100
AcDbEntity
  8
外形線
100
AcDbLine
 10
311.8707387616321
 20
313.9659612898435
 30
0.0
 11
317.8707387616321
 21
313.9659612898435
 31
0.0
  0
LINE
  5
16D
330
18
100
AcDbEntity
  8
外形線
100
AcDbLine
 10
311.8707387616321
 20
298.7698088671368
 30
0.0
 11
317.8707387616321
 21
298.7698088671368
 31
0.0
  0
LINE
  5
16E
330
18
100
AcDbEntity
  8
外形線
100
AcDbLine
 10
317.8707387616321
 20
313.9659612898435
 30
0.0
 11
317.8707387616321
 21
298.7698088671368
 31
0.0
  0
LINE
  5
16F
330
18
100
AcDbEntity
  8
外形線
100
AcDbLine
 10
311.8707387616321
 20
313.9659612898435
 30
0.0
 11
311.8707387616321
 21
298.7698088671368
 31
0.0
  0
ARC
  5
170
330
18
100
AcDbEntity
  8
外形線
100
AcDbCircle
 10
314.8707387616321
 20
308.7698088671368
 30
0.0
 40
6.0
100
AcDbArc
 50
60.0
 51
120.0
  0
CIRCLE
  5
172
330
18
100
AcDbEntity
  8
外形線
100
AcDbCircle
 10
314.8707387616321
 20
281.1698088671369
 30
0.0
 40
17.5
  0
LINE
  5
17D
330
18
100
AcDbEntity
  8
中心線
 48
0.5
100
AcDbLine
 10
311.1221339453099
 20
225.1698088671368
 30
0.0
 11
319.0017873610207
 21
225.1698088671368
 31
0.0
  0
LINE
  5
305
330
18
100
AcDbEntity
  8
中心線
 48
0.5
100
AcDbLine
 10
294.0115812234378
 20
281.1698088671369
 30
0.0
 11
335.5159413527228
 21
281.1698088671369
 31
0.0
  0
CIRCLE
  5
307
330
18
100
AcDbEntity
  8
外形線
100
AcDbCircle
 10
314.8707387616321
 20
281.1698088671369
 30
0.0
 40
15.0
  0
TEXT
  5
351
330
18
100
AcDbEntity
  8
文字
100
AcDbText
 10
313.9660462433255
 20
291.4710639182074
 30
0.0
 40
1.8
  1
0
 41
0.9
  7
STYLE3
100
AcDbText
  0
TEXT
  5
35E
330
18
100
AcDbEntity
  8
文字
100
AcDbText
 10
317.3045229129127
 20
280.7604690825617
 30
0.0
 40
0.8
  1
0.002mm
  7
STYLE3
100
AcDbText
  0
TEXT
  5
35F
330
18
100
AcDbEntity
  8
文字
100
AcDbText
 10
307.9303042768897
 20
280.7957578178874
 30
0.0
 40
0.8
  1
Jeweled
  7
STYLE3
100
AcDbText
  0
TEXT
  5
363
330
18
100
AcDbEntity
  8
文字
100
AcDbText
 10
312.5669869808053
 20
276.137692524756
 30
0.0
 40
1.0
  1
PC-2
  7
STYLE3
100
AcDbText
  0
TEXT
  5
368
330
18
100
AcDbEntity
  8
文字
100
AcDbText
 10
311.4267313536993
 20
284.1834409229722
 30
0.0
 40
1.0
  1
PIC-TEST
  7
STYLE3
100
AcDbText
  0
INSERT
  5
B43
330
18
100
AcDbEntity
  8
文字
100
AcDbBlockReference
  2
ROGO1
 10
301.1334577592202
 20
275.1168679656769
 30
0.0
  0
INSERT
  5
B44
330
18
100
AcDbEntity
  8
文字
100
AcDbBlockReference
  2
ROGO1
 10
301.1095809474122
 20
275.1436630917189
 30
0.0
  0
LINE
  5
BF9
330
18
100
AcDbEntity
  8
外形線
100
AcDbLine
 10
316.6207387616321
 20
233.9698088671369
 30
0.0
 11
313.6207387616321
 21
233.9698088671368
 31
0.0
  0
LINE
  5
C00
330
18
100
AcDbEntity
  8
外形線
100
AcDbLine
 10
315.9707387616321
 20
232.4698088671368
 30
0.0
 11
313.770738761632
 21
232.4698088671368
 31
0.0
  0
LINE
  5
C02
330
18
100
AcDbEntity
  8
外形線
100
AcDbLine
 10
315.4718754215532
 20
225.9698088671369
 30
0.0
 11
314.2696021017109
 21
225.969808867137
 31
0.0
  0
LINE
  5
C11
330
18
100
AcDbEntity
  8
外形線
 62
     4
100
AcDbLine
 10
315.9707387616321
 20
233.8698088671368
 30
0.0
 11
313.770738761632
 21
233.8698088671368
 31
0.0
  0
LINE
  5
C12
330
18
100
AcDbEntity
  8
外形線
100
AcDbLine
 10
313.7707387616322
 20
231.4698088671369
 30
0.0
 11
314.2696021017109
 21
225.9698088671369
 31
0.0
  0
LINE
  5
C13
330
18
100
AcDbEntity
  8
外形線
100
AcDbLine
 10
315.970738761632
 20
231.4698088671369
 30
0.0
 11
315.4718754215533
 21
225.9698088671369
 31
0.0
  0
ARC
  5
C14
330
18
100
AcDbEntity
  8
外形線
100
AcDbCircle
 10
314.8707387616321
 20
225.1698088671368
 30
0.0
 40
1.0
100
AcDbArc
 50
126.869897645842
 51
53.13010235415791
  0
LINE
  5
C24
330
18
100
AcDbEntity
  8
隠れ線
 62
     4
 48
0.3
100
AcDbLine
 10
314.8707387616321
 20
226.1698088671368
 30
0.0
 11
315.4718754215533
 21
225.9698088671369
 31
0.0
  0
LINE
  5
C25
330
18
100
AcDbEntity
  8
隠れ線
 62
     4
 48
0.3
100
AcDbLine
 10
314.8707387616321
 20
226.1698088671368
 30
0.0
 11
314.2696021017109
 21
225.9698088671369
 31
0.0
  0
LINE
  5
C4D
330
18
100
AcDbEntity
  8
中心線
 48
0.5
100
AcDbLine
 10
307.7512132857644
 20
237.1698088671368
 30
0.0
 11
322.0701310950747
 21
237.1698088671368
 31
0.0
  0
LINE
  5
C4E
330
18
100
AcDbEntity
  8
外形線
100
AcDbLine
 10
311.0707387616321
 20
233.6698088671368
 30
0.0
 11
312.7207387616321
 21
233.6698088671368
 31
0.0
  0
LINE
  5
C51
330
18
100
AcDbEntity
  8
外形線
100
AcDbLine
 10
312.0437050208118
 20
298.8198088671368
 30
0.0
 11
317.6977725024523
 21
298.8198088671368
 31
0.0
  0
LINE
  5
C56
330
18
100
AcDbEntity
  8
外形線
100
AcDbLine
 10
317.6559460504736
 20
298.4467478424931
 30
0.0
 11
317.7844347481397
 21
298.66991242265
 31
0.0
  0
LINE
  5
C57
330
18
100
AcDbEntity
  8
外形線
100
AcDbLine
 10
312.0855314727905
 20
298.4467478424931
 30
0.0
 11
311.9570427751244
 21
298.66991242265
 31
0.0
  0
ARC
  5
C58
330
18
100
AcDbEntity
  8
外形線
100
AcDbCircle
 10
312.0437050208118
 20
298.7198088671367
 30
0.0
 40
0.1
100
AcDbArc
 50
89.99999999999944
 51
209.9315118405063
  0
ARC
  5
C59
330
18
100
AcDbEntity
  8
外形線
100
AcDbCircle
 10
317.6977725024523
 20
298.7198088671367
 30
0.0
 40
0.1
100
AcDbArc
 50
330.0684881594922
 51
90.0
  0
LINE
  5
C5A
330
18
100
AcDbEntity
  8
外形線
100
AcDbLine
 10
318.6707387616321
 20
264.0873617356513
 30
0.0
 11
318.6707387616321
 21
233.6698088671368
 31
0.0
  0
LINE
  5
C5B
330
18
100
AcDbEntity
  8
外形線
100
AcDbLine
 10
311.0707387616321
 20
264.0873617356513
 30
0.0
 11
311.0707387616321
 21
233.6698088671368
 31
0.0
  0
LINE
  5
C5C
330
18
100
AcDbEntity
  8
外形線
100
AcDbLine
 10
311.0707387616316
 20
263.1698088671369
 30
0.0
 11
318.6707387616316
 21
263.1698088671368
 31
0.0
  0
LINE
  5
C5D
330
18
100
AcDbEntity
  8
外形線
100
AcDbLine
 10
312.5707387616321
 20
263.8216101133757
 30
0.0
 11
312.5707387616321
 21
253.5698088671368
 31
0.0
  0
LINE
  5
C5E
330
18
100
AcDbEntity
  8
中心線
100
AcDbLine
 10
312.3631838447975
 20
260.1698088671369
 30
0.0
 11
315.3879983495303
 21
260.1698088671369
 31
0.0
  0
LINE
  5
C5F
330
18
100
AcDbEntity
  8
中心線
100
AcDbLine
 10
314.0707387616321
 20
261.4990902411021
 30
0.0
 11
314.0707387616321
 21
258.6562935136923
 31
0.0
  0
CIRCLE
  5
C60
330
18
100
AcDbEntity
  8
外形線
100
AcDbCircle
 10
314.0707387616321
 20
260.1698088671369
 30
0.0
 40
0.85
  0
LINE
  5
C80
330
18
100
AcDbEntity
  8
外形線
100
AcDbLine
 10
311.6707387616322
 20
253.5698088671368
 30
0.0
 11
317.6707387616322
 21
253.5698088671368
 31
0.0
  0
LINE
  5
C81
330
18
100
AcDbEntity
  8
外形線
100
AcDbLine
 10
311.6707387616322
 20
253.0698088671368
 30
0.0
 11
317.6707387616322
 21
253.0698088671368
 31
0.0
  0
LINE
  5
C82
330
18
100
AcDbEntity
  8
外形線
100
AcDbLine
 10
311.6707387616322
 20
239.5698088671368
 30
0.0
 11
317.6707387616322
 21
239.5698088671369
 31
0.0
  0
LINE
  5
C83
330
18
100
AcDbEntity
  8
外形線
100
AcDbLine
 10
317.6707387616322
 20
253.5698088671368
 30
0.0
 11
317.6707387616322
 21
239.5698088671369
 31
0.0
  0
LINE
  5
C84
330
18
100
AcDbEntity
  8
外形線
100
AcDbLine
 10
311.6707387616322
 20
253.5698088671368
 30
0.0
 11
311.6707387616322
 21
239.5698088671368
 31
0.0
  0
LINE
  5
C88
330
18
100
AcDbEntity
  8
外形線
100
AcDbLine
 10
318.6707387616321
 20
233.6698088671368
 30
0.0
 11
317.0207387616321
 21
233.6698088671368
 31
0.0
  0
LINE
  5
C8F
330
18
100
AcDbEntity
  8
外形線
100
AcDbLine
 10
311.0707387616321
 20
247.3698088671368
 30
0.0
 11
311.6707387616322
 21
247.3698088671368
 31
0.0
  0
LINE
  5
C90
330
18
100
AcDbEntity
  8
外形線
 62
     4
100
AcDbLine
 10
317.6707387616322
 20
253.5698088671368
 30
0.0
 11
318.6707387616321
 21
253.5698088671368
 31
0.0
  0
LINE
  5
C91
330
18
100
AcDbEntity
  8
外形線
 62
     4
100
AcDbLine
 10
311.6707387616322
 20
253.5698088671368
 30
0.0
 11
311.0707387616321
 21
253.5698088671368
 31
0.0
  0
LINE
  5
C94
330
18
100
AcDbEntity
  8
外形線
100
AcDbLine
 10
317.0207387616321
 20
233.6698088671368
 30
0.0
 11
316.9761106658734
 21
238.5788994005936
 31
0.0
  0
LINE
  5
C95
330
18
100
AcDbEntity
  8
外形線
100
AcDbLine
 10
312.7207387616321
 20
233.6698088671368
 30
0.0
 11
312.7653668573907
 21
238.5788994005936
 31
0.0
  0
ARC
  5
C99
330
18
100
AcDbEntity
  8
外形線
100
AcDbCircle
 10
315.9761519856263
 20
238.5698088671369
 30
0.0
 40
1.0
100
AcDbArc
 50
0.5208563745014782
 51
90.00000000000019
  0
ARC
  5
C9A
330
18
100
AcDbEntity
  8
外形線
100
AcDbCircle
 10
313.7653255376378
 20
238.5698088671369
 30
0.0
 40
1.0
100
AcDbArc
 50
89.99999999999982
 51
179.4791436254985
  0
LINE
  5
CAE
330
18
100
AcDbEntity
  8
外形線
100
AcDbLine
 10
316.6207387616321
 20
239.3343400229432
 30
0.0
 11
316.6207387616321
 21
233.9698088671369
 31
0.0
  0
LINE
  5
CAF
330
18
100
AcDbEntity
  8
外形線
100
AcDbLine
 10
313.1207387616321
 20
239.3343400229432
 30
0.0
 11
313.1207387616321
 21
234.4698088671368
 31
0.0
  0
LINE
  5
CB0
330
18
100
AcDbEntity
  8
外形線
100
AcDbLine
 10
313.6207387616321
 20
239.559300991514
 30
0.0
 11
313.6207387616321
 21
233.9698088671368
 31
0.0
  0
LINE
  5
CB2
330
18
100
AcDbEntity
  8
外形線
100
AcDbLine
 10
313.1207387616321
 20
234.4698088671368
 30
0.0
 11
313.6207387616321
 21
234.4698088671368
 31
0.0
  0
LINE
  5
CBB
330
18
100
AcDbEntity
  8
外形線
100
AcDbLine
 10
309.8707387616321
 20
239.1698088671368
 30
0.0
 11
309.8707387616321
 21
235.1698088671368
 31
0.0
  0
LINE
  5
CBC
330
18
100
AcDbEntity
  8
外形線
100
AcDbLine
 10
310.370738761632
 20
240.1698088671368
 30
0.0
 11
310.370738761632
 21
234.1698088671368
 31
0.0
  0
LINE
  5
CBD
330
18
100
AcDbEntity
  8
外形線
100
AcDbLine
 10
310.370738761632
 20
235.1698088671368
 30
0.0
 11
309.8707387616321
 21
235.1698088671368
 31
0.0
  0
LINE
  5
CBE
330
18
100
AcDbEntity
  8
外形線
100
AcDbLine
 10
311.070738761632
 20
234.1698088671368
 30
0.0
 11
310.370738761632
 21
234.1698088671368
 31
0.0
  0
LINE
  5
CBF
330
18
100
AcDbEntity
  8
外形線
100
AcDbLine
 10
310.370738761632
 20
239.1698088671368
 30
0.0
 11
309.8707387616321
 21
239.1698088671368
 31
0.0
  0
LINE
  5
CC0
330
18
100
AcDbEntity
  8
外形線
100
AcDbLine
 10
311.070738761632
 20
240.1698088671368
 30
0.0
 11
310.370738761632
 21
240.1698088671368
 31
0.0
  0
INSERT
  5
FCB
330
18
100
AcDbEntity
  8
文字
100
AcDbBlockReference
  2
ROGO1
 10
579.0605083803766
 20
282.754069537204
 30
0.0
  0
INSERT
  5
FCC
330
18
100
AcDbEntity
  8
文字
100
AcDbBlockReference
  2
ROGO1
 10
579.0366315685687
 20
282.780864663246
 30
0.0
  0
LINE
  5
11EB
330
18
100
AcDbEntity
  8
外形線
100
AcDbLine
 10
386.6478430364266
 20
252.7414198772108
 30
0.0
 11
389.322818588196
 21
239.569808867137
 31
0.0
  0
LINE
  5
11EC
330
18
100
AcDbEntity
  8
外形線
100
AcDbLine
 10
388.264834276754
 20
253.0698088671372
 30
0.0
 11
391.6234421002816
 21
236.5319845279059
 31
0.0
  0
LINE
  5
11ED
330
18
100
AcDbEntity
  8
外形線
100
AcDbLine
 10
401.4648342767541
 20
253.0698088671367
 30
0.0
 11
398.5062264532262
 21
236.5319845279059
 31
0.0
  0
LINE
  5
11EE
330
18
100
AcDbEntity
  8
中心線
 48
0.5
100
AcDbLine
 10
395.064834276754
 20
318.3743107250679
 30
0.0
 11
395.064834276754
 21
222.2607352194337
 31
0.0
  0
LINE
  5
1203
330
18
100
AcDbEntity
  8
中心線
 48
0.5
100
AcDbLine
 10
387.6317195154943
 20
237.1698088671369
 30
0.0
 11
402.3666352878344
 21
237.1698088671369
 31
0.0
  0
ARC
  5
1204
330
18
100
AcDbEntity
  8
外形線
100
AcDbCircle
 10
395.064834276754
 20
237.1698088671367
 30
0.0
 40
3.0
100
AcDbArc
 50
54.59406822686052
 51
215.4059317731395
  0
ARC
  5
1205
330
18
100
AcDbEntity
  8
外形線
100
AcDbCircle
 10
395.064834276754
 20
237.1698088671367
 30
0.0
 40
3.0
100
AcDbArc
 50
234.5940682268605
 51
35.4059317731395
  0
LINE
  5
1206
330
18
100
AcDbEntity
  8
外形線
100
AcDbLine
 10
397.1861546203136
 20
238.5840224295098
 30
0.0
 11
397.5100377336825
 21
238.9079055428787
 31
0.0
  0
ARC
  5
1207
330
18
100
AcDbEntity
  8
外形線
100
AcDbCircle
 10
394.8642356423706
 20
237.4094792882294
 30
0.0
 40
3.745046684690569
100
AcDbArc
 50
273.0704445438476
 51
346.7866708910927
  0
LINE
  5
1208
330
18
100
AcDbEntity
  8
外形線
100
AcDbLine
 10
393.6506207143809
 20
235.0484885235772
 30
0.0
 11
392.9435139331943
 21
235.7555953047637
 31
0.0
  0
LINE
  5
1209
330
18
100
AcDbEntity
  8
外形線
100
AcDbLine
 10
393.6506207143809
 20
235.0484885235772
 30
0.0
 11
393.3267376010121
 21
234.7246054102083
 31
0.0
  0
LINE
  5
120A
330
18
100
AcDbEntity
  8
外形線
100
AcDbLine
 10
392.9435139331943
 20
235.7555953047637
 30
0.0
 11
392.6196308198255
 21
235.4317121913948
 31
0.0
  0
LINE
  5
120B
330
18
100
AcDbEntity
  8
外形線
100
AcDbLine
 10
397.1861546203136
 20
238.5840224295098
 30
0.0
 11
396.4790478391271
 21
239.2911292106964
 31
0.0
  0
LINE
  5
120C
330
18
100
AcDbEntity
  8
外形線
100
AcDbLine
 10
396.4790478391271
 20
239.2911292106964
 30
0.0
 11
396.8029309524959
 21
239.6150123240653
 31
0.0
  0
LINE
  5
120D
330
18
100
AcDbEntity
  8
外形線
100
AcDbLine
 10
393.6506207143809
 20
235.7555953047637
 30
0.0
 11
396.4790478391271
 21
238.58402242951
 31
0.0
  0
ARC
  5
120E
330
18
100
AcDbEntity
  8
外形線
100
AcDbCircle
 10
395.2654329111374
 20
237.4094792882294
 30
0.0
 40
3.745046684690569
100
AcDbArc
 50
193.2133291089073
 51
266.9295554561525
  0
LINE
  5
120F
330
18
100
AcDbEntity
  8
外形線
100
AcDbLine
 10
389.322818588196
 20
239.569808867137
 30
0.0
 11
391.0065011784918
 21
239.569808867137
 31
0.0
  0
CIRCLE
  5
1210
330
18
100
AcDbEntity
  8
外形線
100
AcDbCircle
 10
395.064834276754
 20
237.1698088671369
 30
0.0
 40
2.0
  0
LINE
  5
121B
330
18
100
AcDbEntity
  8
外形線
100
AcDbLine
 10
403.1148342767539
 20
297.1698088671367
 30
0.0
 11
403.1148342767539
 21
255.2198088671367
 31
0.0
  0
LINE
  5
121C
330
18
100
AcDbEntity
  8
外形線
100
AcDbLine
 10
388.6648342767539
 20
298.8198088671367
 30
0.0
 11
388.664834276754
 21
263.1698088671369
 31
0.0
  0
LINE
  5
121D
330
18
100
AcDbEntity
  8
外形線
100
AcDbLine
 10
401.4648342767539
 20
298.8198088671368
 30
0.0
 11
401.4648342767541
 21
253.0698088671367
 31
0.0
  0
LINE
  5
121E
330
18
100
AcDbEntity
  8
外形線
100
AcDbLine
 10
395.6050255453034
 20
270.5260339821551
 30
0.0
 11
394.5246430082045
 21
271.8135837521188
 31
0.0
  0
LINE
  5
121F
330
18
100
AcDbEntity
  8
外形線
100
AcDbLine
 10
394.4210593917721
 20
270.6296175985875
 30
0.0
 11
395.7086091617358
 21
271.7100001356864
 31
0.0
  0
ARC
  5
1220
330
18
100
AcDbEntity
  8
外形線
100
AcDbCircle
 10
395.064834276754
 20
271.1698088671369
 30
0.0
 40
2.5
100
AcDbArc
 50
355.0
 51
175.0
  0
CIRCLE
  5
1221
330
18
100
AcDbEntity
  8
外形線
100
AcDbCircle
 10
395.064834276754
 20
271.1698088671369
 30
0.0
 40
1.5
  0
LINE
  5
1223
330
18
100
AcDbEntity
  8
外形線
100
AcDbLine
 10
386.640621060388
 20
252.7792380018017
 30
0.0
 11
388.264834276754
 21
253.0698088671372
 31
0.0
  0
ARC
  5
122C
330
18
100
AcDbEntity
  8
外形線
100
AcDbCircle
 10
394.2368547206512
 20
261.7059592352653
 30
0.0
 40
1.5
100
AcDbArc
 50
175.0
 51
355.0
  0
LINE
  5
122D
330
18
100
AcDbEntity
  8
外形線
100
AcDbLine
 10
388.2648342767541
 20
263.1698088671369
 30
0.0
 11
388.264834276754
 21
253.0698088671372
 31
0.0
  0
LINE
  5
122E
330
18
100
AcDbEntity
  8
外形線
100
AcDbLine
 10
401.4648342767541
 20
253.5698088671368
 30
0.0
 11
403.1148342767539
 21
255.2198088671367
 31
0.0
  0
LINE
  5
122F
330
18
100
AcDbEntity
  8
外形線
100
AcDbLine
 10
397.5553210219833
 20
270.9519195102677
 30
0.0
 11
395.7311467677889
 21
261.5752256211438
 31
0.0
  0
LINE
  5
1230
330
18
100
AcDbEntity
  8
中心線
 48
0.5
100
AcDbLine
 10
390.2315660991412
 20
271.1698088671369
 30
0.0
 11
399.6403185585061
 21
271.1698088671369
 31
0.0
  0
LINE
  5
1231
330
18
100
AcDbEntity
  8
外形線
100
AcDbLine
 10
392.5743475315246
 20
271.387698224006
 30
0.0
 11
392.7425626735136
 21
261.8366928493868
 31
0.0
  0
LINE
  5
1232
330
18
100
AcDbEntity
  8
外形線
100
AcDbLine
 10
388.2648342767541
 20
263.1698088671369
 30
0.0
 11
388.6648342767539
 21
263.1698088671369
 31
0.0
  0
LINE
  5
1233
330
18
100
AcDbEntity
  8
中心線
 48
0.5
100
AcDbLine
 10
376.644730493334
 20
281.1698088671369
 30
0.0
 11
405.854077453283
 21
281.1698088671369
 31
0.0
  0
CIRCLE
  5
1244
330
18
100
AcDbEntity
  8
外形線
100
AcDbCircle
 10
395.064834276754
 20
281.1698088671369
 30
0.0
 40
1.0
  0
LINE
  5
1249
330
18
100
AcDbEntity
  8
外形線
100
AcDbLine
 10
398.064834276754
 20
313.9659612898434
 30
0.0
 11
398.064834276754
 21
298.7698088671367
 31
0.0
  0
LINE
  5
124A
330
18
100
AcDbEntity
  8
外形線
100
AcDbLine
 10
392.064834276754
 20
313.9659612898434
 30
0.0
 11
392.064834276754
 21
298.7698088671367
 31
0.0
  0
LINE
  5
1253
330
18
100
AcDbEntity
  8
外形線
100
AcDbLine
 10
392.064834276754
 20
298.7698088671367
 30
0.0
 11
398.064834276754
 21
298.7698088671367
 31
0.0
  0
LINE
  5
1254
330
18
100
AcDbEntity
  8
外形線
100
AcDbLine
 10
388.6648342767539
 20
298.8198088671367
 30
0.0
 11
401.4648342767539
 21
298.8198088671368
 31
0.0
  0
LINE
  5
1255
330
18
100
AcDbEntity
  8
外形線
100
AcDbLine
 10
403.1148342767539
 20
297.1698088671367
 30
0.0
 11
388.6648342767539
 21
297.1698088671368
 31
0.0
  0
POINT
  5
1256
330
18
100
AcDbEntity
  8
DEFPOINTS
  6
ByBlock
 62
     0
100
AcDbPoint
 10
403.1148342767539
 20
297.1698088671367
 30
0.0
  0
POINT
  5
1257
330
18
100
AcDbEntity
  8
DEFPOINTS
  6
ByBlock
 62
     0
100
AcDbPoint
 10
401.4648342767539
 20
298.8198088671368
 30
0.0
  0
LINE
  5
1259
330
18
100
AcDbEntity
  8
外形線
100
AcDbLine
 10
392.064834276754
 20
313.9659612898434
 30
0.0
 11
398.064834276754
 21
313.9659612898434
 31
0.0
  0
ARC
  5
125A
330
18
100
AcDbEntity
  8
外形線
100
AcDbCircle
 10
395.064834276754
 20
308.7698088671368
 30
0.0
 40
6.0
100
AcDbArc
 50
60.0
 51
120.0
  0
LINE
  5
12CA
330
18
100
AcDbEntity
  8
外形線
100
AcDbLine
 10
382.6648342767539
 20
298.6698088671369
 30
0.0
 11
385.8148342767539
 21
298.6698088671369
 31
0.0
  0
LINE
  5
12CC
330
18
100
AcDbEntity
  8
外形線
100
AcDbLine
 10
382.464834276754
 20
298.4698088671369
 30
0.0
 11
382.4648342767538
 21
263.869808867137
 31
0.0
  0
LINE
  5
12CD
330
18
100
AcDbEntity
  8
外形線
100
AcDbLine
 10
386.1648342767539
 20
298.3198088671368
 30
0.0
 11
386.1648342767539
 21
264.0198088671369
 31
0.0
  0
LINE
  5
12CE
330
18
100
AcDbEntity
  8
外形線
100
AcDbLine
 10
387.1648342767539
 20
298.3198088671368
 30
0.0
 11
387.1648342767539
 21
264.0198088671369
 31
0.0
  0
LINE
  5
12CF
330
18
100
AcDbEntity
  8
外形線
 48
0.5
100
AcDbLine
 10
382.4648342767539
 20
298.4698088671369
 30
0.0
 11
382.6648342767539
 21
298.6698088671369
 31
0.0
  0
LINE
  5
12D0
330
18
100
AcDbEntity
  8
外形線
100
AcDbLine
 10
385.8148342767539
 20
298.6698088671369
 30
0.0
 11
386.1648342767539
 21
298.3198088671368
 31
0.0
  0
LINE
  5
12EF
330
18
100
AcDbEntity
  8
外形線
100
AcDbLine
 10
385.8148342767539
 20
263.6698088671368
 30
0.0
 11
386.1648342767539
 21
264.0198088671369
 31
0.0
  0
LINE
  5
12F0
330
18
100
AcDbEntity
  8
外形線
 48
0.5
100
AcDbLine
 10
382.4648342767539
 20
263.8698088671368
 30
0.0
 11
382.6648342767539
 21
263.6698088671368
 31
0.0
  0
LINE
  5
12F1
330
18
100
AcDbEntity
  8
外形線
100
AcDbLine
 10
382.6648342767539
 20
263.6698088671368
 30
0.0
 11
385.8148342767539
 21
263.6698088671368
 31
0.0
  0
LINE
  5
12F5
330
18
100
AcDbEntity
  8
外形線
100
AcDbLine
 10
381.9648342767539
 20
297.6698088671368
 30
0.0
 11
381.9648342767539
 21
264.6698088671369
 31
0.0
  0
LINE
  5
12FF
330
18
100
AcDbEntity
  8
外形線
100
AcDbLine
 10
386.1648342767539
 20
298.3198088671368
 30
0.0
 11
387.1648342767539
 21
298.3198088671368
 31
0.0
  0
LINE
  5
1300
330
18
100
AcDbEntity
  8
外形線
100
AcDbLine
 10
386.1648342767539
 20
264.0198088671369
 30
0.0
 11
387.1648342767539
 21
264.0198088671369
 31
0.0
  0
LINE
  5
1308
330
18
100
AcDbEntity
  8
外形線
100
AcDbLine
 10
381.9648342767539
 20
297.6698088671369
 30
0.0
 11
382.464834276754
 21
298.1698088671369
 31
0.0
  0
LINE
  5
1309
330
18
100
AcDbEntity
  8
外形線
100
AcDbLine
 10
381.9648342767539
 20
264.6698088671369
 30
0.0
 11
382.464834276754
 21
264.1698088671368
 31
0.0
  0
LINE
  5
1312
330
18
100
AcDbEntity
  8
外形線
100
AcDbLine
 10
382.464834276754
 20
297.9698088671369
 30
0.0
 11
386.1648342767539
 21
297.9698088671369
 31
0.0
  0
LINE
  5
1313
330
18
100
AcDbEntity
  8
外形線
100
AcDbLine
 10
382.464834276754
 20
297.2698088671369
 30
0.0
 11
386.1648342767539
 21
297.2698088671369
 31
0.0
  0
LINE
  5
1314
330
18
100
AcDbEntity
  8
外形線
100
AcDbLine
 10
382.464834276754
 20
296.4698088671369
 30
0.0
 11
386.1648342767539
 21
296.4698088671368
 31
0.0
  0
LINE
  5
1315
330
18
100
AcDbEntity
  8
外形線
100
AcDbLine
 10
382.464834276754
 20
295.6698088671369
 30
0.0
 11
386.1648342767539
 21
295.6698088671369
 31
0.0
  0
LINE
  5
1316
330
18
100
AcDbEntity
  8
外形線
100
AcDbLine
 10
382.464834276754
 20
294.7698088671369
 30
0.0
 11
386.1648342767539
 21
294.7698088671369
 31
0.0
  0
LINE
  5
1328
330
18
100
AcDbEntity
  8
外形線
100
AcDbLine
 10
382.4648342767539
 20
281.8698088671368
 30
0.0
 11
386.1648342767539
 21
281.8698088671368
 31
0.0
  0
LINE
  5
1329
330
18
100
AcDbEntity
  8
外形線
100
AcDbLine
 10
382.4648342767539
 20
280.4698088671369
 30
0.0
 11
386.1648342767539
 21
280.4698088671369
 31
0.0
  0
LINE
  5
132A
330
18
100
AcDbEntity
  8
外形線
100
AcDbLine
 10
382.4648342767539
 20
282.6698088671368
 30
0.0
 11
386.1648342767539
 21
282.6698088671368
 31
0.0
  0
LINE
  5
132B
330
18
100
AcDbEntity
  8
外形線
100
AcDbLine
 10
382.4648342767539
 20
279.6698088671369
 30
0.0
 11
386.1648342767539
 21
279.6698088671369
 31
0.0
  0
LINE
  5
132C
330
18
100
AcDbEntity
  8
外形線
100
AcDbLine
 10
382.4648342767538
 20
281.1698088671369
 30
0.0
 11
386.1648342767538
 21
281.1698088671369
 31
0.0
  0
LINE
  5
132D
330
18
100
AcDbEntity
  8
外形線
100
AcDbLine
 10
382.464834276754
 20
267.5698088671368
 30
0.0
 11
386.1648342767539
 21
267.5698088671368
 31
0.0
  0
LINE
  5
132E
330
18
100
AcDbEntity
  8
外形線
100
AcDbLine
 10
382.464834276754
 20
266.6698088671369
 30
0.0
 11
386.1648342767539
 21
266.6698088671369
 31
0.0
  0
LINE
  5
132F
330
18
100
AcDbEntity
  8
外形線
100
AcDbLine
 10
382.464834276754
 20
265.8698088671368
 30
0.0
 11
386.1648342767539
 21
265.8698088671369
 31
0.0
  0
LINE
  5
1330
330
18
100
AcDbEntity
  8
外形線
100
AcDbLine
 10
382.464834276754
 20
265.0698088671368
 30
0.0
 11
386.1648342767539
 21
265.0698088671368
 31
0.0
  0
LINE
  5
1331
330
18
100
AcDbEntity
  8
外形線
100
AcDbLine
 10
382.464834276754
 20
264.3698088671369
 30
0.0
 11
386.1648342767539
 21
264.3698088671369
 31
0.0
  0
LINE
  5
1336
330
18
100
AcDbEntity
  8
外形線
100
AcDbLine
 10
387.1648342767539
 20
296.1698088671369
 30
0.0
 11
387.664834276754
 21
296.1698088671369
 31
0.0
  0
ARC
  5
1337
330
18
100
AcDbEntity
  8
外形線
100
AcDbCircle
 10
387.664834276754
 20
295.1698088671368
 30
0.0
 40
1.0
100
AcDbArc
 50
0.0000000000002036
 51
90.0
  0
ARC
  5
1338
330
18
100
AcDbEntity
  8
外形線
100
AcDbCircle
 10
387.664834276754
 20
267.1698088671369
 30
0.0
 40
1.0
100
AcDbArc
 50
270.0
 51
359.9999999999998
  0
LINE
  5
1339
330
18
100
AcDbEntity
  8
外形線
100
AcDbLine
 10
387.1648342767539
 20
266.1698088671368
 30
0.0
 11
387.664834276754
 21
266.1698088671368
 31
0.0
  0
ARC
  5
133C
330
18
100
AcDbEntity
  8
外形線
100
AcDbCircle
 10
441.9801238927381
 20
281.1698088671368
 30
0.0
 40
62.37903158457702
100
AcDbArc
 50
166.4545064755762
 51
193.5454935244236
  0
LINE
  5
1343
330
18
100
AcDbEntity
  8
外形線
100
AcDbLine
 10
381.8223036388647
 20
296.1629524925797
 30
0.0
 11
381.9648342767538
 21
296.1629524925797
 31
0.0
  0
ARC
  5
1345
330
18
100
AcDbEntity
  8
外形線
100
AcDbCircle
 10
381.8223036388646
 20
295.6629524925796
 30
0.0
 40
0.5
100
AcDbArc
 50
89.99999999999349
 51
166.4545064755751
  0
ARC
  5
1346
330
18
100
AcDbEntity
  8
外形線
100
AcDbCircle
 10
381.8223036388646
 20
266.6766652416941
 30
0.0
 40
0.5
100
AcDbArc
 50
193.5454935244249
 51
270.0000000000065
  0
LINE
  5
1347
330
18
100
AcDbEntity
  8
外形線
100
AcDbLine
 10
381.8223036388647
 20
266.176665241694
 30
0.0
 11
381.9648342767538
 21
266.176665241694
 31
0.0
  0
LINE
  5
1348
330
18
100
AcDbEntity
  8
外形線
100
AcDbLine
 10
312.7571023979957
 20
237.6698088671369
 30
0.0
 11
313.1207387616321
 21
237.6698088671368
 31
0.0
  0
LINE
  5
1349
330
18
100
AcDbEntity
  8
外形線
100
AcDbLine
 10
312.7480114889048
 20
236.6698088671368
 30
0.0
 11
313.1207387616322
 21
236.6698088671368
 31
0.0
  0
LINE
  5
134A
330
18
100
AcDbEntity
  8
外形線
100
AcDbLine
 10
316.6207387616321
 20
237.6698088671368
 30
0.0
 11
316.9843751252685
 21
237.6698088671368
 31
0.0
  0
LINE
  5
134B
330
18
100
AcDbEntity
  8
外形線
100
AcDbLine
 10
316.6207387616321
 20
236.6698088671368
 30
0.0
 11
316.9934660343593
 21
236.6698088671368
 31
0.0
  0
LINE
  5
138E
330
18
100
AcDbEntity
  8
外形線
100
AcDbLine
 10
319.3707387616322
 20
240.1698088671368
 30
0.0
 11
319.3707387616322
 21
234.1698088671368
 31
0.0
  0
LINE
  5
138F
330
18
100
AcDbEntity
  8
外形線
100
AcDbLine
 10
319.8707387616321
 20
239.1698088671368
 30
0.0
 11
319.8707387616321
 21
235.1698088671368
 31
0.0
  0
LINE
  5
1390
330
18
100
AcDbEntity
  8
外形線
100
AcDbLine
 10
318.6707387616321
 20
234.1698088671368
 30
0.0
 11
319.3707387616322
 21
234.1698088671368
 31
0.0
  0
LINE
  5
1391
330
18
100
AcDbEntity
  8
外形線
100
AcDbLine
 10
319.3707387616322
 20
235.1698088671368
 30
0.0
 11
319.8707387616321
 21
235.1698088671368
 31
0.0
  0
LINE
  5
1392
330
18
100
AcDbEntity
  8
外形線
100
AcDbLine
 10
318.6707387616321
 20
240.1698088671368
 30
0.0
 11
319.3707387616322
 21
240.1698088671368
 31
0.0
  0
LINE
  5
1393
330
18
100
AcDbEntity
  8
外形線
100
AcDbLine
 10
319.3707387616322
 20
239.1698088671368
 30
0.0
 11
319.8707387616321
 21
239.1698088671368
 31
0.0
  0
POINT
  5
13FC
330
18
100
AcDbEntity
  8
DEFPOINTS
  6
ByBlock
 62
     0
100
AcDbPoint
 10
315.3948567101725
 20
224.3181631802354
 30
0.0
  0
POINT
  5
13FD
330
18
100
AcDbEntity
  8
DEFPOINTS
  6
ByBlock
 62
     0
100
AcDbPoint
 10
314.870738761632
 20
225.1698088671368
 30
0.0
  0
LINE
  5
145D
330
18
100
AcDbEntity
  8
0
  6
ByBlock
 62
     2
100
AcDbLine
 10
403.1148342767539
 20
302.7185324921863
 30
0.0
 11
403.1148342767539
 21
324.0481422681762
 31
0.0
  0
LINE
  5
145E
330
18
100
AcDbEntity
  8
0
  6
ByBlock
 62
     2
100
AcDbLine
 10
398.964834276754
 20
322.7981422681762
 30
0.0
 11
396.464834276754
 21
322.7981422681762
 31
0.0
  0
LINE
  5
145F
330
18
100
AcDbEntity
  8
0
  6
ByBlock
 62
     2
100
AcDbLine
 10
405.6148342767539
 20
322.7981422681762
 30
0.0
 11
413.2781927234266
 21
322.7981422681762
 31
0.0
  0
MTEXT
  5
1460
330
18
100
AcDbEntity
  8
0
  6
ByBlock
 62
     6
100
AcDbMText
 10
409.4321992671798
 20
324.6366073090411
 30
0.0
 40
2.5
 41
0.0
 71
     5
 72
     1
  1
\A1;1.65
  7
STYLE3
 73
     1
 44
1.0
  0
LINE
  5
1461
330
18
100
AcDbEntity
  8
0
  6
ByBlock
 62
     2
100
AcDbLine
 10
401.4648342767539
 20
322.7981422681762
 30
0.0
 11
403.1148342767539
 21
322.7981422681762
 31
0.0
  0
LINE
  5
1462
330
18
100
AcDbEntity
  8
0
  6
ByBlock
 62
     2
100
AcDbLine
 10
401.4648342767539
 20
322.7981422681762
 30
0.0
 11
403.1148342767539
 21
322.7981422681762
 31
0.0
  0
INSERT
  5
1463
330
18
100
AcDbEntity
  8
0
  6
ByBlock
 62
     2
100
AcDbBlockReference
  2
_OPEN
 10
401.4648342767539
 20
322.7981422681762
 30
0.0
 41
2.5
 42
2.5
 43
2.5
  0
INSERT
  5
1464
330
18
100
AcDbEntity
  8
0
  6
ByBlock
 62
     2
100
AcDbBlockReference
  2
_OPEN
 10
403.1148342767539
 20
322.7981422681762
 30
0.0
 41
2.5
 42
2.5
 43
2.5
 50
180.0
  0
POINT
  5
1465
330
18
100
AcDbEntity
  8
DEFPOINTS
  6
ByBlock
 62
     0
100
AcDbPoint
 10
401.4648342767539
 20
298.8198088671368
 30
0.0
  0
POINT
  5
1466
330
18
100
AcDbEntity
  8
DEFPOINTS
  6
ByBlock
 62
     0
100
AcDbPoint
 10
403.1148342767539
 20
302.7185324921863
 30
0.0
  0
POINT
  5
1467
330
18
100
AcDbEntity
  8
DEFPOINTS
  6
ByBlock
 62
     0
100
AcDbPoint
 10
403.1148342767539
 20
322.7981422681762
 30
0.0
  0
POINT
  5
1494
330
18
100
AcDbEntity
  8
DEFPOINTS
  6
ByBlock
 62
     0
100
AcDbPoint
 10
395.064834276754
 20
318.3743107250679
 30
0.0
  0
POINT
  5
1495
330
18
100
AcDbEntity
  8
DEFPOINTS
  6
ByBlock
 62
     0
100
AcDbPoint
 10
387.6317195154943
 20
237.1698088671369
 30
0.0
  0
POINT
  5
1496
330
18
100
AcDbEntity
  8
DEFPOINTS
  6
ByBlock
 62
     0
100
AcDbPoint
 10
402.3666352878344
 20
237.1698088671369
 30
0.0
  0
POINT
  5
1497
330
18
100
AcDbEntity
  8
DEFPOINTS
  6
ByBlock
 62
     0
100
AcDbPoint
 10
395.064834276754
 20
222.2607352194337
 30
0.0
  0
POINT
  5
14D3
330
18
100
AcDbEntity
  8
DEFPOINTS
  6
ByBlock
 62
     0
100
AcDbPoint
 10
395.064834276754
 20
237.1698088671369
 30
0.0
  0
POINT
  5
14D4
330
18
100
AcDbEntity
  8
DEFPOINTS
  6
ByBlock
 62
     0
100
AcDbPoint
 10
395.064834276754
 20
237.1698088671369
 30
0.0
  0
CIRCLE
  5
14E2
102
{ACAD_REACTORS
330
14E5
102
}
330
18
100
AcDbEntity
  8
外形線
100
AcDbCircle
 10
388.803285353868
 20
246.8536263950112
 30
0.0
 40
0.222687898198611
  0
HATCH
  5
14E5
330
18
100
AcDbEntity
  8
外形線
100
AcDbHatch
 10
0.0
 20
0.0
 30
0.0
210
0.0
220
0.0
230
1.0
  2
SOLID
 70
     1
 71
     1
 91
        1
 92
        7
 72
     1
 73
     1
 93
        2
 10
389.0259732520667
 20
246.8536263950112
 42
1.0
 10
388.5805974556694
 20
246.8536263950112
 42
1.0
 97
        1
330
14E2
 75
     0
 76
     1
 47
0.0124670341605454
 98
        1
 10
388.8612626552145
 20
246.83045445492
450
        0
451
        0
460
0.0
461
0.0
452
        0
462
0.0
453
        0
470

  0
TEXT
  5
14EC
330
18
100
AcDbEntity
  8
寸法線
 62
     6
100
AcDbText
 10
410.3867223144638
 20
280.7372577507196
 30
0.0
 40
2.5
  1
A
  7
STYLE3
100
AcDbText
  0
CIRCLE
  5
14EE
102
{ACAD_REACTORS
330
14F1
102
}
330
18
100
AcDbEntity
  8
外形線
100
AcDbCircle
 10
402.1717176084362
 20
268.1195931778719
 30
0.0
 40
0.222687898198611
  0
HATCH
  5
14F1
330
18
100
AcDbEntity
  8
外形線
100
AcDbHatch
 10
0.0
 20
0.0
 30
0.0
210
0.0
220
0.0
230
1.0
  2
SOLID
 70
     1
 71
     1
 91
        1
 92
        7
 72
     1
 73
     1
 93
        2
 10
402.3944055066349
 20
268.1195931778719
 42
1.0
 10
401.9490297102376
 20
268.1195931778719
 42
1.0
 97
        1
330
14EE
 75
     0
 76
     1
 47
0.0200805185115556
 98
        1
 10
402.2962337118519
 20
268.0028067498938
450
        0
451
        0
460
0.0
461
0.0
452
        0
462
0.0
453
        0
470

  0
CIRCLE
  5
14F8
102
{ACAD_REACTORS
330
151F
102
}
330
18
100
AcDbEntity
  8
外形線
100
AcDbCircle
 10
390.9445520079317
 20
297.7637686196542
 30
0.0
 40
0.222687898198611
  0
HATCH
  5
151F
330
18
100
AcDbEntity
  8
外形線
100
AcDbHatch
 10
0.0
 20
0.0
 30
0.0
210
0.0
220
0.0
230
1.0
  2
SOLID
 70
     1
 71
     1
 91
        1
 92
        7
 72
     1
 73
     1
 93
        2
 10
391.1672399061303
 20
297.7637686196542
 42
1.0
 10
390.7218641097331
 20
297.7637686196542
 42
1.0
 97
        1
330
14F8
 75
     0
 76
     1
 47
0.0431140550968677
 98
        1
 10
391.0618021225169
 20
297.6544334488906
450
        0
451
        0
460
0.0
461
0.0
452
        0
462
0.0
453
        0
470

  0
LINE
  5
157C
330
18
100
AcDbEntity
  8
外形線
100
AcDbLine
 10
460.6217488109117
 20
267.6410089525781
 30
0.0
 11
473.5021421308236
 21
267.6410089525782
 31
0.0
  0
LINE
  5
157F
330
18
100
AcDbEntity
  8
外形線
100
AcDbLine
 10
449.8270046992373
 20
270.9410089525781
 30
0.0
 11
462.5270046992373
 21
270.9410089525781
 31
0.0
  0
LINE
  5
1584
330
18
100
AcDbEntity
  8
外形線
100
AcDbLine
 10
460.6217488109117
 20
267.6410089525781
 30
0.0
 11
462.5270046992373
 21
270.9410089525781
 31
0.0
  0
LINE
  5
1585
330
18
100
AcDbEntity
  8
外形線
100
AcDbLine
 10
451.7322605875631
 20
267.6410089525781
 30
0.0
 11
449.8270046992373
 21
270.9410089525781
 31
0.0
  0
LINE
  5
1586
330
18
100
AcDbEntity
  8
外形線
100
AcDbLine
 10
451.7322605875631
 20
267.6410089525781
 30
0.0
 11
438.8518672676513
 21
267.6410089525781
 31
0.0
  0
CIRCLE
  5
1588
330
18
100
AcDbEntity
  8
外形線
100
AcDbCircle
 10
449.1370046992373
 20
269.1410089525781
 30
0.0
 40
1.5
  0
CIRCLE
  5
1589
330
18
100
AcDbEntity
  8
外形線
100
AcDbCircle
 10
463.2170046992374
 20
269.1410089525781
 30
0.0
 40
1.5
  0
LINE
  5
158C
330
18
100
AcDbEntity
  8
中心線
100
AcDbLine
 10
446.2001991946882
 20
269.1410089525781
 30
0.0
 11
452.2772633752
 21
269.1410089525781
 31
0.0
  0
LINE
  5
158D
330
18
100
AcDbEntity
  8
中心線
100
AcDbLine
 10
463.2170046992374
 20
272.5574310667196
 30
0.0
 11
463.2170046992374
 21
265.4167813828878
 31
0.0
  0
LINE
  5
158E
330
18
100
AcDbEntity
  8
中心線
100
AcDbLine
 10
449.1370046992373
 20
272.5574310667196
 30
0.0
 11
449.1370046992373
 21
265.4167813828878
 31
0.0
  0
LINE
  5
1591
330
18
100
AcDbEntity
  8
中心線
100
AcDbLine
 10
460.3085264171308
 20
269.1410089525781
 30
0.0
 11
466.5417463594158
 21
269.1410089525781
 31
0.0
  0
LINE
  5
15A3
330
18
100
AcDbEntity
  8
寸法線
100
AcDbLine
 10
438.8518672676513
 20
265.4722528183366
 30
0.0
 11
441.0206234018927
 21
267.6410089525781
 31
0.0
  0
LINE
  5
15A4
330
18
100
AcDbEntity
  8
寸法線
100
AcDbLine
 10
438.8518672676513
 20
260.982124757802
 30
0.0
 11
445.5107514624273
 21
267.6410089525781
 31
0.0
  0
LINE
  5
15A5
330
18
100
AcDbEntity
  8
寸法線
100
AcDbLine
 10
441.9065526007654
 20
259.5466820303816
 30
0.0
 11
450.000879522962
 21
267.6410089525782
 31
0.0
  0
LINE
  5
15A6
330
18
100
AcDbEntity
  8
寸法線
100
AcDbLine
 10
451.0985311342877
 20
268.738660563904
 30
0.0
 11
453.3008795229619
 21
270.9410089525781
 31
0.0
  0
LINE
  5
15A7
330
18
100
AcDbEntity
  8
寸法線
100
AcDbLine
 10
446.3966806612999
 20
259.5466820303816
 30
0.0
 11
457.7910075834966
 21
270.9410089525782
 31
0.0
  0
LINE
  5
15A8
330
18
100
AcDbEntity
  8
寸法線
100
AcDbLine
 10
450.8868087218345
 20
259.5466820303816
 30
0.0
 11
462.2811356440312
 21
270.9410089525782
 31
0.0
  0
LINE
  5
15A9
330
18
100
AcDbEntity
  8
寸法線
100
AcDbLine
 10
455.376936782369
 20
259.5466820303816
 30
0.0
 11
463.4712637045658
 21
267.6410089525782
 31
0.0
  0
LINE
  5
15AA
330
18
100
AcDbEntity
  8
寸法線
100
AcDbLine
 10
459.8670648429037
 20
259.5466820303816
 30
0.0
 11
467.9613917651002
 21
267.6410089525782
 31
0.0
  0
LINE
  5
15AB
330
18
100
AcDbEntity
  8
寸法線
100
AcDbLine
 10
464.3571929034382
 20
259.5466820303816
 30
0.0
 11
472.4515198256348
 21
267.6410089525782
 31
0.0
  0
LINE
  5
15AC
330
18
100
AcDbEntity
  8
寸法線
100
AcDbLine
 10
468.8473209639729
 20
259.5466820303816
 30
0.0
 11
473.5021421308236
 21
264.2015031972323
 31
0.0
  0
LINE
  5
1634
330
18
100
AcDbEntity
  8
0
  6
ByBlock
 62
     2
100
AcDbLine
 10
462.5270046992373
 20
270.9410089525781
 30
0.0
 11
474.1468984082396
 21
291.0672552351208
 31
0.0
  0
LINE
  5
1635
330
18
100
AcDbEntity
  8
0
  6
ByBlock
 62
     2
100
AcDbLine
 10
449.8270046992373
 20
270.9410089525781
 30
0.0
 11
438.207110990235
 21
291.0672552351206
 31
0.0
  0
ARC
  5
1636
330
18
100
AcDbEntity
  8
0
  6
ByBlock
 62
     2
100
AcDbCircle
 10
456.1770046992375
 20
259.9424863245153
 30
0.0
 40
34.6897874180055
100
AcDbArc
 50
64.13004734756665
 51
115.869952652434
  0
INSERT
  5
1637
330
18
100
AcDbEntity
  8
0
  6
ByBlock
 62
     2
100
AcDbBlockReference
  2
_OPEN
 10
473.5218984082396
 20
289.9847234803902
 30
0.0
 41
2.5
 42
2.5
 43
2.5
 50
332.0650236737839
  0
INSERT
  5
1638
330
18
100
AcDbEntity
  8
0
  6
ByBlock
 62
     2
100
AcDbBlockReference
  2
_OPEN
 10
438.832110990235
 20
289.98472348039
 30
0.0
 41
2.5
 42
2.5
 43
2.5
 50
207.9349763262168
  0
MTEXT
  5
1639
330
18
100
AcDbEntity
  8
0
  6
ByBlock
 62
     6
100
AcDbMText
 10
457.6714657974606
 20
296.5072737425208
 30
0.0
 40
2.5
 41
0.0
 71
     5
 72
     1
  1
\A1;60°
  7
STYLE3
 73
     1
 44
1.0
  0
POINT
  5
163A
330
18
100
AcDbEntity
  8
DEFPOINTS
  6
ByBlock
 62
     0
100
AcDbPoint
 10
462.2008230680269
 20
294.1052579241125
 30
0.0
  0
POINT
  5
163B
330
18
100
AcDbEntity
  8
DEFPOINTS
  6
ByBlock
 62
     0
100
AcDbPoint
 10
451.7322605875631
 20
267.6410089525781
 30
0.0
  0
POINT
  5
163C
330
18
100
AcDbEntity
  8
DEFPOINTS
  6
ByBlock
 62
     0
100
AcDbPoint
 10
460.6217488109117
 20
267.6410089525781
 30
0.0
  0
POINT
  5
163D
330
18
100
AcDbEntity
  8
DEFPOINTS
  6
ByBlock
 62
     0
100
AcDbPoint
 10
462.5270046992373
 20
270.9410089525781
 30
0.0
  0
POINT
  5
163E
330
18
100
AcDbEntity
  8
DEFPOINTS
  6
ByBlock
 62
     0
100
AcDbPoint
 10
449.8270046992373
 20
270.9410089525781
 30
0.0
  0
LINE
  5
164E
330
18
100
AcDbEntity
  8
0
  6
ByBlock
 62
     2
100
AcDbLine
 10
446.90460974895
 20
276.0027454862588
 30
0.0
 11
438.2071109902351
 21
291.0672552351206
 31
0.0
  0
LINE
  5
164F
330
18
100
AcDbEntity
  8
0
  6
ByBlock
 62
     2
100
AcDbLine
 10
447.8379665935605
 20
268.3910089525781
 30
0.0
 11
435.6111500211522
 21
289.5684764708148
 31
0.0
  0
LINE
  5
1651
330
18
100
AcDbEntity
  8
0
  6
ByBlock
 62
     2
100
AcDbLine
 10
434.0710865116911
 20
287.2359447160844
 30
0.0
 11
431.90602300223
 21
285.9859447160844
 31
0.0
  0
LINE
  5
1652
330
18
100
AcDbEntity
  8
0
  6
ByBlock
 62
     2
100
AcDbLine
 10
438.832110990235
 20
289.9847234803901
 30
0.0
 11
436.2361500211521
 21
288.4859447160843
 31
0.0
  0
INSERT
  5
1654
330
18
100
AcDbEntity
  8
0
  6
ByBlock
 62
     2
100
AcDbBlockReference
  2
_OPEN
 10
436.2361500211521
 20
288.4859447160843
 30
0.0
 41
2.5
 42
2.5
 43
2.5
 50
29.99999999999951
  0
MTEXT
  5
1655
330
18
100
AcDbEntity
  8
0
  6
ByBlock
 62
     6
100
AcDbMText
 10
434.2878785970608
 20
290.8591317303331
 30
0.0
 40
2.5
 41
0.0
 71
     5
 72
     1
  1
φ1.5
  7
STYLE3
 11
0.8660254037844429
 21
0.4999999999999926
 31
0.0
 73
     1
 44
1.0
  0
POINT
  5
1656
330
18
100
AcDbEntity
  8
DEFPOINTS
  6
ByBlock
 62
     0
100
AcDbPoint
 10
446.90460974895
 20
276.0027454862588
 30
0.0
 50
60.00000000000049
  0
POINT
  5
1657
330
18
100
AcDbEntity
  8
DEFPOINTS
  6
ByBlock
 62
     0
100
AcDbPoint
 10
447.8379665935605
 20
268.3910089525781
 30
0.0
 50
60.00000000000049
  0
POINT
  5
1658
330
18
100
AcDbEntity
  8
DEFPOINTS
  6
ByBlock
 62
     0
100
AcDbPoint
 10
436.2361500211521
 20
288.4859447160843
 30
0.0
 50
60.00000000000049
  0
LINE
  5
1664
330
18
100
AcDbEntity
  8
0
  6
ByBlock
 62
     2
100
AcDbLine
 10
462.5270046992373
 20
270.9410089525781
 30
0.0
 11
480.2831544529635
 21
270.9410089525781
 31
0.0
  0
LINE
  5
1665
330
18
100
AcDbEntity
  8
0
  6
ByBlock
 62
     2
100
AcDbLine
 10
473.5021421308236
 20
267.6410089525782
 30
0.0
 11
480.2831544529635
 21
267.6410089525782
 31
0.0
  0
LINE
  5
1666
330
18
100
AcDbEntity
  8
0
  6
ByBlock
 62
     2
100
AcDbLine
 10
479.0331544529634
 20
273.4410089525781
 30
0.0
 11
479.0331544529634
 21
275.9410089525781
 31
0.0
  0
LINE
  5
1667
330
18
100
AcDbEntity
  8
0
  6
ByBlock
 62
     2
100
AcDbLine
 10
479.0331544529634
 20
265.1410089525782
 30
0.0
 11
479.0331544529634
 21
256.7680769105824
 31
0.0
  0
LINE
  5
1668
330
18
100
AcDbEntity
  8
0
  6
ByBlock
 62
     2
100
AcDbLine
 10
479.0331544529634
 20
270.9410089525781
 30
0.0
 11
479.0331544529634
 21
267.6410089525782
 31
0.0
  0
INSERT
  5
1669
330
18
100
AcDbEntity
  8
0
  6
ByBlock
 62
     2
100
AcDbBlockReference
  2
_OPEN
 10
479.0331544529634
 20
270.9410089525781
 30
0.0
 41
2.5
 42
2.5
 43
2.5
 50
270.0
  0
INSERT
  5
166A
330
18
100
AcDbEntity
  8
0
  6
ByBlock
 62
     2
100
AcDbBlockReference
  2
_OPEN
 10
479.0331544529634
 20
267.6410089525782
 30
0.0
 41
2.5
 42
2.5
 43
2.5
 50
90.0
  0
MTEXT
  5
166B
330
18
100
AcDbEntity
  8
0
  6
ByBlock
 62
     6
100
AcDbMText
 10
477.1581544529635
 20
260.6281836337995
 30
0.0
 40
2.5
 41
0.0
 71
     5
 72
     1
  1
\A1;1.65
  7
STYLE3
 11
0.0000000000000001
 21
1.0
 31
0.0
 73
     1
 44
1.0
  0
POINT
  5
166C
330
18
100
AcDbEntity
  8
DEFPOINTS
  6
ByBlock
 62
     0
100
AcDbPoint
 10
462.5270046992373
 20
270.9410089525781
 30
0.0
  0
POINT
  5
166D
330
18
100
AcDbEntity
  8
DEFPOINTS
  6
ByBlock
 62
     0
100
AcDbPoint
 10
473.5021421308236
 20
267.6410089525782
 30
0.0
  0
POINT
  5
166E
330
18
100
AcDbEntity
  8
DEFPOINTS
  6
ByBlock
 62
     0
100
AcDbPoint
 10
479.0331544529634
 20
267.6410089525782
 30
0.0
  0
TEXT
  5
166F
330
18
100
AcDbEntity
  8
文字
100
AcDbText
 10
434.3008452105208
 20
246.0752282919154
 30
0.0
 40
4.0
  1
A.B.C 断面図 
  7
STYLE3
100
AcDbText
  0
TEXT
  5
1670
330
18
100
AcDbEntity
  8
文字
100
AcDbText
 10
468.4435921134504
 20
246.1874526677943
 30
0.0
 40
3.0
  1
S=2／1
  7
STYLE3
100
AcDbText
  0
LINE
  5
1671
330
18
100
AcDbEntity
  8
外形線
100
AcDbLine
 10
433.9639098732922
 20
245.4018820366417
 30
0.0
 11
483.8302904450599
 21
245.4018820366417
 31
0.0
  0
LINE
  5
1686
330
18
100
AcDbEntity
  8
0
  6
ByBlock
 62
     2
100
AcDbLine
 10
311.8707387616321
 20
313.9659612898435
 30
0.0
 11
311.8707387616321
 21
331.0202293245263
 31
0.0
  0
LINE
  5
1687
330
18
100
AcDbEntity
  8
0
  6
ByBlock
 62
     2
100
AcDbLine
 10
317.8707387616321
 20
313.9659612898435
 30
0.0
 11
317.8707387616321
 21
331.0202293245263
 31
0.0
  0
LINE
  5
1688
330
18
100
AcDbEntity
  8
0
  6
ByBlock
 62
     2
100
AcDbLine
 10
309.3707387616321
 20
329.7702293245263
 30
0.0
 11
306.8707387616321
 21
329.7702293245263
 31
0.0
  0
LINE
  5
1689
330
18
100
AcDbEntity
  8
0
  6
ByBlock
 62
     2
100
AcDbLine
 10
320.3707387616321
 20
329.7702293245263
 30
0.0
 11
322.8707387616321
 21
329.7702293245263
 31
0.0
  0
LINE
  5
168A
330
18
100
AcDbEntity
  8
0
  6
ByBlock
 62
     2
100
AcDbLine
 10
311.8707387616321
 20
329.7702293245263
 30
0.0
 11
317.8707387616321
 21
329.7702293245263
 31
0.0
  0
INSERT
  5
168B
330
18
100
AcDbEntity
  8
0
  6
ByBlock
 62
     2
100
AcDbBlockReference
  2
_OPEN
 10
311.8707387616321
 20
329.7702293245263
 30
0.0
 41
2.5
 42
2.5
 43
2.5
  0
INSERT
  5
168C
330
18
100
AcDbEntity
  8
0
  6
ByBlock
 62
     2
100
AcDbBlockReference
  2
_OPEN
 10
317.8707387616321
 20
329.7702293245263
 30
0.0
 41
2.5
 42
2.5
 43
2.5
 50
180.0
  0
MTEXT
  5
168D
330
18
100
AcDbEntity
  8
0
  6
ByBlock
 62
     6
100
AcDbMText
 10
314.345939619042
 20
332.4948972301716
 30
0.0
 40
2.5
 41
0.0
 71
     5
 72
     1
  1
\A1;φ6.0
  7
STYLE3
 73
     1
 44
1.0
  0
POINT
  5
168E
330
18
100
AcDbEntity
  8
DEFPOINTS
  6
ByBlock
 62
     0
100
AcDbPoint
 10
311.8707387616321
 20
313.9659612898435
 30
0.0
  0
POINT
  5
168F
330
18
100
AcDbEntity
  8
DEFPOINTS
  6
ByBlock
 62
     0
100
AcDbPoint
 10
317.8707387616321
 20
313.9659612898435
 30
0.0
  0
POINT
  5
1690
330
18
100
AcDbEntity
  8
DEFPOINTS
  6
ByBlock
 62
     0
100
AcDbPoint
 10
317.8707387616321
 20
329.7702293245263
 30
0.0
  0
LINE
  5
16AB
330
18
100
AcDbEntity
  8
0
  6
ByBlock
 62
     2
100
AcDbLine
 10
311.0707387616321
 20
249.5141057796395
 30
0.0
 11
311.0707387616321
 21
252.0568516556888
 31
0.0
  0
LINE
  5
16AC
330
18
100
AcDbEntity
  8
0
  6
ByBlock
 62
     2
100
AcDbLine
 10
318.6707387616321
 20
249.2229784901886
 30
0.0
 11
318.6707387616321
 21
252.0568516556888
 31
0.0
  0
LINE
  5
16AD
330
18
100
AcDbEntity
  8
0
  6
ByBlock
 62
     2
100
AcDbLine
 10
311.070738761632
 20
250.8068516556888
 30
0.0
 11
318.6707387616321
 21
250.8068516556888
 31
0.0
  0
LINE
  5
16AE
330
18
100
AcDbEntity
  8
0
  6
ByBlock
 62
     2
100
AcDbLine
 10
318.6707387616321
 20
250.8068516556888
 30
0.0
 11
327.6588339997274
 21
250.8068516556888
 31
0.0
  0
MTEXT
  5
16B1
330
18
100
AcDbEntity
  8
0
  6
ByBlock
 62
     6
100
AcDbMText
 10
324.4147863806797
 20
252.6818516556888
 30
0.0
 40
2.5
 41
0.0
 71
     5
 72
     1
  1
\A1;7.6
  7
STYLE3
 73
     1
 44
1.0
  0
POINT
  5
16B2
330
18
100
AcDbEntity
  8
DEFPOINTS
  6
ByBlock
 62
     0
100
AcDbPoint
 10
311.0707387616321
 20
249.5141057796395
 30
0.0
  0
POINT
  5
16B3
330
18
100
AcDbEntity
  8
DEFPOINTS
  6
ByBlock
 62
     0
100
AcDbPoint
 10
318.6707387616321
 20
249.2229784901886
 30
0.0
  0
POINT
  5
16B4
330
18
100
AcDbEntity
  8
DEFPOINTS
  6
ByBlock
 62
     0
100
AcDbPoint
 10
318.6707387616321
 20
250.8068516556888
 30
0.0
  0
INSERT
  5
16B5
330
18
100
AcDbEntity
  8
0
  6
ByBlock
 62
     2
100
AcDbBlockReference
  2
_OPEN
 10
318.6707387616321
 20
250.8068516556888
 30
0.0
 41
-2.5
 42
2.5
 43
2.5
  0
INSERT
  5
16B6
330
18
100
AcDbEntity
  8
0
  6
ByBlock
 62
     2
100
AcDbBlockReference
  2
_OPEN
 10
311.0707387616321
 20
250.8068516556888
 30
0.0
 41
-2.5
 42
2.5
 43
2.5
 50
180.0
  0
LINE
  5
16B7
330
18
100
AcDbEntity
  8
寸法線
100
AcDbLine
 10
308.5707387616321
 20
250.8068516556888
 30
0.0
 11
306.2736961228192
 21
250.8068516556888
 31
0.0
  0
LINE
  5
16C0
330
18
100
AcDbEntity
  8
目盛
100
AcDbLine
 10
314.8707387616321
 20
296.1698088671369
 30
0.0
 11
314.8707387616321
 21
293.6698088671369
 31
0.0
  0
LINE
  5
1816
330
18
100
AcDbEntity
  8
目盛
100
AcDbLine
 10
320.7661142364409
 20
294.9627254554087
 30
0.0
 11
320.1765766889601
 21
293.5834337965814
 31
0.0
  0
LINE
  5
1817
330
18
100
AcDbEntity
  8
目盛
100
AcDbLine
 10
320.1413611228522
 20
295.2133319267329
 30
0.0
 11
319.6142988867302
 21
293.8089796207733
 31
0.0
  0
LINE
  5
1818
330
18
100
AcDbEntity
  8
目盛
100
AcDbLine
 10
319.5059936772562
 20
295.4356566115641
 30
0.0
 11
319.0424681856939
 21
294.0090718371214
 31
0.0
  0
LINE
  5
1819
330
18
100
AcDbEntity
  8
目盛
100
AcDbLine
 10
318.8612914451322
 20
295.6292517775746
 30
0.0
 11
318.4622361767822
 21
294.1833074865309
 31
0.0
  0
LINE
  5
181A
330
18
100
AcDbEntity
  8
目盛
100
AcDbLine
 10
318.2085527709769
 20
295.7937275498642
 30
0.0
 11
317.652250436086
 21
293.3564077694096
 31
0.0
  0
LINE
  5
181B
330
18
100
AcDbEntity
  8
目盛
100
AcDbLine
 10
317.5490921836117
 20
295.9287526961163
 30
0.0
 11
317.2812568414137
 21
294.4528583132184
 31
0.0
  0
LINE
  5
181C
330
18
100
AcDbEntity
  8
目盛
100
AcDbLine
 10
316.8842377488969
 20
296.0340552936559
 30
0.0
 11
316.6828878501705
 21
294.5476306510039
 31
0.0
  0
LINE
  5
181D
330
18
100
AcDbEntity
  8
目盛
100
AcDbLine
 10
316.2153283951836
 20
296.1094232770654
 30
0.0
 11
316.0808694318284
 21
294.6154618360726
 31
0.0
  0
LINE
  5
181E
330
18
100
AcDbEntity
  8
目盛
100
AcDbLine
 10
315.5437112168898
 20
296.1547048652566
 30
0.0
 11
315.476413971364
 21
294.6562152654446
 31
0.0
  0
LINE
  5
1821
330
18
100
AcDbEntity
  8
目盛
100
AcDbLine
 10
311.5329247522874
 20
295.7937275498643
 30
0.0
 11
312.0892270871782
 21
293.3564077694097
 31
0.0
  0
LINE
  5
1822
330
18
100
AcDbEntity
  8
目盛
100
AcDbLine
 10
308.3624826748687
 20
294.6843418856732
 30
0.0
 11
309.4471920226626
 21
292.4319197159171
 31
0.0
  0
LINE
  5
1823
330
18
100
AcDbEntity
  8
目盛
100
AcDbLine
 10
314.1977663063743
 20
296.1547048652566
 30
0.0
 11
314.2650635519002
 21
294.6562152654447
 31
0.0
  0
LINE
  5
1824
330
18
100
AcDbEntity
  8
目盛
100
AcDbLine
 10
313.5261491280806
 20
296.1094232770654
 30
0.0
 11
313.6606080914357
 21
294.6154618360726
 31
0.0
  0
LINE
  5
1825
330
18
100
AcDbEntity
  8
目盛
100
AcDbLine
 10
312.8572397743672
 20
296.0340552936559
 30
0.0
 11
313.0585896730937
 21
294.547630651004
 31
0.0
  0
LINE
  5
1826
330
18
100
AcDbEntity
  8
目盛
100
AcDbLine
 10
312.1923853396526
 20
295.9287526961163
 30
0.0
 11
312.4602206818505
 21
294.4528583132183
 31
0.0
  0
LINE
  5
1827
330
18
100
AcDbEntity
  8
目盛
100
AcDbLine
 10
310.880186078132
 20
295.6292517775747
 30
0.0
 11
311.279241346482
 21
294.1833074865309
 31
0.0
  0
LINE
  5
1828
330
18
100
AcDbEntity
  8
目盛
100
AcDbLine
 10
310.2354838460079
 20
295.4356566115642
 30
0.0
 11
310.6990093375704
 21
294.0090718371214
 31
0.0
  0
LINE
  5
1829
330
18
100
AcDbEntity
  8
目盛
100
AcDbLine
 10
309.6001164004119
 20
295.2133319267329
 30
0.0
 11
310.1271786365339
 21
293.8089796207734
 31
0.0
  0
LINE
  5
182A
330
18
100
AcDbEntity
  8
目盛
100
AcDbLine
 10
308.9753632868232
 20
294.9627254554086
 30
0.0
 11
309.5649008343041
 21
293.5834337965815
 31
0.0
  0
LINE
  5
182B
330
18
100
AcDbEntity
  8
目盛
100
AcDbLine
 10
305.5183917337511
 20
292.8972811041574
 30
0.0
 11
307.0771162383979
 21
290.9427023979873
 31
0.0
  0
LINE
  5
182C
330
18
100
AcDbEntity
  8
目盛
100
AcDbLine
 10
303.1432665246116
 20
290.5221558950179
 30
0.0
 11
305.0978452307817
 21
288.9634313903711
 31
0.0
  0
LINE
  5
182D
330
18
100
AcDbEntity
  8
目盛
100
AcDbLine
 10
307.7627088245371
 20
294.3787418449879
 30
0.0
 11
308.4735118182466
 21
293.0578485472029
 31
0.0
  0
LINE
  5
182E
330
18
100
AcDbEntity
  8
目盛
100
AcDbLine
 10
307.1772496005435
 20
294.0465407711648
 30
0.0
 11
307.9465985166524
 21
292.7588675807621
 31
0.0
  0
LINE
  5
182F
330
18
100
AcDbEntity
  8
目盛
100
AcDbLine
 10
306.6072840398505
 20
293.6884076729564
 30
0.0
 11
307.4336295120287
 21
292.4365477923745
 31
0.0
  0
LINE
  5
1830
330
18
100
AcDbEntity
  8
目盛
100
AcDbLine
 10
306.053959977245
 20
293.3050637827611
 30
0.0
 11
306.9356378556837
 21
292.0915382911987
 31
0.0
  0
LINE
  5
1831
330
18
100
AcDbEntity
  8
目盛
100
AcDbLine
 10
305.0016578725364
 20
292.4658808571911
 30
0.0
 11
305.9885659614459
 21
291.3362736581856
 31
0.0
  0
LINE
  5
1832
330
18
100
AcDbEntity
  8
目盛
100
AcDbLine
 10
304.5047990268291
 20
292.0117318245478
 30
0.0
 11
305.5413930003095
 21
290.9275395288067
 31
0.0
  0
LINE
  5
1833
330
18
100
AcDbEntity
  8
目盛
100
AcDbLine
 10
304.0288158042212
 20
291.5357486019399
 30
0.0
 11
305.1130080999623
 21
290.4991546284596
 31
0.0
  0
LINE
  5
1834
330
18
100
AcDbEntity
  8
目盛
100
AcDbLine
 10
303.5746667715779
 20
291.0388897562325
 30
0.0
 11
304.7042739705834
 21
290.051981667323
 31
0.0
  0
LINE
  5
1835
330
18
100
AcDbEntity
  8
目盛
100
AcDbLine
 10
301.3562057430958
 20
287.6780649539002
 30
0.0
 11
303.6086279128519
 21
286.5933556061063
 31
0.0
  0
LINE
  5
1836
330
18
100
AcDbEntity
  8
目盛
100
AcDbLine
 10
300.2468200789047
 20
284.5076228764816
 30
0.0
 11
302.6841398593592
 21
283.9513205415908
 31
0.0
  0
LINE
  5
1837
330
18
100
AcDbEntity
  8
目盛
100
AcDbLine
 10
302.7354838460078
 20
289.9865876515239
 30
0.0
 11
303.9490093375703
 21
289.1049097730853
 31
0.0
  0
LINE
  5
1838
330
18
100
AcDbEntity
  8
目盛
100
AcDbLine
 10
302.3521399558125
 20
289.4332635889184
 30
0.0
 11
303.6039998363945
 21
288.6069181167402
 31
0.0
  0
LINE
  5
1839
330
18
100
AcDbEntity
  8
目盛
100
AcDbLine
 10
301.9940068576041
 20
288.8632980282253
 30
0.0
 11
303.2816800480069
 21
288.0939491121166
 31
0.0
  0
LINE
  5
183A
330
18
100
AcDbEntity
  8
目盛
100
AcDbLine
 10
301.6618057837811
 20
288.2778388042318
 30
0.0
 11
302.9826990815661
 21
287.5670358105223
 31
0.0
  0
LINE
  5
183B
330
18
100
AcDbEntity
  8
目盛
100
AcDbLine
 10
301.0778221733603
 20
287.0651843419457
 30
0.0
 11
302.4571138321875
 21
286.4756467944648
 31
0.0
  0
LINE
  5
183C
330
18
100
AcDbEntity
  8
目盛
100
AcDbLine
 10
300.827215702036
 20
286.440431228357
 30
0.0
 11
302.2315680079956
 21
285.913368992235
 31
0.0
  0
LINE
  5
183D
330
18
100
AcDbEntity
  8
目盛
100
AcDbLine
 10
300.6048910172048
 20
285.805063782761
 30
0.0
 11
302.0314757916474
 21
285.3415382911986
 31
0.0
  0
LINE
  5
183E
330
18
100
AcDbEntity
  8
目盛
100
AcDbLine
 10
300.4112958511943
 20
285.160361550637
 30
0.0
 11
301.8572401422381
 21
284.7613062822869
 31
0.0
  0
LINE
  5
183F
330
18
100
AcDbEntity
  8
目盛
100
AcDbLine
 10
299.8707387616321
 20
281.1698088671369
 30
0.0
 11
302.3707387616322
 21
281.1698088671369
 31
0.0
  0
LINE
  5
1840
330
18
100
AcDbEntity
  8
目盛
100
AcDbLine
 10
300.2468200789048
 20
277.8319948577922
 30
0.0
 11
302.6841398593593
 21
278.3882971926829
 31
0.0
  0
LINE
  5
1841
330
18
100
AcDbEntity
  8
目盛
100
AcDbLine
 10
300.1117949326527
 20
283.8481622891164
 30
0.0
 11
301.5876893155507
 21
283.5803269469185
 31
0.0
  0
LINE
  5
1842
330
18
100
AcDbEntity
  8
目盛
100
AcDbLine
 10
300.0064923351132
 20
283.1833078544018
 30
0.0
 11
301.4929169777651
 21
282.9819579556752
 31
0.0
  0
LINE
  5
1843
330
18
100
AcDbEntity
  8
目盛
100
AcDbLine
 10
299.9311243517036
 20
282.5143985006883
 30
0.0
 11
301.4250857926965
 21
282.3799395373332
 31
0.0
  0
LINE
  5
1844
330
18
100
AcDbEntity
  8
目盛
100
AcDbLine
 10
299.8858427635125
 20
281.8427813223946
 30
0.0
 11
301.3843323633244
 21
281.7754840768689
 31
0.0
  0
LINE
  5
1845
330
18
100
AcDbEntity
  8
目盛
100
AcDbLine
 10
299.8858427635124
 20
280.4968364118792
 30
0.0
 11
301.3843323633244
 21
280.564133657405
 31
0.0
  0
LINE
  5
1846
330
18
100
AcDbEntity
  8
目盛
100
AcDbLine
 10
299.9311243517036
 20
279.8252192335854
 30
0.0
 11
301.4250857926965
 21
279.9596781969406
 31
0.0
  0
LINE
  5
1847
330
18
100
AcDbEntity
  8
目盛
100
AcDbLine
 10
300.0064923351132
 20
279.156309879872
 30
0.0
 11
301.492916977765
 21
279.3576597785985
 31
0.0
  0
LINE
  5
1848
330
18
100
AcDbEntity
  8
目盛
100
AcDbLine
 10
300.1117949326527
 20
278.4914554451573
 30
0.0
 11
301.5876893155507
 21
278.7592907873553
 31
0.0
  0
LINE
  5
1849
330
18
100
AcDbEntity
  8
目盛
100
AcDbLine
 10
301.3562057430958
 20
274.6615527803735
 30
0.0
 11
303.6086279128519
 21
275.7462621281674
 31
0.0
  0
LINE
  5
184A
330
18
100
AcDbEntity
  8
目盛
100
AcDbLine
 10
303.1432665246116
 20
271.8174618392558
 30
0.0
 11
305.0978452307817
 21
273.3761863439027
 31
0.0
  0
LINE
  5
184B
330
18
100
AcDbEntity
  8
目盛
100
AcDbLine
 10
300.4112958511943
 20
277.1792561836367
 30
0.0
 11
301.8572401422381
 21
277.5783114519868
 31
0.0
  0
LINE
  5
184C
330
18
100
AcDbEntity
  8
目盛
100
AcDbLine
 10
300.6048910172048
 20
276.5345539515126
 30
0.0
 11
302.0314757916475
 21
276.9980794430751
 31
0.0
  0
LINE
  5
184D
330
18
100
AcDbEntity
  8
目盛
100
AcDbLine
 10
300.8272157020361
 20
275.8991865059167
 30
0.0
 11
302.2315680079956
 21
276.4262487420387
 31
0.0
  0
LINE
  5
184E
330
18
100
AcDbEntity
  8
目盛
100
AcDbLine
 10
301.0778221733604
 20
275.274433392328
 30
0.0
 11
302.4571138321875
 21
275.8639709398089
 31
0.0
  0
LINE
  5
184F
330
18
100
AcDbEntity
  8
目盛
100
AcDbLine
 10
301.661805783781
 20
274.0617789300419
 30
0.0
 11
302.9826990815661
 21
274.7725819237514
 31
0.0
  0
LINE
  5
1850
330
18
100
AcDbEntity
  8
目盛
100
AcDbLine
 10
301.9940068576041
 20
273.4763197060483
 30
0.0
 11
303.2816800480069
 21
274.2456686221572
 31
0.0
  0
LINE
  5
1851
330
18
100
AcDbEntity
  8
目盛
100
AcDbLine
 10
302.3521399558125
 20
272.9063541453553
 30
0.0
 11
303.6039998363945
 21
273.7326996175335
 31
0.0
  0
LINE
  5
1852
330
18
100
AcDbEntity
  8
目盛
100
AcDbLine
 10
302.7354838460079
 20
272.3530300827497
 30
0.0
 11
303.9490093375703
 21
273.2347079611884
 31
0.0
  0
LINE
  5
1853
330
18
100
AcDbEntity
  8
目盛
100
AcDbLine
 10
305.5183917337509
 20
269.4423366301164
 30
0.0
 11
307.0771162383978
 21
271.3969153362865
 31
0.0
  0
LINE
  5
1854
330
18
100
AcDbEntity
  8
目盛
100
AcDbLine
 10
308.3624826748687
 20
267.6552758486006
 30
0.0
 11
309.4471920226625
 21
269.9076980183567
 31
0.0
  0
LINE
  5
1855
330
18
100
AcDbEntity
  8
目盛
100
AcDbLine
 10
303.5746667715779
 20
271.3007279780411
 30
0.0
 11
304.7042739705832
 21
272.2876360669508
 31
0.0
  0
LINE
  5
1856
330
18
100
AcDbEntity
  8
目盛
100
AcDbLine
 10
304.0288158042212
 20
270.8038691323339
 30
0.0
 11
305.1130080999623
 21
271.8404631058142
 31
0.0
  0
LINE
  5
1857
330
18
100
AcDbEntity
  8
目盛
100
AcDbLine
 10
304.5047990268291
 20
270.327885909726
 30
0.0
 11
305.5413930003094
 21
271.4120782054671
 31
0.0
  0
LINE
  5
1858
330
18
100
AcDbEntity
  8
目盛
100
AcDbLine
 10
305.0016578725364
 20
269.8737368770828
 30
0.0
 11
305.9885659614459
 21
271.0033440760881
 31
0.0
  0
LINE
  5
1859
330
18
100
AcDbEntity
  8
目盛
100
AcDbLine
 10
306.0539599772448
 20
269.0345539515127
 30
0.0
 11
306.9356378556836
 21
270.248079443075
 31
0.0
  0
LINE
  5
185A
330
18
100
AcDbEntity
  8
目盛
100
AcDbLine
 10
306.6072840398505
 20
268.6512100613173
 30
0.0
 11
307.4336295120286
 21
269.9030699418993
 31
0.0
  0
LINE
  5
185B
330
18
100
AcDbEntity
  8
目盛
100
AcDbLine
 10
307.1772496005434
 20
268.2930769631088
 30
0.0
 11
307.9465985166523
 21
269.5807501535117
 31
0.0
  0
LINE
  5
185C
330
18
100
AcDbEntity
  8
目盛
100
AcDbLine
 10
307.762708824537
 20
267.9608758892858
 30
0.0
 11
308.4735118182465
 21
269.2817691870709
 31
0.0
  0
LINE
  5
185D
330
18
100
AcDbEntity
  8
目盛
100
AcDbLine
 10
311.5329247522873
 20
266.5458901844095
 30
0.0
 11
312.0892270871781
 21
268.9832099648641
 31
0.0
  0
LINE
  5
185E
330
18
100
AcDbEntity
  8
目盛
100
AcDbLine
 10
314.870738761632
 20
266.1698088671369
 30
0.0
 11
314.870738761632
 21
268.6698088671369
 31
0.0
  0
LINE
  5
185F
330
18
100
AcDbEntity
  8
目盛
100
AcDbLine
 10
308.9753632868232
 20
267.3768922788651
 30
0.0
 11
309.564900834304
 21
268.7561839376924
 31
0.0
  0
LINE
  5
1860
330
18
100
AcDbEntity
  8
目盛
100
AcDbLine
 10
309.6001164004119
 20
267.1262858075408
 30
0.0
 11
310.1271786365339
 21
268.5306381135005
 31
0.0
  0
LINE
  5
1861
330
18
100
AcDbEntity
  8
目盛
100
AcDbLine
 10
310.2354838460079
 20
266.9039611227096
 30
0.0
 11
310.6990093375703
 21
268.3305458971523
 31
0.0
  0
LINE
  5
1862
330
18
100
AcDbEntity
  8
目盛
100
AcDbLine
 10
310.8801860781319
 20
266.7103659566992
 30
0.0
 11
311.2792413464819
 21
268.1563102477429
 31
0.0
  0
LINE
  5
1863
330
18
100
AcDbEntity
  8
目盛
100
AcDbLine
 10
312.1923853396524
 20
266.4108650381574
 30
0.0
 11
312.4602206818504
 21
267.8867594210554
 31
0.0
  0
LINE
  5
1864
330
18
100
AcDbEntity
  8
目盛
100
AcDbLine
 10
312.8572397743672
 20
266.3055624406179
 30
0.0
 11
313.0585896730936
 21
267.7919870832698
 31
0.0
  0
LINE
  5
1865
330
18
100
AcDbEntity
  8
目盛
100
AcDbLine
 10
313.5261491280805
 20
266.2301944572083
 30
0.0
 11
313.6606080914357
 21
267.7241558982012
 31
0.0
  0
LINE
  5
1866
330
18
100
AcDbEntity
  8
目盛
100
AcDbLine
 10
314.1977663063743
 20
266.1849128690172
 30
0.0
 11
314.2650635519001
 21
267.6834024688292
 31
0.0
  0
LINE
  5
1867
330
18
100
AcDbEntity
  8
目盛
100
AcDbLine
 10
318.2085527709768
 20
266.5458901844095
 30
0.0
 11
317.652250436086
 21
268.983209964864
 31
0.0
  0
LINE
  5
1868
330
18
100
AcDbEntity
  8
目盛
100
AcDbLine
 10
321.3789948483955
 20
267.6552758486006
 30
0.0
 11
320.2942855006016
 21
269.9076980183566
 31
0.0
  0
LINE
  5
1869
330
18
100
AcDbEntity
  8
目盛
100
AcDbLine
 10
315.5437112168899
 20
266.1849128690171
 30
0.0
 11
315.476413971364
 21
267.6834024688291
 31
0.0
  0
LINE
  5
186A
330
18
100
AcDbEntity
  8
目盛
100
AcDbLine
 10
316.2153283951836
 20
266.2301944572083
 30
0.0
 11
316.0808694318284
 21
267.7241558982011
 31
0.0
  0
LINE
  5
186B
330
18
100
AcDbEntity
  8
目盛
100
AcDbLine
 10
316.884237748897
 20
266.3055624406179
 30
0.0
 11
316.6828878501704
 21
267.7919870832697
 31
0.0
  0
LINE
  5
186C
330
18
100
AcDbEntity
  8
目盛
100
AcDbLine
 10
317.5490921836116
 20
266.4108650381574
 30
0.0
 11
317.2812568414137
 21
267.8867594210554
 31
0.0
  0
LINE
  5
186D
330
18
100
AcDbEntity
  8
目盛
100
AcDbLine
 10
318.8612914451322
 20
266.710365956699
 30
0.0
 11
318.4622361767822
 21
268.1563102477428
 31
0.0
  0
LINE
  5
186E
330
18
100
AcDbEntity
  8
目盛
100
AcDbLine
 10
319.5059936772563
 20
266.9039611227096
 30
0.0
 11
319.0424681856938
 21
268.3305458971523
 31
0.0
  0
LINE
  5
186F
330
18
100
AcDbEntity
  8
目盛
100
AcDbLine
 10
320.1413611228523
 20
267.1262858075408
 30
0.0
 11
319.6142988867302
 21
268.5306381135004
 31
0.0
  0
LINE
  5
1870
330
18
100
AcDbEntity
  8
目盛
100
AcDbLine
 10
320.766114236441
 20
267.3768922788651
 30
0.0
 11
320.1765766889601
 21
268.7561839376922
 31
0.0
  0
LINE
  5
1871
330
18
100
AcDbEntity
  8
目盛
100
AcDbLine
 10
324.2230857895131
 20
269.4423366301164
 30
0.0
 11
322.6643612848662
 21
271.3969153362864
 31
0.0
  0
LINE
  5
1872
330
18
100
AcDbEntity
  8
目盛
100
AcDbLine
 10
326.5982109986525
 20
271.8174618392558
 30
0.0
 11
324.6436322924824
 21
273.3761863439026
 31
0.0
  0
LINE
  5
1873
330
18
100
AcDbEntity
  8
目盛
100
AcDbLine
 10
321.9787686987271
 20
267.9608758892858
 30
0.0
 11
321.2679657050175
 21
269.2817691870708
 31
0.0
  0
LINE
  5
1874
330
18
100
AcDbEntity
  8
目盛
100
AcDbLine
 10
322.5642279227206
 20
268.2930769631088
 30
0.0
 11
321.7948790066118
 21
269.5807501535116
 31
0.0
  0
LINE
  5
1875
330
18
100
AcDbEntity
  8
目盛
100
AcDbLine
 10
323.1341934834136
 20
268.6512100613173
 30
0.0
 11
322.3078480112355
 21
269.9030699418992
 31
0.0
  0
LINE
  5
1876
330
18
100
AcDbEntity
  8
目盛
100
AcDbLine
 10
323.6875175460192
 20
269.0345539515126
 30
0.0
 11
322.8058396675805
 21
270.248079443075
 31
0.0
  0
LINE
  5
1877
330
18
100
AcDbEntity
  8
目盛
100
AcDbLine
 10
324.7398196507278
 20
269.8737368770827
 30
0.0
 11
323.7529115618182
 21
271.0033440760881
 31
0.0
  0
LINE
  5
1878
330
18
100
AcDbEntity
  8
目盛
100
AcDbLine
 10
325.2366784964351
 20
270.3278859097259
 30
0.0
 11
324.2000845229547
 21
271.412078205467
 31
0.0
  0
LINE
  5
1879
330
18
100
AcDbEntity
  8
目盛
100
AcDbLine
 10
325.712661719043
 20
270.8038691323339
 30
0.0
 11
324.6284694233019
 21
271.8404631058141
 31
0.0
  0
LINE
  5
187A
330
18
100
AcDbEntity
  8
目盛
100
AcDbLine
 10
326.1668107516863
 20
271.3007279780411
 30
0.0
 11
325.0372035526808
 21
272.2876360669507
 31
0.0
  0
LINE
  5
187B
330
18
100
AcDbEntity
  8
目盛
100
AcDbLine
 10
328.3852717801683
 20
274.6615527803734
 30
0.0
 11
326.1328496104123
 21
275.7462621281673
 31
0.0
  0
LINE
  5
187C
330
18
100
AcDbEntity
  8
目盛
100
AcDbLine
 10
329.4946574443594
 20
277.8319948577922
 30
0.0
 11
327.0573376639049
 21
278.3882971926829
 31
0.0
  0
LINE
  5
187D
330
18
100
AcDbEntity
  8
目盛
100
AcDbLine
 10
327.0059936772564
 20
272.3530300827497
 30
0.0
 11
325.7924681856938
 21
273.2347079611884
 31
0.0
  0
LINE
  5
187E
330
18
100
AcDbEntity
  8
目盛
100
AcDbLine
 10
327.3893375674516
 20
272.9063541453552
 30
0.0
 11
326.1374776868696
 21
273.7326996175335
 31
0.0
  0
LINE
  5
187F
330
18
100
AcDbEntity
  8
目盛
100
AcDbLine
 10
327.7474706656601
 20
273.4763197060483
 30
0.0
 11
326.4597974752572
 21
274.2456686221571
 31
0.0
  0
LINE
  5
1880
330
18
100
AcDbEntity
  8
目盛
100
AcDbLine
 10
328.0796717394831
 20
274.0617789300419
 30
0.0
 11
326.758778441698
 21
274.7725819237514
 31
0.0
  0
LINE
  5
1881
330
18
100
AcDbEntity
  8
目盛
100
AcDbLine
 10
328.6636553499038
 20
275.274433392328
 30
0.0
 11
327.2843636910767
 21
275.8639709398088
 31
0.0
  0
LINE
  5
1882
330
18
100
AcDbEntity
  8
目盛
100
AcDbLine
 10
328.9142618212281
 20
275.8991865059167
 30
0.0
 11
327.5099095152685
 21
276.4262487420386
 31
0.0
  0
LINE
  5
1883
330
18
100
AcDbEntity
  8
目盛
100
AcDbLine
 10
329.1365865060594
 20
276.5345539515126
 30
0.0
 11
327.7100017316167
 21
276.998079443075
 31
0.0
  0
LINE
  5
1884
330
18
100
AcDbEntity
  8
目盛
100
AcDbLine
 10
329.3301816720699
 20
277.1792561836367
 30
0.0
 11
327.8842373810261
 21
277.5783114519867
 31
0.0
  0
LINE
  5
1885
330
18
100
AcDbEntity
  8
目盛
100
AcDbLine
 10
329.8707387616321
 20
281.1698088671369
 30
0.0
 11
327.3707387616321
 21
281.1698088671369
 31
0.0
  0
LINE
  5
1886
330
18
100
AcDbEntity
  8
目盛
100
AcDbLine
 10
329.4946574443594
 20
284.5076228764816
 30
0.0
 11
327.0573376639049
 21
283.9513205415908
 31
0.0
  0
LINE
  5
1887
330
18
100
AcDbEntity
  8
目盛
100
AcDbLine
 10
329.6296825906115
 20
278.4914554451573
 30
0.0
 11
328.1537882077135
 21
278.7592907873552
 31
0.0
  0
LINE
  5
1888
330
18
100
AcDbEntity
  8
目盛
100
AcDbLine
 10
329.7349851881512
 20
279.156309879872
 30
0.0
 11
328.2485605454992
 21
279.3576597785985
 31
0.0
  0
LINE
  5
1889
330
18
100
AcDbEntity
  8
目盛
100
AcDbLine
 10
329.8103531715606
 20
279.8252192335854
 30
0.0
 11
328.3163917305679
 21
279.9596781969405
 31
0.0
  0
LINE
  5
188A
330
18
100
AcDbEntity
  8
目盛
100
AcDbLine
 10
329.8556347597517
 20
280.4968364118791
 30
0.0
 11
328.3571451599398
 21
280.5641336574049
 31
0.0
  0
LINE
  5
188B
330
18
100
AcDbEntity
  8
目盛
100
AcDbLine
 10
329.8556347597519
 20
281.8427813223946
 30
0.0
 11
328.3571451599398
 21
281.7754840768688
 31
0.0
  0
LINE
  5
188C
330
18
100
AcDbEntity
  8
目盛
100
AcDbLine
 10
329.8103531715606
 20
282.5143985006884
 30
0.0
 11
328.3163917305678
 21
282.3799395373331
 31
0.0
  0
LINE
  5
188D
330
18
100
AcDbEntity
  8
目盛
100
AcDbLine
 10
329.7349851881511
 20
283.1833078544018
 30
0.0
 11
328.2485605454992
 21
282.9819579556752
 31
0.0
  0
LINE
  5
188E
330
18
100
AcDbEntity
  8
目盛
100
AcDbLine
 10
329.6296825906115
 20
283.8481622891164
 30
0.0
 11
328.1537882077135
 21
283.5803269469185
 31
0.0
  0
LINE
  5
188F
330
18
100
AcDbEntity
  8
目盛
100
AcDbLine
 10
328.3852717801685
 20
287.6780649539002
 30
0.0
 11
326.1328496104124
 21
286.5933556061063
 31
0.0
  0
LINE
  5
1890
330
18
100
AcDbEntity
  8
目盛
100
AcDbLine
 10
326.5982109986525
 20
290.5221558950179
 30
0.0
 11
324.6436322924824
 21
288.9634313903711
 31
0.0
  0
LINE
  5
1891
330
18
100
AcDbEntity
  8
目盛
100
AcDbLine
 10
329.3301816720699
 20
285.1603615506371
 30
0.0
 11
327.8842373810261
 21
284.7613062822869
 31
0.0
  0
LINE
  5
1892
330
18
100
AcDbEntity
  8
目盛
100
AcDbLine
 10
329.1365865060594
 20
285.8050637827611
 30
0.0
 11
327.7100017316167
 21
285.3415382911986
 31
0.0
  0
LINE
  5
1893
330
18
100
AcDbEntity
  8
目盛
100
AcDbLine
 10
328.9142618212281
 20
286.440431228357
 30
0.0
 11
327.5099095152685
 21
285.913368992235
 31
0.0
  0
LINE
  5
1894
330
18
100
AcDbEntity
  8
目盛
100
AcDbLine
 10
328.6636553499038
 20
287.0651843419457
 30
0.0
 11
327.2843636910766
 21
286.4756467944648
 31
0.0
  0
LINE
  5
1895
330
18
100
AcDbEntity
  8
目盛
100
AcDbLine
 10
328.0796717394832
 20
288.2778388042319
 30
0.0
 11
326.7587784416981
 21
287.5670358105224
 31
0.0
  0
LINE
  5
1896
330
18
100
AcDbEntity
  8
目盛
100
AcDbLine
 10
327.7474706656601
 20
288.8632980282255
 30
0.0
 11
326.4597974752573
 21
288.0939491121165
 31
0.0
  0
LINE
  5
1897
330
18
100
AcDbEntity
  8
目盛
100
AcDbLine
 10
327.3893375674516
 20
289.4332635889185
 30
0.0
 11
326.1374776868696
 21
288.6069181167402
 31
0.0
  0
LINE
  5
1898
330
18
100
AcDbEntity
  8
目盛
100
AcDbLine
 10
327.0059936772563
 20
289.986587651524
 30
0.0
 11
325.7924681856938
 21
289.1049097730853
 31
0.0
  0
LINE
  5
1899
330
18
100
AcDbEntity
  8
目盛
100
AcDbLine
 10
324.2230857895131
 20
292.8972811041573
 30
0.0
 11
322.6643612848663
 21
290.9427023979872
 31
0.0
  0
LINE
  5
189A
330
18
100
AcDbEntity
  8
目盛
100
AcDbLine
 10
321.3789948483955
 20
294.6843418856731
 30
0.0
 11
320.2942855006016
 21
292.431919715917
 31
0.0
  0
LINE
  5
189B
330
18
100
AcDbEntity
  8
目盛
100
AcDbLine
 10
326.1668107516863
 20
291.0388897562325
 30
0.0
 11
325.0372035526809
 21
290.0519816673229
 31
0.0
  0
LINE
  5
189C
330
18
100
AcDbEntity
  8
目盛
100
AcDbLine
 10
325.712661719043
 20
291.5357486019398
 30
0.0
 11
324.6284694233019
 21
290.4991546284595
 31
0.0
  0
LINE
  5
189D
330
18
100
AcDbEntity
  8
目盛
100
AcDbLine
 10
325.2366784964351
 20
292.0117318245477
 30
0.0
 11
324.2000845229548
 21
290.9275395288066
 31
0.0
  0
LINE
  5
189E
330
18
100
AcDbEntity
  8
目盛
100
AcDbLine
 10
324.7398196507278
 20
292.4658808571909
 30
0.0
 11
323.7529115618182
 21
291.3362736581856
 31
0.0
  0
LINE
  5
189F
330
18
100
AcDbEntity
  8
目盛
100
AcDbLine
 10
323.6875175460192
 20
293.305063782761
 30
0.0
 11
322.8058396675805
 21
292.0915382911987
 31
0.0
  0
LINE
  5
18A0
330
18
100
AcDbEntity
  8
目盛
100
AcDbLine
 10
323.1341934834136
 20
293.6884076729563
 30
0.0
 11
322.3078480112355
 21
292.4365477923744
 31
0.0
  0
LINE
  5
18A1
330
18
100
AcDbEntity
  8
目盛
100
AcDbLine
 10
322.5642279227207
 20
294.0465407711648
 30
0.0
 11
321.7948790066119
 21
292.758867580762
 31
0.0
  0
LINE
  5
18A2
330
18
100
AcDbEntity
  8
目盛
100
AcDbLine
 10
321.9787686987272
 20
294.3787418449879
 30
0.0
 11
321.2679657050176
 21
293.0578485472027
 31
0.0
  0
TEXT
  5
18A5
330
18
100
AcDbEntity
  8
文字
100
AcDbText
 10
318.2950976253578
 20
290.0291686494096
 30
0.0
 40
1.8
  1
20
 41
0.9
  7
STYLE3
100
AcDbText
  0
TEXT
  5
18A6
330
18
100
AcDbEntity
  8
文字
100
AcDbText
 10
321.9026388774294
 20
286.7017185891096
 30
0.0
 40
1.8
  1
40
 41
0.9
  7
STYLE3
100
AcDbText
  0
TEXT
  5
18A7
330
18
100
AcDbEntity
  8
文字
100
AcDbText
 10
323.7896612747257
 20
282.6533213494126
 30
0.0
 40
1.8
  1
60
 41
0.9
  7
STYLE3
100
AcDbText
  0
TEXT
  5
18A8
330
18
100
AcDbEntity
  8
文字
100
AcDbText
 10
323.6231592984938
 20
277.7176036993005
 30
0.0
 40
1.8
  1
80
 41
0.9
  7
STYLE3
100
AcDbText
  0
TEXT
  5
18A9
330
18
100
AcDbEntity
  8
文字
100
AcDbText
 10
321.1256296550136
 20
273.6692060046017
 30
0.0
 40
1.8
  1
100
 41
0.9
  7
STYLE3
100
AcDbText
  0
TEXT
  5
18AA
330
18
100
AcDbEntity
  8
文字
100
AcDbText
 10
317.6290889372855
 20
270.5081282653159
 30
0.0
 40
1.8
  1
120
 41
0.9
  7
STYLE3
100
AcDbText
  0
TEXT
  5
18AB
330
18
100
AcDbEntity
  8
文字
100
AcDbText
 10
312.3565279228939
 20
269.2326057725343
 30
0.0
 40
1.8
  1
140
 41
0.9
  7
STYLE3
100
AcDbText
  0
TEXT
  5
18AC
330
18
100
AcDbEntity
  8
文字
100
AcDbText
 10
307.3059687603336
 20
270.6190436009939
 30
0.0
 40
1.8
  1
120
 41
0.9
  7
STYLE3
100
AcDbText
  0
TEXT
  5
18AD
330
18
100
AcDbEntity
  8
文字
100
AcDbText
 10
303.8094280426057
 20
273.891035765954
 30
0.0
 40
1.8
  1
100
 41
0.9
  7
STYLE3
100
AcDbText
  0
TEXT
  5
18AE
330
18
100
AcDbEntity
  8
文字
100
AcDbText
 10
303.0324188201897
 20
277.5512309232845
 30
0.0
 40
1.8
  1
80
 41
0.9
  7
STYLE3
100
AcDbText
  0
TEXT
  5
18AF
330
18
100
AcDbEntity
  8
文字
100
AcDbText
 10
302.9214175027016
 20
282.7642366850907
 30
0.0
 40
1.8
  1
60
 41
0.9
  7
STYLE3
100
AcDbText
  0
TEXT
  5
18B0
330
18
100
AcDbEntity
  8
文字
100
AcDbText
 10
304.7529392412538
 20
287.3672087831703
 30
0.0
 40
1.8
  1
40
 41
0.9
  7
STYLE3
100
AcDbText
  0
TEXT
  5
18B1
330
18
100
AcDbEntity
  8
文字
100
AcDbText
 10
308.5824839114457
 20
290.0846260897479
 30
0.0
 40
1.8
  1
20
 41
0.9
  7
STYLE3
100
AcDbText
  0
LINE
  5
192C
330
18
100
AcDbEntity
  8
針
100
AcDbLine
 10
311.6420069750183
 20
294.9980477662197
 30
0.0
 11
311.778495329065
 21
295.0292075032157
 31
0.0
  0
LINE
  5
1989
330
18
100
AcDbEntity
  8
外形線
100
AcDbLine
 10
315.970738761632
 20
231.4698088671369
 30
0.0
 11
313.7707387616322
 21
231.4698088671369
 31
0.0
  0
LINE
  5
199C
330
18
100
AcDbEntity
  8
外形線
100
AcDbLine
 10
315.9707387616321
 20
233.8698088671369
 30
0.0
 11
315.9707387616321
 21
232.4698088671368
 31
0.0
  0
LINE
  5
199D
330
18
100
AcDbEntity
  8
外形線
100
AcDbLine
 10
315.8707387616321
 20
233.9698088671369
 30
0.0
 11
315.9707387616321
 21
233.8698088671369
 31
0.0
  0
LINE
  5
199E
330
18
100
AcDbEntity
  8
外形線
100
AcDbLine
 10
315.9707387616321
 20
232.4698088671369
 30
0.0
 11
315.5207387616321
 21
232.2198088671368
 31
0.0
  0
LINE
  5
19A3
330
18
100
AcDbEntity
  8
外形線
 62
     4
100
AcDbLine
 10
315.520738761632
 20
232.2198088671368
 30
0.0
 11
314.2207387616321
 21
232.2198088671368
 31
0.0
  0
LINE
  5
19A4
330
18
100
AcDbEntity
  8
外形線
100
AcDbLine
 10
315.9707387616321
 20
231.9698088671367
 30
0.0
 11
315.5207387616321
 21
232.2198088671368
 31
0.0
  0
LINE
  5
19A5
330
18
100
AcDbEntity
  8
外形線
100
AcDbLine
 10
313.7707387616321
 20
231.9698088671367
 30
0.0
 11
314.2207387616321
 21
232.2198088671368
 31
0.0
  0
LINE
  5
19A6
330
18
100
AcDbEntity
  8
外形線
100
AcDbLine
 10
313.7707387616321
 20
232.4698088671369
 30
0.0
 11
314.2207387616321
 21
232.2198088671368
 31
0.0
  0
LINE
  5
19A7
330
18
100
AcDbEntity
  8
外形線
100
AcDbLine
 10
313.7707387616321
 20
233.8698088671369
 30
0.0
 11
313.7707387616321
 21
232.4698088671368
 31
0.0
  0
LINE
  5
19A8
330
18
100
AcDbEntity
  8
外形線
100
AcDbLine
 10
313.870738761632
 20
233.9698088671369
 30
0.0
 11
313.7707387616321
 21
233.8698088671369
 31
0.0
  0
LINE
  5
19A9
330
18
100
AcDbEntity
  8
外形線
100
AcDbLine
 10
315.9707387616321
 20
231.9698088671367
 30
0.0
 11
315.970738761632
 21
231.4698088671369
 31
0.0
  0
LINE
  5
19AA
330
18
100
AcDbEntity
  8
外形線
100
AcDbLine
 10
313.7707387616321
 20
231.9698088671367
 30
0.0
 11
315.9707387616321
 21
231.9698088671367
 31
0.0
  0
LINE
  5
19AB
330
18
100
AcDbEntity
  8
外形線
100
AcDbLine
 10
313.7707387616321
 20
231.9698088671367
 30
0.0
 11
313.7707387616322
 21
231.4698088671369
 31
0.0
  0
ARC
  5
19F2
330
18
100
AcDbEntity
  8
外形線
100
AcDbCircle
 10
395.064834276754
 20
225.1698088671367
 30
0.0
 40
1.0
100
AcDbArc
 50
126.869897645842
 51
53.13010235415791
  0
LINE
  5
19F3
330
18
100
AcDbEntity
  8
中心線
 48
0.5
100
AcDbLine
 10
391.3162294604319
 20
225.1698088671367
 30
0.0
 11
399.1958828761426
 21
225.1698088671367
 31
0.0
  0
LINE
  5
19F4
330
18
100
AcDbEntity
  8
外形線
100
AcDbLine
 10
393.9648342767541
 20
231.4698088671368
 30
0.0
 11
394.4636976168329
 21
225.9698088671368
 31
0.0
  0
LINE
  5
19F5
330
18
100
AcDbEntity
  8
外形線
100
AcDbLine
 10
396.164834276754
 20
231.4698088671368
 30
0.0
 11
395.6659709366752
 21
225.9698088671368
 31
0.0
  0
LINE
  5
19F6
330
18
100
AcDbEntity
  8
外形線
100
AcDbLine
 10
395.6659709366751
 20
225.9698088671368
 30
0.0
 11
394.4636976168328
 21
225.9698088671369
 31
0.0
  0
LINE
  5
19F7
330
18
100
AcDbEntity
  8
隠れ線
 62
     4
 48
0.3
100
AcDbLine
 10
395.064834276754
 20
226.1698088671368
 30
0.0
 11
395.6659709366752
 21
225.9698088671368
 31
0.0
  0
LINE
  5
19F8
330
18
100
AcDbEntity
  8
隠れ線
 62
     4
 48
0.3
100
AcDbLine
 10
395.064834276754
 20
226.1698088671368
 30
0.0
 11
394.4636976168329
 21
225.9698088671368
 31
0.0
  0
LINE
  5
19F9
330
18
100
AcDbEntity
  8
外形線
100
AcDbLine
 10
396.164834276754
 20
231.4698088671368
 30
0.0
 11
393.9648342767541
 21
231.4698088671368
 31
0.0
  0
LINE
  5
19FA
330
18
100
AcDbEntity
  8
外形線
100
AcDbLine
 10
393.964834276754
 20
231.9698088671366
 30
0.0
 11
393.9648342767541
 21
231.4698088671368
 31
0.0
  0
LINE
  5
19FB
330
18
100
AcDbEntity
  8
外形線
100
AcDbLine
 10
396.164834276754
 20
231.9698088671366
 30
0.0
 11
396.164834276754
 21
231.4698088671368
 31
0.0
  0
LINE
  5
19FC
330
18
100
AcDbEntity
  8
外形線
100
AcDbLine
 10
393.964834276754
 20
231.9698088671366
 30
0.0
 11
396.164834276754
 21
231.9698088671366
 31
0.0
  0
LINE
  5
19FD
330
18
100
AcDbEntity
  8
外形線
 62
     4
100
AcDbLine
 10
395.7148342767539
 20
232.2198088671367
 30
0.0
 11
394.4148342767541
 21
232.2198088671367
 31
0.0
  0
LINE
  5
19FE
330
18
100
AcDbEntity
  8
外形線
100
AcDbLine
 10
396.164834276754
 20
232.4698088671367
 30
0.0
 11
393.964834276754
 21
232.4698088671367
 31
0.0
  0
LINE
  5
19FF
330
18
100
AcDbEntity
  8
外形線
 62
     4
100
AcDbLine
 10
396.164834276754
 20
233.8698088671367
 30
0.0
 11
396.0873905714592
 21
233.8698088671368
 31
0.0
  0
LINE
  5
1A00
330
18
100
AcDbEntity
  8
外形線
100
AcDbLine
 10
393.985109075519
 20
233.8900836659018
 30
0.0
 11
393.964834276754
 21
233.8698088671368
 31
0.0
  0
LINE
  5
1A01
330
18
100
AcDbEntity
  8
外形線
100
AcDbLine
 10
393.964834276754
 20
233.8698088671368
 30
0.0
 11
393.964834276754
 21
232.4698088671367
 31
0.0
  0
LINE
  5
1A02
330
18
100
AcDbEntity
  8
外形線
100
AcDbLine
 10
393.964834276754
 20
232.4698088671368
 30
0.0
 11
394.4148342767541
 21
232.2198088671367
 31
0.0
  0
LINE
  5
1A03
330
18
100
AcDbEntity
  8
外形線
100
AcDbLine
 10
393.964834276754
 20
231.9698088671366
 30
0.0
 11
394.4148342767541
 21
232.2198088671367
 31
0.0
  0
LINE
  5
1A04
330
18
100
AcDbEntity
  8
外形線
100
AcDbLine
 10
396.164834276754
 20
231.9698088671366
 30
0.0
 11
395.714834276754
 21
232.2198088671367
 31
0.0
  0
LINE
  5
1A05
330
18
100
AcDbEntity
  8
外形線
100
AcDbLine
 10
396.164834276754
 20
232.4698088671368
 30
0.0
 11
395.714834276754
 21
232.2198088671367
 31
0.0
  0
LINE
  5
1A06
330
18
100
AcDbEntity
  8
外形線
100
AcDbLine
 10
396.1445594779891
 20
233.8900836659018
 30
0.0
 11
396.164834276754
 21
233.8698088671368
 31
0.0
  0
LINE
  5
1A07
330
18
100
AcDbEntity
  8
外形線
100
AcDbLine
 10
396.164834276754
 20
233.8698088671368
 30
0.0
 11
396.164834276754
 21
232.4698088671367
 31
0.0
  0
LINE
  5
1A08
330
18
100
AcDbEntity
  8
外形線
 62
     4
100
AcDbLine
 10
394.0422779820488
 20
233.8698088671367
 30
0.0
 11
393.964834276754
 21
233.8698088671367
 31
0.0
  0
POINT
  5
1A22
330
18
100
AcDbEntity
  8
DEFPOINTS
  6
ByBlock
 62
     0
100
AcDbPoint
 10
395.064834276754
 20
237.1698088671367
 30
0.0
  0
POINT
  5
1A23
330
18
100
AcDbEntity
  8
DEFPOINTS
  6
ByBlock
 62
     0
100
AcDbPoint
 10
395.064834276754
 20
237.1698088671367
 30
0.0
  0
LINE
  5
1A6F
330
18
100
AcDbEntity
  8
0
  6
ByBlock
 62
     2
100
AcDbLine
 10
395.064834276754
 20
314.7698088671368
 30
0.0
 11
417.3748774589813
 21
314.7698088671368
 31
0.0
  0
LINE
  5
1A70
330
18
100
AcDbEntity
  8
0
  6
ByBlock
 62
     2
100
AcDbLine
 10
401.4648342767539
 20
298.8198088671368
 30
0.0
 11
417.3748774589813
 21
298.8198088671368
 31
0.0
  0
LINE
  5
1A71
330
18
100
AcDbEntity
  8
0
  6
ByBlock
 62
     2
100
AcDbLine
 10
416.1248774589813
 20
312.2698088671368
 30
0.0
 11
416.1248774589813
 21
301.3198088671368
 31
0.0
  0
INSERT
  5
1A72
330
18
100
AcDbEntity
  8
0
  6
ByBlock
 62
     2
100
AcDbBlockReference
  2
_OPEN
 10
416.1248774589813
 20
314.7698088671368
 30
0.0
 41
2.5
 42
2.5
 43
2.5
 50
90.0
  0
INSERT
  5
1A73
330
18
100
AcDbEntity
  8
0
  6
ByBlock
 62
     2
100
AcDbBlockReference
  2
_OPEN
 10
416.1248774589813
 20
298.8198088671368
 30
0.0
 41
2.5
 42
2.5
 43
2.5
 50
270.0
  0
MTEXT
  5
1A74
330
18
100
AcDbEntity
  8
0
  6
ByBlock
 62
     6
100
AcDbMText
 10
414.2498774589813
 20
306.7948088671368
 30
0.0
 40
2.5
 41
0.0
 71
     5
 72
     1
  1
\A1;16
  7
STYLE3
 11
0.0000000000000001
 21
1.0
 31
0.0
 73
     1
 44
1.0
  0
POINT
  5
1A75
330
18
100
AcDbEntity
  8
DEFPOINTS
  6
ByBlock
 62
     0
100
AcDbPoint
 10
395.064834276754
 20
314.7698088671368
 30
0.0
  0
POINT
  5
1A76
330
18
100
AcDbEntity
  8
DEFPOINTS
  6
ByBlock
 62
     0
100
AcDbPoint
 10
401.4648342767539
 20
298.8198088671368
 30
0.0
  0
POINT
  5
1A77
330
18
100
AcDbEntity
  8
DEFPOINTS
  6
ByBlock
 62
     0
100
AcDbPoint
 10
416.1248774589813
 20
298.8198088671368
 30
0.0
  0
LINE
  5
1A78
330
18
100
AcDbEntity
  8
0
  6
ByBlock
 62
     2
100
AcDbLine
 10
388.6648342767539
 20
298.8198088671367
 30
0.0
 11
388.6648342767539
 21
324.0481422681762
 31
0.0
  0
LINE
  5
1A79
330
18
100
AcDbEntity
  8
0
  6
ByBlock
 62
     2
100
AcDbLine
 10
401.4648342767539
 20
298.8198088671368
 30
0.0
 11
401.4648342767539
 21
324.0481422681762
 31
0.0
  0
LINE
  5
1A7A
330
18
100
AcDbEntity
  8
0
  6
ByBlock
 62
     2
100
AcDbLine
 10
391.1648342767539
 20
322.7981422681762
 30
0.0
 11
398.964834276754
 21
322.7981422681762
 31
0.0
  0
INSERT
  5
1A7B
330
18
100
AcDbEntity
  8
0
  6
ByBlock
 62
     2
100
AcDbBlockReference
  2
_OPEN
 10
388.6648342767539
 20
322.7981422681762
 30
0.0
 41
2.5
 42
2.5
 43
2.5
 50
180.0
  0
INSERT
  5
1A7C
330
18
100
AcDbEntity
  8
0
  6
ByBlock
 62
     2
100
AcDbBlockReference
  2
_OPEN
 10
401.4648342767539
 20
322.7981422681762
 30
0.0
 41
2.5
 42
2.5
 43
2.5
  0
MTEXT
  5
1A7D
330
18
100
AcDbEntity
  8
0
  6
ByBlock
 62
     6
100
AcDbMText
 10
395.064834276754
 20
324.6731422681762
 30
0.0
 40
2.5
 41
0.0
 71
     5
 72
     1
  1
\A1;12.8
  7
STYLE3
 73
     1
 44
1.0
  0
POINT
  5
1A7E
330
18
100
AcDbEntity
  8
DEFPOINTS
  6
ByBlock
 62
     0
100
AcDbPoint
 10
388.6648342767539
 20
298.8198088671367
 30
0.0
  0
POINT
  5
1A7F
330
18
100
AcDbEntity
  8
DEFPOINTS
  6
ByBlock
 62
     0
100
AcDbPoint
 10
401.4648342767539
 20
298.8198088671368
 30
0.0
  0
POINT
  5
1A80
330
18
100
AcDbEntity
  8
DEFPOINTS
  6
ByBlock
 62
     0
100
AcDbPoint
 10
401.4648342767539
 20
322.7981422681762
 30
0.0
  0
LINE
  5
1A81
330
18
100
AcDbEntity
  8
0
  6
ByBlock
 62
     2
100
AcDbLine
 10
379.6010923081611
 20
281.1698088671368
 30
0.0
 11
379.6010923081611
 21
331.0202293245263
 31
0.0
  0
LINE
  5
1A82
330
18
100
AcDbEntity
  8
0
  6
ByBlock
 62
     2
100
AcDbLine
 10
403.1148342767539
 20
297.1698088671367
 30
0.0
 11
403.1148342767539
 21
331.0202293245263
 31
0.0
  0
LINE
  5
1A83
330
18
100
AcDbEntity
  8
0
  6
ByBlock
 62
     2
100
AcDbLine
 10
382.1010923081611
 20
329.7702293245263
 30
0.0
 11
400.614834276754
 21
329.7702293245263
 31
0.0
  0
INSERT
  5
1A84
330
18
100
AcDbEntity
  8
0
  6
ByBlock
 62
     2
100
AcDbBlockReference
  2
_OPEN
 10
379.6010923081611
 20
329.7702293245263
 30
0.0
 41
2.5
 42
2.5
 43
2.5
 50
180.0
  0
INSERT
  5
1A85
330
18
100
AcDbEntity
  8
0
  6
ByBlock
 62
     2
100
AcDbBlockReference
  2
_OPEN
 10
403.1148342767539
 20
329.7702293245263
 30
0.0
 41
2.5
 42
2.5
 43
2.5
  0
MTEXT
  5
1A86
330
18
100
AcDbEntity
  8
0
  6
ByBlock
 62
     6
100
AcDbMText
 10
391.3579632924576
 20
331.6452293245263
 30
0.0
 40
2.5
 41
0.0
 71
     5
 72
     1
  1
\A1;23.5
  7
STYLE3
 73
     1
 44
1.0
  0
POINT
  5
1A87
330
18
100
AcDbEntity
  8
DEFPOINTS
  6
ByBlock
 62
     0
100
AcDbPoint
 10
379.6010923081611
 20
281.1698088671368
 30
0.0
  0
POINT
  5
1A88
330
18
100
AcDbEntity
  8
DEFPOINTS
  6
ByBlock
 62
     0
100
AcDbPoint
 10
403.1148342767539
 20
297.1698088671367
 30
0.0
  0
POINT
  5
1A89
330
18
100
AcDbEntity
  8
DEFPOINTS
  6
ByBlock
 62
     0
100
AcDbPoint
 10
403.1148342767539
 20
329.7702293245263
 30
0.0
  0
LINE
  5
1A8A
330
18
100
AcDbEntity
  8
0
  6
ByBlock
 62
     2
100
AcDbLine
 10
314.8707387616321
 20
314.7698088671368
 30
0.0
 11
350.8270812851159
 21
314.7698088671368
 31
0.0
  0
LINE
  5
1A8B
330
18
100
AcDbEntity
  8
0
  6
ByBlock
 62
     2
100
AcDbLine
 10
314.8707387616321
 20
224.1698088671368
 30
0.0
 11
350.8270812851159
 21
224.1698088671368
 31
0.0
  0
LINE
  5
1A8C
330
18
100
AcDbEntity
  8
0
  6
ByBlock
 62
     2
100
AcDbLine
 10
349.5770812851159
 20
312.2698088671368
 30
0.0
 11
349.5770812851159
 21
226.6698088671368
 31
0.0
  0
INSERT
  5
1A8D
330
18
100
AcDbEntity
  8
0
  6
ByBlock
 62
     2
100
AcDbBlockReference
  2
_OPEN
 10
349.5770812851159
 20
314.7698088671368
 30
0.0
 41
2.5
 42
2.5
 43
2.5
 50
90.0
  0
INSERT
  5
1A8E
330
18
100
AcDbEntity
  8
0
  6
ByBlock
 62
     2
100
AcDbBlockReference
  2
_OPEN
 10
349.5770812851159
 20
224.1698088671368
 30
0.0
 41
2.5
 42
2.5
 43
2.5
 50
270.0
  0
MTEXT
  5
1A8F
330
18
100
AcDbEntity
  8
0
  6
ByBlock
 62
     6
100
AcDbMText
 10
347.7020812851159
 20
269.4698088671368
 30
0.0
 40
2.5
 41
0.0
 71
     5
 72
     1
  1
\A1;90.6
  7
STYLE3
 11
0.0000000000000001
 21
1.0
 31
0.0
 73
     1
 44
1.0
  0
POINT
  5
1A90
330
18
100
AcDbEntity
  8
DEFPOINTS
  6
ByBlock
 62
     0
100
AcDbPoint
 10
314.8707387616321
 20
314.7698088671368
 30
0.0
  0
POINT
  5
1A91
330
18
100
AcDbEntity
  8
DEFPOINTS
  6
ByBlock
 62
     0
100
AcDbPoint
 10
314.8707387616321
 20
224.1698088671368
 30
0.0
  0
POINT
  5
1A92
330
18
100
AcDbEntity
  8
DEFPOINTS
  6
ByBlock
 62
     0
100
AcDbPoint
 10
349.5770812851159
 20
224.1698088671368
 30
0.0
  0
LINE
  5
1A93
330
18
100
AcDbEntity
  8
0
  6
ByBlock
 62
     2
100
AcDbLine
 10
382.6648342767539
 20
298.6698088671369
 30
0.0
 11
370.1549969598066
 21
298.6698088671369
 31
0.0
  0
LINE
  5
1A94
330
18
100
AcDbEntity
  8
0
  6
ByBlock
 62
     2
100
AcDbLine
 10
382.6648342767539
 20
263.6698088671368
 30
0.0
 11
370.1549969598066
 21
263.6698088671368
 31
0.0
  0
LINE
  5
1A95
330
18
100
AcDbEntity
  8
0
  6
ByBlock
 62
     2
100
AcDbLine
 10
371.4049969598066
 20
296.1698088671369
 30
0.0
 11
371.4049969598066
 21
266.1698088671368
 31
0.0
  0
INSERT
  5
1A96
330
18
100
AcDbEntity
  8
0
  6
ByBlock
 62
     2
100
AcDbBlockReference
  2
_OPEN
 10
371.4049969598066
 20
298.6698088671369
 30
0.0
 41
2.5
 42
2.5
 43
2.5
 50
90.0
  0
INSERT
  5
1A97
330
18
100
AcDbEntity
  8
0
  6
ByBlock
 62
     2
100
AcDbBlockReference
  2
_OPEN
 10
371.4049969598066
 20
263.6698088671368
 30
0.0
 41
2.5
 42
2.5
 43
2.5
 50
270.0
  0
MTEXT
  5
1A98
330
18
100
AcDbEntity
  8
0
  6
ByBlock
 62
     6
100
AcDbMText
 10
369.5299969598066
 20
281.1698088671369
 30
0.0
 40
2.5
 41
0.0
 71
     5
 72
     1
  1
\A1;φ35
  7
STYLE3
 11
0.0000000000000001
 21
1.0
 31
0.0
 73
     1
 44
1.0
  0
POINT
  5
1A99
330
18
100
AcDbEntity
  8
DEFPOINTS
  6
ByBlock
 62
     0
100
AcDbPoint
 10
382.6648342767539
 20
298.6698088671369
 30
0.0
  0
POINT
  5
1A9A
330
18
100
AcDbEntity
  8
DEFPOINTS
  6
ByBlock
 62
     0
100
AcDbPoint
 10
382.6648342767539
 20
263.6698088671368
 30
0.0
  0
POINT
  5
1A9B
330
18
100
AcDbEntity
  8
DEFPOINTS
  6
ByBlock
 62
     0
100
AcDbPoint
 10
371.4049969598066
 20
263.6698088671368
 30
0.0
  0
HATCH
  5
1A9C
330
18
100
AcDbEntity
  8
ROGO
 62
     4
100
AcDbHatch
 10
0.0
 20
0.0
 30
0.0
210
0.0
220
0.0
230
1.0
  2
SOLID
 70
     1
 71
     1
 91
        1
 92
        7
 72
     0
 73
     1
 93
       11
 10
318.7704563608082
 20
286.1698088671368
 10
319.3176309872683
 20
286.1698088671369
 10
319.5108934353692
 20
286.5573939659484
 10
319.70415588347
 20
286.1698088671369
 10
320.2513185381892
 20
286.1698088671369
 10
319.8811000009087
 20
286.9122768932007
 10
320.7805878356796
 20
287.6547449192646
 10
320.2334251809603
 20
287.6547449192646
 10
319.9772274007328
 20
287.4926201199212
 10
320.0580680618291
 20
287.6547449192646
 10
319.5108934353691
 20
287.6547449192646
 97
       11
330
1AEA
330
1AED
330
1AEC
330
1AEB
330
1AA1
330
1A9E
330
1AE7
330
1AE6
330
1AE8
330
1AE5
330
1AE9
 75
     0
 76
     1
 47
0.0514683685270805
 98
        1
 10
319.4638016478557
 20
287.0176784161302
450
        0
451
        0
460
0.0
461
0.0
452
        0
462
0.0
453
        0
470

  0
HATCH
  5
1A9D
330
18
100
AcDbEntity
  8
ROGO
 62
     4
100
AcDbHatch
 10
0.0
 20
0.0
 30
0.0
210
0.0
220
0.0
230
1.0
  2
SOLID
 70
     1
 71
     1
 91
        1
 92
        5
 93
        8
 72
     4
 94
        3
 73
     0
 74
     0
 95
       26
 96
       22
 40
0.0
 40
0.0
 40
0.0
 40
0.0
 40
0.1723984759424608
 40
0.2878059064036966
 40
0.3710240621887089
 40
0.4331603664333254
 40
0.5137544142124919
 40
0.5725802121924054
 40
0.6788058922657609
 40
0.7652720686804421
 40
0.824082923352279
 40
0.8817499774613345
 40
0.9849051260984204
 40
1.057848128260906
 40
1.097133570529051
 40
1.152937380796411
 40
1.193234564309733
 40
1.251611879021433
 40
1.284648389624335
 40
1.356539542405977
 40
1.389365667278781
 40
1.389365667278781
 40
1.389365667278781
 40
1.389365667278781
 10
318.360171184636
 20
287.6547449192646
 10
318.3016564781974
 20
287.6512538315362
 10
318.2039707067169
 20
287.6454257308962
 10
318.0967123238815
 20
287.5802674151934
 10
318.0181285533663
 20
287.5423872338192
 10
317.9620827035379
 20
287.4908923544201
 10
317.9210008684204
 20
287.4377019056305
 10
317.8692095029551
 20
287.3743258759001
 10
317.8269751243579
 20
287.3005270538599
 10
317.8054677229316
 20
287.2191878863901
 10
317.7864166708754
 20
287.1543600979721
 10
317.7722880917382
 20
287.082117987979
 10
317.7758828022456
 20
287.0040710957412
 10
317.7810305922089
 20
286.9315851378163
 10
317.804014222618
 20
286.8798410164941
 10
317.8301885065514
 20
286.8430027677579
 10
317.8622385587729
 20
286.8024295208393
 10
317.8973083246742
 20
286.7755579907863
 10
317.926313883668
 20
286.7268784083721
 10
317.9770871362028
 20
286.7206665425766
 10
318.0093606354509
 20
286.7083030756496
 10
318.0194775324916
 20
286.7044274524641
 72
     1
 10
318.0194775324916
 20
286.7044274524641
 11
318.8379984766807
 21
286.704427452464
 72
     1
 10
318.8379984766807
 20
286.704427452464
 11
319.0143028734599
 21
287.0580034198499
 72
     1
 10
319.0143028734599
 20
287.0580034198499
 11
318.4066292480233
 21
287.0580034198499
 72
     4
 94
        3
 73
     0
 74
     0
 95
       16
 96
       12
 40
0.0
 40
0.0
 40
0.0
 40
0.0
 40
0.0520638816757992
 40
0.1046647644702509
 40
0.1360388269655522
 40
0.1661200957203435
 40
0.1991564750640134
 40
0.2222266184462811
 40
0.24411818227865
 40
0.2885111307737157
 40
0.3794005943324707
 40
0.3794005943324707
 40
0.3794005943324707
 40
0.3794005943324707
 10
318.4066292480232
 20
287.0580034198498
 10
318.3882996700047
 20
287.0633962504629
 10
318.3514514576856
 20
287.074237534819
 10
318.3483675598705
 20
287.1267920986107
 10
318.3525689244809
 20
287.1642415258375
 10
318.3701642488535
 20
287.1915068957647
 10
318.3915104291855
 20
287.2113460397933
 10
318.3994585588526
 20
287.2371834229194
 10
318.4228213618587
 20
287.2566938797181
 10
318.4642498715235
 20
287.289488232167
 10
318.5100626315127
 20
287.2964726964962
 10
318.5408419258522
 20
287.3011652075661
 72
     1
 10
318.5408419258523
 20
287.3011652075662
 11
319.13555119421
 21
287.3011652075663
 72
     1
 10
319.13555119421
 20
287.3011652075663
 11
319.3118574580244
 21
287.6547449192645
 72
     1
 10
319.3118574580244
 20
287.6547449192645
 11
318.3601711846361
 21
287.6547449192646
 97
        8
330
1A9F
330
1AC3
330
1ACF
330
1AC8
330
1AE3
330
1AE2
330
1AE4
330
1AA0
 75
     0
 76
     1
 47
0.0514683685270805
 98
        1
 10
318.5243903747139
 20
287.4807385587827
450
        0
451
        0
460
0.0
461
0.0
452
        0
462
0.0
453
        0
470

  0
LINE
  5
1A9E
102
{ACAD_REACTORS
330
1AA7
330
1A9C
102
}
330
18
100
AcDbEntity
  8
ROGO
 62
     4
100
AcDbLine
 10
309.2660917784641
 20
286.1698088671369
 30
0.0
 11
319.3176309872683
 21
286.1698088671369
 31
0.0
  0
LINE
  5
1A9F
102
{ACAD_REACTORS
330
1A9D
102
}
330
18
100
AcDbEntity
  8
ROGO
 62
     4
100
AcDbLine
 10
318.3601711846363
 20
287.6547449192646
 30
0.0
 11
319.3118574580244
 21
287.6547449192646
 31
0.0
  0
LINE
  5
1AA0
102
{ACAD_REACTORS
330
1A9D
102
}
330
18
100
AcDbEntity
  8
ROGO
 62
     4
100
AcDbLine
 10
319.3118574580244
 20
287.6547449192646
 30
0.0
 11
319.1355511942099
 21
287.3011652075662
 31
0.0
  0
LINE
  5
1AA1
102
{ACAD_REACTORS
330
1A9C
102
}
330
18
100
AcDbEntity
  8
ROGO
 62
     4
100
AcDbLine
 10
319.5108934353691
 20
287.6547449192646
 30
0.0
 11
318.7704563608082
 21
286.1698088671369
 31
0.0
  0
HATCH
  5
1AA2
330
18
100
AcDbEntity
  8
ROGO
 62
     4
100
AcDbHatch
 10
0.0
 20
0.0
 30
0.0
210
0.0
220
0.0
230
1.0
  2
SOLID
 70
     1
 71
     0
 91
        1
 92
        7
 72
     0
 73
     1
 93
        4
 10
318.8446741201568
 20
286.3186515309515
 10
310.0236941644555
 20
286.3186515309515
 10
309.9563535212351
 20
286.1698088671367
 10
318.7704563608082
 20
286.1698088671367
 97
        0
 75
     0
 76
     1
 47
0.0514683685270805
 98
        1
 10
315.5934272737497
 20
286.2792850384471
450
        0
451
        0
460
0.0
461
0.0
452
        0
462
0.0
453
        0
470

  0
HATCH
  5
1AA3
330
18
100
AcDbEntity
  8
ROGO
 62
     4
100
AcDbHatch
 10
0.0
 20
0.0
 30
0.0
210
0.0
220
0.0
230
1.0
  2
SOLID
 70
     1
 71
     1
 91
        2
 92
        7
 72
     0
 73
     1
 93
        8
 10
314.0641201320134
 20
287.6547449192646
 10
313.5148738046743
 20
287.6547449192646
 10
312.8295814101598
 20
286.704427452464
 10
313.3558871894249
 20
286.704427452464
 10
313.486362621301
 20
286.8853620183408
 10
314.0926313153867
 20
286.8853620183407
 10
314.2231067472626
 20
286.7044274524641
 10
314.7494125265279
 20
286.704427452464
 97
        8
330
1AA5
330
1AAD
330
1AB2
330
1AAE
330
1AA4
330
1AC6
330
1ACC
330
1AC5
 92
       22
 72
     0
 73
     1
 93
        3
 10
313.9550149429218
 20
287.0761991610231
 10
313.6239789937658
 20
287.0761991610231
 10
313.7894969683438
 20
287.3057283715761
 97
        3
330
1AD1
330
1AD0
330
1AD2
 75
     0
 76
     1
 47
0.0514683685270805
 98
        2
 10
314.1279457232676
 20
287.1678600431166
 10
314.1279457232676
 20
287.1678600431166
450
        0
451
        0
460
0.0
461
0.0
452
        0
462
0.0
453
        0
470

  0
LINE
  5
1AA4
102
{ACAD_REACTORS
330
1AA3
102
}
330
18
100
AcDbEntity
  8
ROGO
 62
     4
100
AcDbLine
 10
313.486362621301
 20
286.8853620183408
 30
0.0
 11
314.0926313153867
 21
286.8853620183408
 31
0.0
  0
LINE
  5
1AA5
102
{ACAD_REACTORS
330
1AA3
102
}
330
18
100
AcDbEntity
  8
ROGO
 62
     4
100
AcDbLine
 10
313.5148738046743
 20
287.6547449192646
 30
0.0
 11
314.0641201320134
 21
287.6547449192646
 31
0.0
  0
LINE
  5
1AA6
330
18
100
AcDbEntity
  8
ROGO
 62
     4
100
AcDbLine
 10
310.0133717678744
 20
286.3186515309516
 30
0.0
 11
318.8446741201568
 21
286.3186515309516
 31
0.0
  0
HATCH
  5
1AA7
330
18
100
AcDbEntity
  8
ROGO
 62
     4
100
AcDbHatch
 10
0.0
 20
0.0
 30
0.0
210
0.0
220
0.0
230
1.0
  2
SOLID
 70
     1
 71
     1
 91
        2
 92
        5
 93
        6
 72
     1
 10
309.2660917784641
 20
286.1698088671369
 11
309.9563535212351
 21
286.1698088671369
 72
     1
 10
309.9563535212351
 20
286.1698088671369
 11
310.1982301343702
 21
286.704427452464
 72
     1
 10
310.1982301343702
 20
286.704427452464
 11
310.8434832904161
 21
286.7044274524641
 72
     4
 94
        3
 73
     0
 74
     0
 95
       18
 96
       14
 40
0.108740278791501
 40
0.108740278791501
 40
0.108740278791501
 40
0.108740278791501
 40
0.6623149649549278
 40
1.384304701649787
 40
2.097394834876493
 40
2.774073369849618
 40
3.428974823686337
 40
4.005208313035923
 40
4.455173659284313
 40
4.720999734343524
 40
5.086034088486724
 40
5.569973738255373
 40
6.060470601257719
 40
6.060470601257719
 40
6.060470601257719
 40
6.060470601257719
 10
310.843483290416
 20
286.7044274524641
 10
310.8888951415206
 20
286.704765620769
 10
310.9935345751745
 20
286.7055448389478
 10
311.1399243240591
 20
286.783749459507
 10
311.2787436323239
 20
286.8833764481868
 10
311.3905531414474
 20
287.0078499764358
 10
311.4602138343112
 20
287.1501641306989
 10
311.4710040554501
 20
287.2865591756297
 10
311.464416890542
 20
287.3944459604923
 10
311.4173482886939
 20
287.4696457279366
 10
311.3684147333566
 20
287.5459658017096
 10
311.2786871395291
 20
287.6120770843312
 10
311.2051683686666
 20
287.6410436536382
 10
311.1677825784161
 20
287.6547449192646
 72
     1
 10
311.1677825784162
 20
287.6547449192646
 11
310.0008243270025
 21
287.6547449192646
 72
     1
 10
310.0008243270025
 20
287.6547449192646
 11
309.2660917784641
 21
286.1698088671369
 97
        6
330
1AA9
330
1AB3
330
1AAA
330
1A9E
330
1AB0
330
1AAF
 92
       20
 93
        4
 72
     1
 10
310.3475752500586
 20
287.0345241635101
 11
310.4619175911822
 21
287.2872544290042
 72
     1
 10
310.4619175911822
 20
287.2872544290042
 11
310.7557286759741
 21
287.2872544290042
 72
     4
 94
        3
 73
     0
 74
     0
 95
       15
 96
       11
 40
0.0
 40
0.0
 40
0.0
 40
0.0
 40
0.1114278057886432
 40
0.1622327562563865
 40
0.2198997572250677
 40
0.259185199493265
 40
0.3213155338880433
 40
0.3585299069784071
 40
0.4223775764185194
 40
0.4436601464819452
 40
0.4436601464819452
 40
0.4436601464819452
 40
0.4436601464819452
 10
310.7557286759742
 20
287.2872544290042
 10
310.797578798991
 20
287.2874461249066
 10
310.8585102761805
 20
287.2877252235964
 10
310.8918297780418
 20
287.2123528101058
 10
310.8768943886283
 20
287.1638247337706
 10
310.8581193868813
 20
287.1140015244827
 10
310.824939706538
 20
287.0801459023308
 10
310.7804077155915
 20
287.0475372309287
 10
310.7383228560561
 20
287.0435898052408
 10
310.7109513791131
 20
287.0363372925505
 10
310.7041085066019
 20
287.0345241635101
 72
     1
 10
310.7041085066019
 20
287.0345241635101
 11
310.3475752500586
 21
287.0345241635101
 97
        4
330
1AB6
330
1AB4
330
1AB8
330
1AB5
 75
     0
 76
     1
 47
0.0514683685270805
 98
        2
 10
310.0070615378049
 20
287.1928903983551
 10
310.0070615378049
 20
287.1928903983551
450
        0
451
        0
460
0.0
461
0.0
452
        0
462
0.0
453
        0
470

  0
HATCH
  5
1AA8
330
18
100
AcDbEntity
  8
ROGO
 62
     4
100
AcDbHatch
 10
0.0
 20
0.0
 30
0.0
210
0.0
220
0.0
230
1.0
  2
SOLID
 70
     1
 71
     1
 91
        1
 92
        1
 93
       12
 72
     1
 10
311.8571925582057
 20
287.6547449192646
 11
313.142536467486
 21
287.6547449192646
 72
     1
 10
313.142536467486
 20
287.6547449192646
 11
313.0348257856165
 21
287.4370555368826
 72
     1
 10
313.0348257856165
 20
287.4370555368826
 11
312.3592815068187
 21
287.4370555368826
 72
     1
 10
312.3592815068187
 20
287.4370555368826
 11
312.2750651383417
 21
287.266849491187
 72
     1
 10
312.2750651383417
 20
287.266849491187
 11
312.9506094171397
 21
287.266849491187
 72
     1
 10
312.9506094171397
 20
287.266849491187
 11
312.8642534206563
 21
287.0923191362291
 72
     1
 10
312.8642534206563
 20
287.0923191362292
 11
312.1887091418585
 21
287.0923191362291
 72
     1
 10
312.1887091418585
 20
287.0923191362291
 11
312.1044892080653
 21
286.9221058848277
 72
     1
 10
312.1044892080654
 20
286.9221058848277
 11
312.7800334868632
 21
286.9221058848277
 72
     1
 10
312.7800334868632
 20
286.9221058848277
 11
312.672328222961
 21
286.7044274524641
 72
     1
 10
312.672328222961
 20
286.7044274524641
 11
311.3869843136808
 21
286.7044274524641
 72
     1
 10
311.3869843136808
 20
286.7044274524641
 11
311.8571925582058
 21
287.6547449192646
 97
       12
330
1AB7
330
1AB9
330
1ABB
330
1ABA
330
1ABC
330
1ABF
330
1ABE
330
1AC0
330
1ABD
330
1AAC
330
1AB1
330
1AAB
 75
     0
 76
     1
 98
        1
 10
259.2805995811726
 20
221.9445444540988
450
        0
451
        0
460
0.0
461
0.0
452
        0
462
0.0
453
        0
470

  0
SPLINE
  5
1AA9
102
{ACAD_REACTORS
330
1AA7
102
}
330
18
100
AcDbEntity
  8
ROGO
 62
     4
100
AcDbSpline
210
0.0
220
0.0
230
1.0
 70
     8
 71
     3
 72
    18
 73
    14
 74
     0
 42
0.0000000001
 43
0.0000000001
 40
0.1087402787915014
 40
0.1087402787915014
 40
0.1087402787915014
 40
0.1087402787915014
 40
0.5992371417938475
 40
1.083176791562496
 40
1.448211145705696
 40
1.714037220764907
 40
2.164002567013297
 40
2.740236056362883
 40
3.395137510199602
 40
4.071816045172726
 40
4.784906178399433
 40
5.506895915094292
 40
6.060470601257719
 40
6.060470601257719
 40
6.060470601257719
 40
6.060470601257719
 10
311.1677825784161
 20
287.6547449192646
 30
0.0
 10
311.2051683686666
 20
287.6410436536382
 30
0.0
 10
311.2786871395291
 20
287.6120770843312
 30
0.0
 10
311.3684147333566
 20
287.5459658017096
 30
0.0
 10
311.4173482886939
 20
287.4696457279366
 30
0.0
 10
311.464416890542
 20
287.3944459604923
 30
0.0
 10
311.4710040554501
 20
287.2865591756297
 30
0.0
 10
311.4602138343112
 20
287.1501641306989
 30
0.0
 10
311.3905531414474
 20
287.0078499764358
 30
0.0
 10
311.2787436323239
 20
286.8833764481868
 30
0.0
 10
311.1399243240591
 20
286.783749459507
 30
0.0
 10
310.9935345751745
 20
286.7055448389478
 30
0.0
 10
310.8888951415206
 20
286.704765620769
 30
0.0
 10
310.843483290416
 20
286.7044274524641
 30
0.0
  0
LINE
  5
1AAA
102
{ACAD_REACTORS
330
1AA7
102
}
330
18
100
AcDbEntity
  8
ROGO
 62
     4
100
AcDbLine
 10
310.0008243270025
 20
287.6547449192646
 30
0.0
 11
309.2660917784641
 21
286.1698088671369
 31
0.0
  0
LINE
  5
1AAB
102
{ACAD_REACTORS
330
1AA8
102
}
330
18
100
AcDbEntity
  8
ROGO
 62
     4
100
AcDbLine
 10
311.8571925582058
 20
287.6547449192646
 30
0.0
 11
311.3869843136808
 21
286.7044274524641
 31
0.0
  0
LINE
  5
1AAC
102
{ACAD_REACTORS
330
1AA8
102
}
330
18
100
AcDbEntity
  8
ROGO
 62
     4
100
AcDbLine
 10
312.7800334868632
 20
286.9221058848277
 30
0.0
 11
312.672328222961
 21
286.7044274524641
 31
0.0
  0
LINE
  5
1AAD
102
{ACAD_REACTORS
330
1AA3
102
}
330
18
100
AcDbEntity
  8
ROGO
 62
     4
100
AcDbLine
 10
313.5148738046743
 20
287.6547449192646
 30
0.0
 11
312.8295814101599
 21
286.7044274524641
 31
0.0
  0
LINE
  5
1AAE
102
{ACAD_REACTORS
330
1AA3
102
}
330
18
100
AcDbEntity
  8
ROGO
 62
     4
100
AcDbLine
 10
313.486362621301
 20
286.8853620183408
 30
0.0
 11
313.355887189425
 21
286.7044274524641
 31
0.0
  0
LINE
  5
1AAF
102
{ACAD_REACTORS
330
1AA7
102
}
330
18
100
AcDbEntity
  8
ROGO
 62
     4
100
AcDbLine
 10
310.8434832906397
 20
286.7044274524641
 30
0.0
 11
310.1982301343702
 21
286.7044274524641
 31
0.0
  0
LINE
  5
1AB0
102
{ACAD_REACTORS
330
1AA7
102
}
330
18
100
AcDbEntity
  8
ROGO
 62
     4
100
AcDbLine
 10
310.1982301343702
 20
286.7044274524641
 30
0.0
 11
309.9563535212351
 21
286.1698088671369
 31
0.0
  0
LINE
  5
1AB1
102
{ACAD_REACTORS
330
1AA8
102
}
330
18
100
AcDbEntity
  8
ROGO
 62
     4
100
AcDbLine
 10
311.3869843136808
 20
286.7044274524641
 30
0.0
 11
312.672328222961
 21
286.7044274524641
 31
0.0
  0
LINE
  5
1AB2
102
{ACAD_REACTORS
330
1AA3
102
}
330
18
100
AcDbEntity
  8
ROGO
 62
     4
100
AcDbLine
 10
312.8295814101599
 20
286.7044274524641
 30
0.0
 11
313.355887189425
 21
286.7044274524641
 31
0.0
  0
LINE
  5
1AB3
102
{ACAD_REACTORS
330
1AA7
102
}
330
18
100
AcDbEntity
  8
ROGO
 62
     4
100
AcDbLine
 10
310.0008243270025
 20
287.6547449192646
 30
0.0
 11
311.1677825784161
 21
287.6547449192646
 31
0.0
  0
LINE
  5
1AB4
102
{ACAD_REACTORS
330
1AA7
102
}
330
18
100
AcDbEntity
  8
ROGO
 62
     4
100
AcDbLine
 10
310.7557286759742
 20
287.2872544290042
 30
0.0
 11
310.4619175911822
 21
287.2872544290042
 31
0.0
  0
LINE
  5
1AB5
102
{ACAD_REACTORS
330
1AA7
102
}
330
18
100
AcDbEntity
  8
ROGO
 62
     4
100
AcDbLine
 10
310.7041085066019
 20
287.0345241635101
 30
0.0
 11
310.3475752500586
 21
287.0345241635101
 31
0.0
  0
LINE
  5
1AB6
102
{ACAD_REACTORS
330
1AA7
102
}
330
18
100
AcDbEntity
  8
ROGO
 62
     4
100
AcDbLine
 10
310.4619175911822
 20
287.2872544290042
 30
0.0
 11
310.3475752500586
 21
287.0345241635101
 31
0.0
  0
LINE
  5
1AB7
102
{ACAD_REACTORS
330
1AA8
102
}
330
18
100
AcDbEntity
  8
ROGO
 62
     4
100
AcDbLine
 10
311.8571925582057
 20
287.6547449192646
 30
0.0
 11
313.142536467486
 21
287.6547449192646
 31
0.0
  0
SPLINE
  5
1AB8
102
{ACAD_REACTORS
330
1AA7
102
}
330
18
100
AcDbEntity
  8
ROGO
 62
     4
100
AcDbSpline
210
0.0
220
0.0
230
1.0
 70
     8
 71
     3
 72
    15
 73
    11
 74
     9
 42
0.0000000001
 43
0.0000000001
 44
0.0000000001
 40
0.0
 40
0.0
 40
0.0
 40
0.0
 40
0.1114278057886432
 40
0.1622327562563865
 40
0.2198997572250677
 40
0.259185199493265
 40
0.3213155338880433
 40
0.3585299069784071
 40
0.4223775764185194
 40
0.4436601464819452
 40
0.4436601464819452
 40
0.4436601464819452
 40
0.4436601464819452
 10
310.7557286759742
 20
287.2872544290042
 30
0.0
 10
310.797578798991
 20
287.2874461249066
 30
0.0
 10
310.8585102761805
 20
287.2877252235964
 30
0.0
 10
310.8918297780418
 20
287.2123528101058
 30
0.0
 10
310.8768943886283
 20
287.1638247337706
 30
0.0
 10
310.8581193868813
 20
287.1140015244827
 30
0.0
 10
310.824939706538
 20
287.0801459023308
 30
0.0
 10
310.7804077155915
 20
287.0475372309287
 30
0.0
 10
310.7383228560561
 20
287.0435898052408
 30
0.0
 10
310.7109513791131
 20
287.0363372925505
 30
0.0
 10
310.7041085066019
 20
287.0345241635101
 30
0.0
 11
310.7557286759742
 21
287.2872544290042
 31
0.0
 11
310.8641311207039
 21
287.2614655577709
 31
0.0
 11
310.8847792478181
 21
287.2150457576991
 31
0.0
 11
310.8744553326741
 21
287.1583104091338
 31
0.0
 11
310.8589693115451
 21
287.1222059894072
 31
0.0
 11
310.8176730573167
 21
287.0757861893353
 31
0.0
 11
310.7867010150586
 21
287.0551550923487
 31
0.0
 11
310.7247566337161
 21
287.0396819377567
 31
0.0
 11
310.7041085066019
 21
287.0345241635101
 31
0.0
  0
LINE
  5
1AB9
102
{ACAD_REACTORS
330
1AA8
102
}
330
18
100
AcDbEntity
  8
ROGO
 62
     4
100
AcDbLine
 10
313.142536467486
 20
287.6547449192646
 30
0.0
 11
313.0348257856165
 21
287.4370555368826
 31
0.0
  0
LINE
  5
1ABA
102
{ACAD_REACTORS
330
1AA8
102
}
330
18
100
AcDbEntity
  8
ROGO
 62
     4
100
AcDbLine
 10
312.3592815068187
 20
287.4370555368826
 30
0.0
 11
312.2750651383417
 21
287.266849491187
 31
0.0
  0
LINE
  5
1ABB
102
{ACAD_REACTORS
330
1AA8
102
}
330
18
100
AcDbEntity
  8
ROGO
 62
     4
100
AcDbLine
 10
312.3592815068187
 20
287.4370555368826
 30
0.0
 11
313.0348257856165
 21
287.4370555368826
 31
0.0
  0
LINE
  5
1ABC
102
{ACAD_REACTORS
330
1AA8
102
}
330
18
100
AcDbEntity
  8
ROGO
 62
     4
100
AcDbLine
 10
312.2750651383417
 20
287.266849491187
 30
0.0
 11
312.9506094171397
 21
287.266849491187
 31
0.0
  0
LINE
  5
1ABD
102
{ACAD_REACTORS
330
1AA8
102
}
330
18
100
AcDbEntity
  8
ROGO
 62
     4
100
AcDbLine
 10
312.1044892080654
 20
286.9221058848277
 30
0.0
 11
312.7800334868632
 21
286.9221058848277
 31
0.0
  0
LINE
  5
1ABE
102
{ACAD_REACTORS
330
1AA8
102
}
330
18
100
AcDbEntity
  8
ROGO
 62
     4
100
AcDbLine
 10
312.1887091418585
 20
287.0923191362291
 30
0.0
 11
312.8642534206563
 21
287.0923191362292
 31
0.0
  0
LINE
  5
1ABF
102
{ACAD_REACTORS
330
1AA8
102
}
330
18
100
AcDbEntity
  8
ROGO
 62
     4
100
AcDbLine
 10
312.9506094171397
 20
287.266849491187
 30
0.0
 11
312.8642534206563
 21
287.0923191362291
 31
0.0
  0
LINE
  5
1AC0
102
{ACAD_REACTORS
330
1AA8
102
}
330
18
100
AcDbEntity
  8
ROGO
 62
     4
100
AcDbLine
 10
312.1887091418585
 20
287.0923191362291
 30
0.0
 11
312.1044892080653
 21
286.9221058848277
 31
0.0
  0
HATCH
  5
1AC1
330
18
100
AcDbEntity
  8
ROGO
 62
     4
100
AcDbHatch
 10
0.0
 20
0.0
 30
0.0
210
0.0
220
0.0
230
1.0
  2
SOLID
 70
     1
 71
     1
 91
        2
 92
        7
 72
     1
 73
     1
 93
        4
 10
317.1157982689936
 20
287.6547449192646
 42
0.0
 10
316.7315242692158
 20
287.6547449192646
 42
0.9597396185048657
 10
316.7315242692155
 20
286.7044274524641
 42
0.0
 10
317.1434138947205
 20
286.7044274524641
 42
0.9713627655752649
 97
        4
330
1AE1
330
1AC9
330
1ACE
330
1ACA
 92
       22
 72
     1
 73
     1
 93
        2
 10
317.051712422486
 20
287.1335943687144
 42
0.1034173650212171
 10
317.0573714586366
 20
287.1740817007978
 42
0.0
 97
        8
330
1AD9
330
1ADF
330
1ADB
330
1ADE
330
1ADA
330
1ADD
330
1AD8
330
1ADC
 75
     0
 76
     1
 47
0.0514683685270805
 98
        2
 10
317.2092145329501
 20
287.2679811277743
 10
317.2092145329501
 20
287.2679811277743
450
        0
451
        0
460
0.0
461
0.0
452
        0
462
0.0
453
        0
470

  0
HATCH
  5
1AC2
330
18
100
AcDbEntity
  8
ROGO
 62
     4
100
AcDbHatch
 10
0.0
 20
0.0
 30
0.0
210
0.0
220
0.0
230
1.0
  2
SOLID
 70
     1
 71
     1
 91
        1
 92
        5
 93
        8
 72
     1
 10
316.0735437851288
 20
287.3011652075661
 11
316.2498500489434
 21
287.6547449192646
 72
     1
 10
316.2498500489434
 20
287.6547449192646
 11
315.2981637755552
 21
287.6547449192646
 72
     4
 94
        3
 73
     0
 74
     0
 95
       26
 96
       22
 40
0.0
 40
0.0
 40
0.0
 40
0.0
 40
0.172398475942452
 40
0.2878059064037132
 40
0.3710240621887256
 40
0.4331603664333846
 40
0.5137544142125073
 40
0.5725802121924657
 40
0.6788058922658211
 40
0.7652720686804854
 40
0.8240829233522674
 40
0.8817499774613789
 40
0.9849051260984648
 40
1.05784812826095
 40
1.097133570529095
 40
1.152937380796455
 40
1.193234564309741
 40
1.251611879021481
 40
1.284648389624348
 40
1.356539542406023
 40
1.389365667278791
 40
1.389365667278791
 40
1.389365667278791
 40
1.389365667278791
 10
315.298163775555
 20
287.6547449192646
 10
315.2396490691165
 20
287.6512538315363
 10
315.1419632976359
 20
287.6454257308963
 10
315.0347049148004
 20
287.5802674151933
 10
314.9561211442854
 20
287.5423872338192
 10
314.9000752944568
 20
287.4908923544201
 10
314.8589934593393
 20
287.4377019056305
 10
314.8072020938741
 20
287.3743258759001
 10
314.7649677152767
 20
287.3005270538598
 10
314.7434603138505
 20
287.2191878863901
 10
314.7244092617943
 20
287.1543600979721
 10
314.7102806826571
 20
287.082117987979
 10
314.7138753931647
 20
287.0040710957413
 10
314.7190231831278
 20
286.9315851378163
 10
314.742006813537
 20
286.8798410164941
 10
314.7681810974703
 20
286.8430027677579
 10
314.8002311496918
 20
286.8024295208392
 10
314.8353009155932
 20
286.7755579907864
 10
314.8643064745868
 20
286.7268784083721
 10
314.9150797271217
 20
286.7206665425766
 10
314.9473532263698
 20
286.7083030756496
 10
314.9574701234105
 20
286.7044274524641
 72
     1
 10
314.9574701234105
 20
286.7044274524641
 11
315.7759910675995
 21
286.7044274524641
 72
     1
 10
315.7759910675995
 20
286.7044274524641
 11
315.9522954643788
 21
287.0580034198499
 72
     1
 10
315.9522954643788
 20
287.0580034198499
 11
315.3446218389422
 21
287.0580034198499
 72
     4
 94
        3
 73
     0
 74
     0
 95
       16
 96
       12
 40
0.0
 40
0.0
 40
0.0
 40
0.0
 40
0.0520638816757735
 40
0.1046647644702809
 40
0.1360388269655169
 40
0.1661200957203374
 40
0.1991564750640073
 40
0.2222266184463259
 40
0.2441181822786546
 40
0.2885111307736739
 40
0.3794005943324437
 40
0.3794005943324437
 40
0.3794005943324437
 40
0.3794005943324437
 10
315.3446218389422
 20
287.0580034198499
 10
315.3262922609237
 20
287.0633962504629
 10
315.2894440486045
 20
287.074237534819
 10
315.2863601507893
 20
287.1267920986106
 10
315.2905615153999
 20
287.1642415258378
 10
315.3081568397724
 20
287.1915068957645
 10
315.3295030201044
 20
287.2113460397932
 10
315.3374511497716
 20
287.2371834229195
 10
315.3608139527776
 20
287.2566938797181
 10
315.4022424624426
 20
287.289488232167
 10
315.4480552224317
 20
287.2964726964962
 10
315.4788345167712
 20
287.3011652075662
 72
     1
 10
315.4788345167712
 20
287.3011652075662
 11
316.0735437851288
 21
287.3011652075661
 97
        8
330
1AD7
330
1AC4
330
1ACB
330
1AC7
330
1AD6
330
1AD3
330
1AD5
330
1AD4
 75
     0
 76
     1
 47
0.0514683685270805
 98
        1
 10
315.6310037009293
 20
287.4431931099991
450
        0
451
        0
460
0.0
461
0.0
452
        0
462
0.0
453
        0
470

  0
SPLINE
  5
1AC3
102
{ACAD_REACTORS
330
1A9D
102
}
330
18
100
AcDbEntity
  8
ROGO
 62
     4
100
AcDbSpline
210
0.0
220
0.0
230
1.0
 70
     8
 71
     3
 72
    26
 73
    22
 74
    20
 42
0.0000000001
 43
0.0000000001
 44
0.0000000001
 40
0.0
 40
0.0
 40
0.0
 40
0.0
 40
0.1723984759424608
 40
0.2878059064036966
 40
0.3710240621887089
 40
0.4331603664333254
 40
0.5137544142124919
 40
0.5725802121924054
 40
0.6788058922657609
 40
0.7652720686804421
 40
0.824082923352279
 40
0.8817499774613345
 40
0.9849051260984204
 40
1.057848128260906
 40
1.097133570529051
 40
1.152937380796411
 40
1.193234564309733
 40
1.251611879021433
 40
1.284648389624335
 40
1.356539542405977
 40
1.389365667278781
 40
1.389365667278781
 40
1.389365667278781
 40
1.389365667278781
 10
318.360171184636
 20
287.6547449192646
 30
0.0
 10
318.3016564781974
 20
287.6512538315362
 30
0.0
 10
318.2039707067169
 20
287.6454257308962
 30
0.0
 10
318.0967123238815
 20
287.5802674151934
 30
0.0
 10
318.0181285533663
 20
287.5423872338192
 30
0.0
 10
317.9620827035379
 20
287.4908923544201
 30
0.0
 10
317.9210008684204
 20
287.4377019056305
 30
0.0
 10
317.8692095029551
 20
287.3743258759001
 30
0.0
 10
317.8269751243579
 20
287.3005270538599
 30
0.0
 10
317.8054677229316
 20
287.2191878863901
 30
0.0
 10
317.7864166708754
 20
287.1543600979721
 30
0.0
 10
317.7722880917382
 20
287.082117987979
 30
0.0
 10
317.7758828022456
 20
287.0040710957412
 30
0.0
 10
317.7810305922089
 20
286.9315851378163
 30
0.0
 10
317.804014222618
 20
286.8798410164941
 30
0.0
 10
317.8301885065514
 20
286.8430027677579
 30
0.0
 10
317.8622385587729
 20
286.8024295208393
 30
0.0
 10
317.8973083246742
 20
286.7755579907863
 30
0.0
 10
317.926313883668
 20
286.7268784083721
 30
0.0
 10
317.9770871362028
 20
286.7206665425766
 30
0.0
 10
318.0093606354509
 20
286.7083030756496
 30
0.0
 10
318.0194775324916
 20
286.7044274524641
 30
0.0
 11
318.360171184636
 21
287.6547449192646
 31
0.0
 11
318.1898243585638
 21
287.6282271260986
 31
0.0
 11
318.0865837229929
 21
287.5766495517801
 31
0.0
 11
318.0143154265064
 21
287.5353875259549
 31
0.0
 11
317.9678573631192
 21
287.4941253319816
 31
0.0
 11
317.9162371937469
 21
287.4322322091697
 31
0.0
 11
317.8801030455037
 21
287.3858124090979
 31
0.0
 11
317.8284825793051
 21
287.292972640806
 31
0.0
 11
317.8026726430321
 21
287.2104484210075
 31
0.0
 11
317.787186621903
 21
287.1537130724422
 31
0.0
 11
317.7768624099327
 21
287.096977723877
 31
0.0
 11
317.7768624099327
 21
286.99382257524
 31
0.0
 11
317.787186621903
 21
286.9216139039347
 31
0.0
 11
317.8026726430321
 21
286.8855094842081
 31
0.0
 11
317.8336446852902
 21
286.8390896841362
 31
0.0
 11
317.8594549183895
 21
286.8081430386562
 31
0.0
 11
317.9007508757915
 21
286.766881012831
 31
0.0
 11
317.9213990029058
 21
286.7410921415977
 31
0.0
 11
317.9885054902334
 21
286.7153034385124
 31
0.0
 11
318.0194775324916
 21
286.7044274524641
 31
0.0
  0
SPLINE
  5
1AC4
102
{ACAD_REACTORS
330
1AC2
102
}
330
18
100
AcDbEntity
  8
ROGO
 62
     4
100
AcDbSpline
210
0.0
220
0.0
230
1.0
 70
     8
 71
     3
 72
    26
 73
    22
 74
    20
 42
0.0000000001
 43
0.0000000001
 44
0.0000000001
 40
0.0
 40
0.0
 40
0.0
 40
0.0
 40
0.172398475942452
 40
0.2878059064037132
 40
0.3710240621887256
 40
0.4331603664333846
 40
0.5137544142125073
 40
0.5725802121924657
 40
0.6788058922658211
 40
0.7652720686804854
 40
0.8240829233522674
 40
0.8817499774613789
 40
0.9849051260984648
 40
1.05784812826095
 40
1.097133570529095
 40
1.152937380796455
 40
1.193234564309741
 40
1.251611879021481
 40
1.284648389624348
 40
1.356539542406023
 40
1.389365667278791
 40
1.389365667278791
 40
1.389365667278791
 40
1.389365667278791
 10
315.298163775555
 20
287.6547449192646
 30
0.0
 10
315.2396490691165
 20
287.6512538315363
 30
0.0
 10
315.1419632976359
 20
287.6454257308963
 30
0.0
 10
315.0347049148004
 20
287.5802674151933
 30
0.0
 10
314.9561211442854
 20
287.5423872338192
 30
0.0
 10
314.9000752944568
 20
287.4908923544201
 30
0.0
 10
314.8589934593393
 20
287.4377019056305
 30
0.0
 10
314.8072020938741
 20
287.3743258759001
 30
0.0
 10
314.7649677152767
 20
287.3005270538598
 30
0.0
 10
314.7434603138505
 20
287.2191878863901
 30
0.0
 10
314.7244092617943
 20
287.1543600979721
 30
0.0
 10
314.7102806826571
 20
287.082117987979
 30
0.0
 10
314.7138753931647
 20
287.0040710957413
 30
0.0
 10
314.7190231831278
 20
286.9315851378163
 30
0.0
 10
314.742006813537
 20
286.8798410164941
 30
0.0
 10
314.7681810974703
 20
286.8430027677579
 30
0.0
 10
314.8002311496918
 20
286.8024295208392
 30
0.0
 10
314.8353009155932
 20
286.7755579907864
 30
0.0
 10
314.8643064745868
 20
286.7268784083721
 30
0.0
 10
314.9150797271217
 20
286.7206665425766
 30
0.0
 10
314.9473532263698
 20
286.7083030756496
 30
0.0
 10
314.9574701234105
 20
286.7044274524641
 30
0.0
 11
315.298163775555
 21
287.6547449192646
 31
0.0
 11
315.1278169494827
 21
287.6282271260987
 31
0.0
 11
315.0245763139118
 21
287.5766495517801
 31
0.0
 11
314.9523080174254
 21
287.5353875259549
 31
0.0
 11
314.9058499540381
 21
287.4941253319816
 31
0.0
 11
314.8542297846658
 21
287.4322322091698
 31
0.0
 11
314.8180956364226
 21
287.3858124090979
 31
0.0
 11
314.766475170224
 21
287.292972640806
 31
0.0
 11
314.740665233951
 21
287.2104484210075
 31
0.0
 11
314.725179212822
 21
287.1537130724423
 31
0.0
 11
314.7148550008517
 21
287.096977723877
 31
0.0
 11
314.7148550008517
 21
286.99382257524
 31
0.0
 11
314.725179212822
 21
286.9216139039347
 31
0.0
 11
314.740665233951
 21
286.8855094842081
 31
0.0
 11
314.7716372762091
 21
286.8390896841362
 31
0.0
 11
314.7974475093084
 21
286.8081430386562
 31
0.0
 11
314.8387434667105
 21
286.766881012831
 31
0.0
 11
314.8593915938247
 21
286.7410921415977
 31
0.0
 11
314.9264980811524
 21
286.7153034385125
 31
0.0
 11
314.9574701234105
 21
286.7044274524641
 31
0.0
  0
LINE
  5
1AC5
102
{ACAD_REACTORS
330
1AA3
102
}
330
18
100
AcDbEntity
  8
ROGO
 62
     4
100
AcDbLine
 10
314.0641201320134
 20
287.6547449192646
 30
0.0
 11
314.7494125265279
 21
286.7044274524641
 31
0.0
  0
LINE
  5
1AC6
102
{ACAD_REACTORS
330
1AA3
102
}
330
18
100
AcDbEntity
  8
ROGO
 62
     4
100
AcDbLine
 10
314.0926313153867
 20
286.8853620183408
 30
0.0
 11
314.2231067472627
 21
286.7044274524641
 31
0.0
  0
LINE
  5
1AC7
102
{ACAD_REACTORS
330
1AC2
102
}
330
18
100
AcDbEntity
  8
ROGO
 62
     4
100
AcDbLine
 10
315.9522954643788
 20
287.0580034198499
 30
0.0
 11
315.7759910675995
 21
286.7044274524641
 31
0.0
  0
LINE
  5
1AC8
102
{ACAD_REACTORS
330
1A9D
102
}
330
18
100
AcDbEntity
  8
ROGO
 62
     4
100
AcDbLine
 10
319.0143028734599
 20
287.0580034198499
 30
0.0
 11
318.8379984766807
 21
286.704427452464
 31
0.0
  0
ARC
  5
1AC9
102
{ACAD_REACTORS
330
1AC1
102
}
330
18
100
AcDbEntity
  8
ROGO
 62
     4
100
AcDbCircle
 10
316.7510555874191
 20
287.1795861858643
 30
0.0
 40
0.4755599797263065
100
AcDbArc
 50
92.3538081120337
 51
270.0
  0
ARC
  5
1ACA
102
{ACAD_REACTORS
330
1AC1
102
}
330
18
100
AcDbEntity
  8
ROGO
 62
     4
100
AcDbCircle
 10
317.1157982689936
 20
287.1791849395382
 30
0.0
 40
0.4755599797263065
100
AcDbArc
 50
273.3290215232082
 51
90.0000000000006
  0
LINE
  5
1ACB
102
{ACAD_REACTORS
330
1AC2
102
}
330
18
100
AcDbEntity
  8
ROGO
 62
     4
100
AcDbLine
 10
314.9574701234104
 20
286.7044274524641
 30
0.0
 11
315.7759910675995
 21
286.7044274524641
 31
0.0
  0
LINE
  5
1ACC
102
{ACAD_REACTORS
330
1AA3
102
}
330
18
100
AcDbEntity
  8
ROGO
 62
     4
100
AcDbLine
 10
314.7494125265279
 20
286.7044274524641
 30
0.0
 11
314.2231067472627
 21
286.7044274524641
 31
0.0
  0
LINE
  5
1ACD
330
18
100
AcDbEntity
  8
ROGO
 62
     4
100
AcDbLine
 10
316.7315242692161
 20
286.7044274524641
 30
0.0
 11
317.1434138947201
 21
286.7044274524641
 31
0.0
  0
LINE
  5
1ACE
102
{ACAD_REACTORS
330
1AC1
102
}
330
18
100
AcDbEntity
  8
ROGO
 62
     4
100
AcDbLine
 10
316.7315242692158
 20
286.7044274524641
 30
0.0
 11
317.1434138947205
 21
286.7044274524641
 31
0.0
  0
LINE
  5
1ACF
102
{ACAD_REACTORS
330
1A9D
102
}
330
18
100
AcDbEntity
  8
ROGO
 62
     4
100
AcDbLine
 10
318.0194775324915
 20
286.7044274524641
 30
0.0
 11
318.8379984766807
 21
286.7044274524641
 31
0.0
  0
LINE
  5
1AD0
102
{ACAD_REACTORS
330
1AA3
102
}
330
18
100
AcDbEntity
  8
ROGO
 62
     4
100
AcDbLine
 10
313.7894969683438
 20
287.3057283715762
 30
0.0
 11
313.6239789937658
 21
287.0761991610231
 31
0.0
  0
LINE
  5
1AD1
102
{ACAD_REACTORS
330
1AA3
102
}
330
18
100
AcDbEntity
  8
ROGO
 62
     4
100
AcDbLine
 10
313.6239789937658
 20
287.0761991610231
 30
0.0
 11
313.9550149429219
 21
287.0761991610231
 31
0.0
  0
LINE
  5
1AD2
102
{ACAD_REACTORS
330
1AA3
102
}
330
18
100
AcDbEntity
  8
ROGO
 62
     4
100
AcDbLine
 10
313.7894969683438
 20
287.3057283715762
 30
0.0
 11
313.9550149429219
 21
287.0761991610231
 31
0.0
  0
SPLINE
  5
1AD3
102
{ACAD_REACTORS
330
1AC2
102
}
330
18
100
AcDbEntity
  8
ROGO
 62
     4
100
AcDbSpline
210
0.0
220
0.0
230
1.0
 70
     8
 71
     3
 72
    16
 73
    12
 74
    10
 42
0.0000000001
 43
0.0000000001
 44
0.0000000001
 40
0.0
 40
0.0
 40
0.0
 40
0.0
 40
0.0908894635587698
 40
0.1352824120537892
 40
0.1571739758861179
 40
0.1802441192684364
 40
0.2132804986121064
 40
0.2433617673669269
 40
0.2747358298621628
 40
0.3273367126566702
 40
0.3794005943324437
 40
0.3794005943324437
 40
0.3794005943324437
 40
0.3794005943324437
 10
315.4788345167712
 20
287.3011652075662
 30
0.0
 10
315.4480552224317
 20
287.2964726964962
 30
0.0
 10
315.4022424624426
 20
287.289488232167
 30
0.0
 10
315.3608139527776
 20
287.2566938797181
 30
0.0
 10
315.3374511497716
 20
287.2371834229195
 30
0.0
 10
315.3295030201044
 20
287.2113460397932
 30
0.0
 10
315.3081568397724
 20
287.1915068957645
 30
0.0
 10
315.2905615153999
 20
287.1642415258378
 30
0.0
 10
315.2863601507893
 20
287.1267920986106
 30
0.0
 10
315.2894440486045
 20
287.074237534819
 30
0.0
 10
315.3262922609237
 20
287.0633962504629
 30
0.0
 10
315.3446218389422
 20
287.0580034198499
 30
0.0
 11
315.4788345167712
 21
287.3011652075662
 31
0.0
 11
315.3910801991556
 21
287.277499318066
 31
0.0
 11
315.3549460509124
 21
287.2517106149808
 31
0.0
 11
315.3394600297834
 21
287.2362372922408
 31
0.0
 11
315.3291358178131
 21
287.2156061952541
 31
0.0
 11
315.3084876906989
 21
287.1898174921689
 31
0.0
 11
315.2930016695699
 21
287.1640286209356
 31
0.0
 11
315.2878395635847
 21
287.1330821436037
 31
0.0
 11
315.298163775555
 21
287.0815044011371
 31
0.0
 11
315.3446218389422
 21
287.0580034198499
 31
0.0
  0
LINE
  5
1AD4
102
{ACAD_REACTORS
330
1AC2
102
}
330
18
100
AcDbEntity
  8
ROGO
 62
     4
100
AcDbLine
 10
316.2498500489433
 20
287.6547449192646
 30
0.0
 11
316.0735437851289
 21
287.3011652075662
 31
0.0
  0
LINE
  5
1AD5
102
{ACAD_REACTORS
330
1AC2
102
}
330
18
100
AcDbEntity
  8
ROGO
 62
     4
100
AcDbLine
 10
315.4788345167712
 20
287.3011652075662
 30
0.0
 11
316.0735437851289
 21
287.3011652075662
 31
0.0
  0
LINE
  5
1AD6
102
{ACAD_REACTORS
330
1AC2
102
}
330
18
100
AcDbEntity
  8
ROGO
 62
     4
100
AcDbLine
 10
315.3446218389421
 20
287.0580034198499
 30
0.0
 11
315.9522954643788
 21
287.0580034198499
 31
0.0
  0
LINE
  5
1AD7
102
{ACAD_REACTORS
330
1AC2
102
}
330
18
100
AcDbEntity
  8
ROGO
 62
     4
100
AcDbLine
 10
315.2981637755553
 20
287.6547449192646
 30
0.0
 11
316.2498500489433
 21
287.6547449192646
 31
0.0
  0
LINE
  5
1AD8
102
{ACAD_REACTORS
330
1AC1
102
}
330
18
100
AcDbEntity
  8
ROGO
 62
     4
100
AcDbLine
 10
316.9402609020737
 20
287.2706127535133
 30
0.0
 11
316.9746997903019
 21
287.265799126548
 31
0.0
  0
LINE
  5
1AD9
102
{ACAD_REACTORS
330
1AC1
102
}
330
18
100
AcDbEntity
  8
ROGO
 62
     4
100
AcDbLine
 10
317.0573714586366
 20
287.1740817007979
 30
0.0
 11
317.0447247301879
 21
287.0836012230544
 31
0.0
  0
LINE
  5
1ADA
102
{ACAD_REACTORS
330
1AC1
102
}
330
18
100
AcDbEntity
  8
ROGO
 62
     4
100
AcDbLine
 10
316.8183742116455
 20
287.1170449007609
 30
0.0
 11
316.8310209400942
 21
287.2075253785043
 31
0.0
  0
LINE
  5
1ADB
102
{ACAD_REACTORS
330
1AC1
102
}
330
18
100
AcDbEntity
  8
ROGO
 62
     4
100
AcDbLine
 10
316.907418027762
 20
287.0356398140487
 30
0.0
 11
316.9418569159902
 21
287.0308261870834
 31
0.0
  0
ARC
  5
1ADC
102
{ACAD_REACTORS
330
1AC1
102
}
330
18
100
AcDbEntity
  8
ROGO
 62
     4
100
AcDbCircle
 10
316.9577150828831
 20
287.1673718158119
 30
0.0
 40
0.0998820093152177
100
AcDbArc
 50
3.851923331663601
 51
80.20940670206341
  0
ARC
  5
1ADD
102
{ACAD_REACTORS
330
1AC1
102
}
330
18
100
AcDbEntity
  8
ROGO
 62
     4
100
AcDbCircle
 10
316.9268577202573
 20
287.1676994524534
 30
0.0
 40
0.1037824301982561
100
AcDbArc
 50
82.57970078354313
 51
157.4341870372611
  0
ARC
  5
1ADE
102
{ACAD_REACTORS
330
1AC1
102
}
330
18
100
AcDbEntity
  8
ROGO
 62
     4
100
AcDbCircle
 10
316.9131458312303
 20
287.1313073019038
 30
0.0
 40
0.0958388019806556
100
AcDbArc
 50
188.5583509056651
 51
266.5736774635929
  0
ARC
  5
1ADF
102
{ACAD_REACTORS
330
1AC1
102
}
330
18
100
AcDbEntity
  8
ROGO
 62
     4
100
AcDbCircle
 10
316.9624704993304
 20
287.117287929171
 30
0.0
 40
0.0888850530907803
100
AcDbArc
 50
256.5902863289752
 51
337.7287536965499
  0
LINE
  5
1AE0
330
18
100
AcDbEntity
  8
ROGO
 62
     4
100
AcDbLine
 10
316.7315242692159
 20
287.6547449192646
 30
0.0
 11
317.0008376783623
 21
287.6547449192646
 31
0.0
  0
LINE
  5
1AE1
102
{ACAD_REACTORS
330
1AC1
102
}
330
18
100
AcDbEntity
  8
ROGO
 62
     4
100
AcDbLine
 10
316.7315242692158
 20
287.6547449192646
 30
0.0
 11
317.1157982689936
 21
287.6547449192646
 31
0.0
  0
SPLINE
  5
1AE2
102
{ACAD_REACTORS
330
1A9D
102
}
330
18
100
AcDbEntity
  8
ROGO
 62
     4
100
AcDbSpline
210
0.0
220
0.0
230
1.0
 70
     8
 71
     3
 72
    16
 73
    12
 74
    10
 42
0.0000000001
 43
0.0000000001
 44
0.0000000001
 40
0.0
 40
0.0
 40
0.0
 40
0.0
 40
0.090889463558755
 40
0.1352824120538207
 40
0.1571739758861895
 40
0.1802441192684573
 40
0.2132804986121272
 40
0.2433617673669184
 40
0.2747358298622198
 40
0.3273367126566715
 40
0.3794005943324707
 40
0.3794005943324707
 40
0.3794005943324707
 40
0.3794005943324707
 10
318.5408419258522
 20
287.3011652075661
 30
0.0
 10
318.5100626315127
 20
287.2964726964962
 30
0.0
 10
318.4642498715235
 20
287.289488232167
 30
0.0
 10
318.4228213618587
 20
287.2566938797181
 30
0.0
 10
318.3994585588526
 20
287.2371834229194
 30
0.0
 10
318.3915104291855
 20
287.2113460397933
 30
0.0
 10
318.3701642488535
 20
287.1915068957647
 30
0.0
 10
318.3525689244809
 20
287.1642415258375
 30
0.0
 10
318.3483675598705
 20
287.1267920986107
 30
0.0
 10
318.3514514576856
 20
287.074237534819
 30
0.0
 10
318.3882996700047
 20
287.0633962504629
 30
0.0
 10
318.4066292480232
 20
287.0580034198498
 30
0.0
 11
318.5408419258522
 21
287.3011652075661
 31
0.0
 11
318.4530876082367
 21
287.277499318066
 31
0.0
 11
318.4169534599935
 21
287.2517106149808
 31
0.0
 11
318.4014674388644
 21
287.2362372922408
 31
0.0
 11
318.3911432268942
 21
287.2156061952541
 31
0.0
 11
318.37049509978
 21
287.1898174921689
 31
0.0
 11
318.3550090786509
 21
287.1640286209356
 31
0.0
 11
318.3498469726658
 21
287.1330821436036
 31
0.0
 11
318.360171184636
 21
287.0815044011371
 31
0.0
 11
318.4066292480232
 21
287.0580034198498
 31
0.0
  0
LINE
  5
1AE3
102
{ACAD_REACTORS
330
1A9D
102
}
330
18
100
AcDbEntity
  8
ROGO
 62
     4
100
AcDbLine
 10
318.4066292480232
 20
287.0580034198499
 30
0.0
 11
319.0143028734599
 21
287.0580034198499
 31
0.0
  0
LINE
  5
1AE4
102
{ACAD_REACTORS
330
1A9D
102
}
330
18
100
AcDbEntity
  8
ROGO
 62
     4
100
AcDbLine
 10
318.5408419258522
 20
287.3011652075662
 30
0.0
 11
319.1355511942099
 21
287.3011652075662
 31
0.0
  0
LINE
  5
1AE5
102
{ACAD_REACTORS
330
1A9C
102
}
330
18
100
AcDbEntity
  8
ROGO
 62
     4
100
AcDbLine
 10
319.8811000009088
 20
286.9122768932007
 30
0.0
 11
320.2513185381893
 21
286.1698088671369
 31
0.0
  0
LINE
  5
1AE6
102
{ACAD_REACTORS
330
1A9C
102
}
330
18
100
AcDbEntity
  8
ROGO
 62
     4
100
AcDbLine
 10
319.5108934353691
 20
286.5573939659485
 30
0.0
 11
319.70415588347
 21
286.1698088671369
 31
0.0
  0
LINE
  5
1AE7
102
{ACAD_REACTORS
330
1A9C
102
}
330
18
100
AcDbEntity
  8
ROGO
 62
     4
100
AcDbLine
 10
319.5108934353691
 20
286.5573939659484
 30
0.0
 11
319.3176309872683
 21
286.1698088671369
 31
0.0
  0
LINE
  5
1AE8
102
{ACAD_REACTORS
330
1A9C
102
}
330
18
100
AcDbEntity
  8
ROGO
 62
     4
100
AcDbLine
 10
319.70415588347
 20
286.1698088671369
 30
0.0
 11
320.2513185381893
 21
286.1698088671369
 31
0.0
  0
LINE
  5
1AE9
102
{ACAD_REACTORS
330
1A9C
102
}
330
18
100
AcDbEntity
  8
ROGO
 62
     4
100
AcDbLine
 10
319.8811000009088
 20
286.9122768932007
 30
0.0
 11
320.7805878356796
 21
287.6547449192646
 31
0.0
  0
LINE
  5
1AEA
102
{ACAD_REACTORS
330
1A9C
102
}
330
18
100
AcDbEntity
  8
ROGO
 62
     4
100
AcDbLine
 10
320.2334251809603
 20
287.6547449192646
 30
0.0
 11
320.7805878356796
 21
287.6547449192646
 31
0.0
  0
LINE
  5
1AEB
102
{ACAD_REACTORS
330
1A9C
102
}
330
18
100
AcDbEntity
  8
ROGO
 62
     4
100
AcDbLine
 10
319.5108934353691
 20
287.6547449192646
 30
0.0
 11
320.0580680618291
 21
287.6547449192646
 31
0.0
  0
LINE
  5
1AEC
102
{ACAD_REACTORS
330
1A9C
102
}
330
18
100
AcDbEntity
  8
ROGO
 62
     4
100
AcDbLine
 10
320.0580680618291
 20
287.6547449192646
 30
0.0
 11
319.9772274007329
 21
287.4926201199212
 31
0.0
  0
LINE
  5
1AED
102
{ACAD_REACTORS
330
1A9C
102
}
330
18
100
AcDbEntity
  8
ROGO
 62
     4
100
AcDbLine
 10
319.9772274007329
 20
287.4926201199212
 30
0.0
 11
320.2334251809603
 21
287.6547449192646
 31
0.0
  0
LINE
  5
1AEE
330
18
100
AcDbEntity
  8
0
  6
ByBlock
 62
     2
100
AcDbLine
 10
322.0701310950747
 20
237.1698088671368
 30
0.0
 11
337.2456646566147
 21
237.1698088671368
 31
0.0
  0
LINE
  5
1AEF
330
18
100
AcDbEntity
  8
0
  6
ByBlock
 62
     2
100
AcDbLine
 10
319.0017873610207
 20
225.1698088671368
 30
0.0
 11
337.2456646566147
 21
225.1698088671368
 31
0.0
  0
LINE
  5
1AF0
330
18
100
AcDbEntity
  8
0
  6
ByBlock
 62
     2
100
AcDbLine
 10
335.9956646566147
 20
234.6698088671368
 30
0.0
 11
335.9956646566147
 21
227.6698088671368
 31
0.0
  0
INSERT
  5
1AF1
330
18
100
AcDbEntity
  8
0
  6
ByBlock
 62
     2
100
AcDbBlockReference
  2
_OPEN
 10
335.9956646566147
 20
237.1698088671368
 30
0.0
 41
2.5
 42
2.5
 43
2.5
 50
90.0
  0
INSERT
  5
1AF2
330
18
100
AcDbEntity
  8
0
  6
ByBlock
 62
     2
100
AcDbBlockReference
  2
_OPEN
 10
335.9956646566147
 20
225.1698088671368
 30
0.0
 41
2.5
 42
2.5
 43
2.5
 50
270.0
  0
MTEXT
  5
1AF3
330
18
100
AcDbEntity
  8
0
  6
ByBlock
 62
     6
100
AcDbMText
 10
334.1206646566147
 20
231.1698088671368
 30
0.0
 40
2.5
 41
0.0
 71
     5
 72
     1
  1
\A1;12
  7
STYLE3
 11
0.0000000000000001
 21
1.0
 31
0.0
 73
     1
 44
1.0
  0
POINT
  5
1AF4
330
18
100
AcDbEntity
  8
DEFPOINTS
  6
ByBlock
 62
     0
100
AcDbPoint
 10
322.0701310950747
 20
237.1698088671368
 30
0.0
  0
POINT
  5
1AF5
330
18
100
AcDbEntity
  8
DEFPOINTS
  6
ByBlock
 62
     0
100
AcDbPoint
 10
319.0017873610207
 20
225.1698088671368
 30
0.0
  0
POINT
  5
1AF6
330
18
100
AcDbEntity
  8
DEFPOINTS
  6
ByBlock
 62
     0
100
AcDbPoint
 10
335.9956646566147
 20
225.1698088671368
 30
0.0
  0
LINE
  5
1AF7
330
18
100
AcDbEntity
  8
0
  6
ByBlock
 62
     2
100
AcDbLine
 10
309.8707387616321
 20
235.1698088671368
 30
0.0
 11
309.8707387616321
 21
227.6133291502792
 31
0.0
  0
LINE
  5
1AF8
330
18
100
AcDbEntity
  8
0
  6
ByBlock
 62
     2
100
AcDbLine
 10
319.8707387616321
 20
235.1698088671368
 30
0.0
 11
319.8707387616321
 21
227.6133291502792
 31
0.0
  0
LINE
  5
1AF9
330
18
100
AcDbEntity
  8
0
  6
ByBlock
 62
     2
100
AcDbLine
 10
312.3707387616321
 20
228.8633291502792
 30
0.0
 11
317.3707387616321
 21
228.8633291502792
 31
0.0
  0
LINE
  5
1AFA
330
18
100
AcDbEntity
  8
0
  6
ByBlock
 62
     2
100
AcDbLine
 10
319.8707387616321
 20
228.8633291502792
 30
0.0
 11
330.7635959044893
 21
228.8633291502792
 31
0.0
  0
INSERT
  5
1AFB
330
18
100
AcDbEntity
  8
0
  6
ByBlock
 62
     2
100
AcDbBlockReference
  2
_OPEN
 10
309.8707387616321
 20
228.8633291502792
 30
0.0
 41
2.5
 42
2.5
 43
2.5
 50
180.0
  0
INSERT
  5
1AFC
330
18
100
AcDbEntity
  8
0
  6
ByBlock
 62
     2
100
AcDbBlockReference
  2
_OPEN
 10
319.8707387616321
 20
228.8633291502792
 30
0.0
 41
2.5
 42
2.5
 43
2.5
  0
MTEXT
  5
1AFD
330
18
100
AcDbEntity
  8
0
  6
ByBlock
 62
     6
100
AcDbMText
 10
326.5671673330607
 20
231.3930910550412
 30
0.0
 40
2.5
 41
0.0
 71
     5
 72
     1
  1
\A1;(10)
  7
STYLE3
 73
     1
 44
1.0
  0
POINT
  5
1AFE
330
18
100
AcDbEntity
  8
DEFPOINTS
  6
ByBlock
 62
     0
100
AcDbPoint
 10
309.8707387616321
 20
235.1698088671368
 30
0.0
  0
POINT
  5
1AFF
330
18
100
AcDbEntity
  8
DEFPOINTS
  6
ByBlock
 62
     0
100
AcDbPoint
 10
319.8707387616321
 20
235.1698088671368
 30
0.0
  0
POINT
  5
1B00
330
18
100
AcDbEntity
  8
DEFPOINTS
  6
ByBlock
 62
     0
100
AcDbPoint
 10
319.8707387616321
 20
228.8633291502792
 30
0.0
  0
LINE
  5
1B01
330
18
100
AcDbEntity
  8
0
  6
ByBlock
 62
     2
100
AcDbLine
 10
311.0707387616321
 20
233.6698088671368
 30
0.0
 11
301.6248859221549
 21
233.6698088671368
 31
0.0
  0
LINE
  5
1B02
330
18
100
AcDbEntity
  8
0
  6
ByBlock
 62
     2
100
AcDbLine
 10
311.1221339453099
 20
225.1698088671368
 30
0.0
 11
301.6248859221549
 21
225.1698088671368
 31
0.0
  0
LINE
  5
1B03
330
18
100
AcDbEntity
  8
0
  6
ByBlock
 62
     2
100
AcDbLine
 10
302.8748859221549
 20
231.1698088671368
 30
0.0
 11
302.8748859221549
 21
227.6698088671368
 31
0.0
  0
INSERT
  5
1B04
330
18
100
AcDbEntity
  8
0
  6
ByBlock
 62
     2
100
AcDbBlockReference
  2
_OPEN
 10
302.8748859221549
 20
233.6698088671368
 30
0.0
 41
2.5
 42
2.5
 43
2.5
 50
90.0
  0
INSERT
  5
1B05
330
18
100
AcDbEntity
  8
0
  6
ByBlock
 62
     2
100
AcDbBlockReference
  2
_OPEN
 10
302.8748859221549
 20
225.1698088671368
 30
0.0
 41
2.5
 42
2.5
 43
2.5
 50
270.0
  0
MTEXT
  5
1B06
330
18
100
AcDbEntity
  8
0
  6
ByBlock
 62
     6
100
AcDbMText
 10
300.9998859221549
 20
229.4198088671368
 30
0.0
 40
2.5
 41
0.0
 71
     5
 72
     1
  1
\A1;8.5
  7
STYLE3
 11
0.0000000000000001
 21
1.0
 31
0.0
 73
     1
 44
1.0
  0
POINT
  5
1B07
330
18
100
AcDbEntity
  8
DEFPOINTS
  6
ByBlock
 62
     0
100
AcDbPoint
 10
311.0707387616321
 20
233.6698088671368
 30
0.0
  0
POINT
  5
1B08
330
18
100
AcDbEntity
  8
DEFPOINTS
  6
ByBlock
 62
     0
100
AcDbPoint
 10
311.1221339453099
 20
225.1698088671368
 30
0.0
  0
POINT
  5
1B09
330
18
100
AcDbEntity
  8
DEFPOINTS
  6
ByBlock
 62
     0
100
AcDbPoint
 10
302.8748859221549
 20
225.1698088671368
 30
0.0
  0
LINE
  5
1B0A
330
18
100
AcDbEntity
  8
0
  6
ByBlock
 62
     2
100
AcDbLine
 10
449.8270046992373
 20
270.9410089525781
 30
0.0
 11
449.8270046992373
 21
281.966773181323
 31
0.0
  0
LINE
  5
1B0B
330
18
100
AcDbEntity
  8
0
  6
ByBlock
 62
     2
100
AcDbLine
 10
462.2811356440312
 20
270.9410089525782
 30
0.0
 11
462.2811356440312
 21
281.966773181323
 31
0.0
  0
LINE
  5
1B0C
330
18
100
AcDbEntity
  8
0
  6
ByBlock
 62
     2
100
AcDbLine
 10
452.3270046992373
 20
280.716773181323
 30
0.0
 11
459.7811356440312
 21
280.716773181323
 31
0.0
  0
INSERT
  5
1B0D
330
18
100
AcDbEntity
  8
0
  6
ByBlock
 62
     2
100
AcDbBlockReference
  2
_OPEN
 10
449.8270046992373
 20
280.716773181323
 30
0.0
 41
2.5
 42
2.5
 43
2.5
 50
180.0
  0
INSERT
  5
1B0E
330
18
100
AcDbEntity
  8
0
  6
ByBlock
 62
     2
100
AcDbBlockReference
  2
_OPEN
 10
462.2811356440312
 20
280.716773181323
 30
0.0
 41
2.5
 42
2.5
 43
2.5
  0
MTEXT
  5
1B0F
330
18
100
AcDbEntity
  8
0
  6
ByBlock
 62
     6
100
AcDbMText
 10
456.0540701716343
 20
283.2465350860849
 30
0.0
 40
2.5
 41
0.0
 71
     5
 72
     1
  1
\A1;(6.35)
  7
STYLE3
 73
     1
 44
1.0
  0
POINT
  5
1B10
330
18
100
AcDbEntity
  8
DEFPOINTS
  6
ByBlock
 62
     0
100
AcDbPoint
 10
449.8270046992373
 20
270.9410089525781
 30
0.0
  0
POINT
  5
1B11
330
18
100
AcDbEntity
  8
DEFPOINTS
  6
ByBlock
 62
     0
100
AcDbPoint
 10
462.2811356440312
 20
270.9410089525782
 30
0.0
  0
POINT
  5
1B12
330
18
100
AcDbEntity
  8
DEFPOINTS
  6
ByBlock
 62
     0
100
AcDbPoint
 10
462.2811356440312
 20
280.716773181323
 30
0.0
  0
LINE
  5
1B13
330
18
100
AcDbEntity
  8
0
  6
ByBlock
 62
     2
100
AcDbLine
 10
447.6370046992372
 20
269.1410089525781
 30
0.0
 11
447.6370046992372
 21
288.5667545837254
 31
0.0
  0
LINE
  5
1B14
330
18
100
AcDbEntity
  8
0
  6
ByBlock
 62
     2
100
AcDbLine
 10
464.7170046992374
 20
269.1410089525781
 30
0.0
 11
464.7170046992374
 21
288.5667545837254
 31
0.0
  0
LINE
  5
1B15
330
18
100
AcDbEntity
  8
0
  6
ByBlock
 62
     2
100
AcDbLine
 10
450.1370046992373
 20
287.3167545837254
 30
0.0
 11
462.2170046992374
 21
287.3167545837254
 31
0.0
  0
INSERT
  5
1B16
330
18
100
AcDbEntity
  8
0
  6
ByBlock
 62
     2
100
AcDbBlockReference
  2
_OPEN
 10
447.6370046992372
 20
287.3167545837254
 30
0.0
 41
2.5
 42
2.5
 43
2.5
 50
180.0
  0
INSERT
  5
1B17
330
18
100
AcDbEntity
  8
0
  6
ByBlock
 62
     2
100
AcDbBlockReference
  2
_OPEN
 10
464.7170046992374
 20
287.3167545837254
 30
0.0
 41
2.5
 42
2.5
 43
2.5
  0
MTEXT
  5
1B18
330
18
100
AcDbEntity
  8
0
  6
ByBlock
 62
     6
100
AcDbMText
 10
456.1770046992373
 20
289.1917545837254
 30
0.0
 40
2.5
 41
0.0
 71
     5
 72
     1
  1
\A1;8.54
  7
STYLE3
 73
     1
 44
1.0
  0
POINT
  5
1B19
330
18
100
AcDbEntity
  8
DEFPOINTS
  6
ByBlock
 62
     0
100
AcDbPoint
 10
447.6370046992372
 20
269.1410089525781
 30
0.0
  0
POINT
  5
1B1A
330
18
100
AcDbEntity
  8
DEFPOINTS
  6
ByBlock
 62
     0
100
AcDbPoint
 10
464.7170046992374
 20
269.1410089525781
 30
0.0
  0
POINT
  5
1B1B
330
18
100
AcDbEntity
  8
DEFPOINTS
  6
ByBlock
 62
     0
100
AcDbPoint
 10
464.7170046992374
 20
287.3167545837254
 30
0.0
  0
LINE
  5
1B1C
330
18
100
AcDbEntity
  8
0
  6
ByBlock
 62
     2
100
AcDbLine
 10
335.5159413527228
 20
281.1698088671369
 30
0.0
 11
343.209627815453
 21
281.1698088671369
 31
0.0
  0
LINE
  5
1B1D
330
18
100
AcDbEntity
  8
0
  6
ByBlock
 62
     2
100
AcDbLine
 10
337.2456646566147
 20
225.1698088671368
 30
0.0
 11
343.209627815453
 21
225.1698088671368
 31
0.0
  0
LINE
  5
1B1E
330
18
100
AcDbEntity
  8
0
  6
ByBlock
 62
     2
100
AcDbLine
 10
341.959627815453
 20
278.6698088671368
 30
0.0
 11
341.959627815453
 21
227.6698088671368
 31
0.0
  0
INSERT
  5
1B1F
330
18
100
AcDbEntity
  8
0
  6
ByBlock
 62
     2
100
AcDbBlockReference
  2
_OPEN
 10
341.959627815453
 20
281.1698088671369
 30
0.0
 41
2.5
 42
2.5
 43
2.5
 50
90.0
  0
INSERT
  5
1B20
330
18
100
AcDbEntity
  8
0
  6
ByBlock
 62
     2
100
AcDbBlockReference
  2
_OPEN
 10
341.959627815453
 20
225.1698088671368
 30
0.0
 41
2.5
 42
2.5
 43
2.5
 50
270.0
  0
MTEXT
  5
1B21
330
18
100
AcDbEntity
  8
0
  6
ByBlock
 62
     6
100
AcDbMText
 10
340.084627815453
 20
253.1698088671368
 30
0.0
 40
2.5
 41
0.0
 71
     5
 72
     1
  1
\A1;56
  7
STYLE3
 11
0.0000000000000001
 21
1.0
 31
0.0
 73
     1
 44
1.0
  0
POINT
  5
1B22
330
18
100
AcDbEntity
  8
DEFPOINTS
  6
ByBlock
 62
     0
100
AcDbPoint
 10
335.5159413527228
 20
281.1698088671369
 30
0.0
  0
POINT
  5
1B23
330
18
100
AcDbEntity
  8
DEFPOINTS
  6
ByBlock
 62
     0
100
AcDbPoint
 10
337.2456646566147
 20
225.1698088671368
 30
0.0
  0
POINT
  5
1B24
330
18
100
AcDbEntity
  8
DEFPOINTS
  6
ByBlock
 62
     0
100
AcDbPoint
 10
341.959627815453
 20
225.1698088671368
 30
0.0
  0
LINE
  5
1B25
330
18
100
AcDbEntity
  8
文字
 62
     2
100
AcDbLine
 10
388.803285353868
 20
246.8536263950112
 30
0.0
 11
382.0472410255035
 21
234.9266735830278
 31
0.0
1001
ACAD
1000
DSTYLE
1002
{
1070
   271
1070
     2
1002
}
  0
LINE
  5
1B26
330
18
100
AcDbEntity
  8
文字
 62
     2
100
AcDbLine
 10
382.0472410255035
 20
234.9266735830278
 30
0.0
 11
377.1365267397893
 21
234.9266735830278
 31
0.0
1001
ACAD
1000
DSTYLE
1002
{
1070
   271
1070
     2
1002
}
  0
TEXT
  5
1B27
330
18
100
AcDbEntity
  8
外形線
 62
     6
100
AcDbText
 10
378.205923403041
 20
235.6271764234702
 30
0.0
 40
2.5
  1
C
  7
STYLE3
100
AcDbText
  0
TEXT
  5
1B28
330
18
100
AcDbEntity
  8
外形線
 62
     6
100
AcDbText
 10
382.344553207294
 20
315.1626341945677
 30
0.0
 40
2.5
  1
B
  7
STYLE3
100
AcDbText
  0
LINE
  5
1B29
330
18
100
AcDbEntity
  8
寸法線
 62
     2
100
AcDbLine
 10
390.9445520079317
 20
297.7637686196542
 30
0.0
 11
386.2141005857686
 21
314.5376341945677
 31
0.0
1001
ACAD
1000
DSTYLE
1002
{
1070
   271
1070
     2
1002
}
  0
LINE
  5
1B2A
330
18
100
AcDbEntity
  8
寸法線
 62
     2
100
AcDbLine
 10
386.2141005857686
 20
314.5376341945677
 30
0.0
 11
381.4224339191019
 21
314.5376341945677
 31
0.0
1001
ACAD
1000
DSTYLE
1002
{
1070
   271
1070
     2
1002
}
  0
LINE
  5
1B2B
330
18
100
AcDbEntity
  8
寸法線
 62
     2
100
AcDbLine
 10
402.1717176084362
 20
268.1195931778719
 30
0.0
 11
408.9538681247628
 21
280.1122577507196
 31
0.0
1001
ACAD
1000
DSTYLE
1002
{
1070
   271
1070
     2
1002
}
  0
LINE
  5
1B2C
330
18
100
AcDbEntity
  8
寸法線
 62
     2
100
AcDbLine
 10
408.9538681247628
 20
280.1122577507196
 30
0.0
 11
413.9836300295247
 21
280.1122577507196
 31
0.0
1001
ACAD
1000
DSTYLE
1002
{
1070
   271
1070
     2
1002
}
  0
TEXT
  5
212F
330
18
100
AcDbEntity
  8
文字
100
AcDbText
 10
321.4249048217657
 20
335.0364087404781
 30
0.0
 40
1.5
  1
0
  7
STYLE3
100
AcDbText
  0
TEXT
  5
2130
330
18
100
AcDbEntity
  8
文字
100
AcDbText
 10
319.484143085522
 20
333.0767885713711
 30
0.0
 40
1.5
  1
-0.03
  7
STYLE3
100
AcDbText
  0
INSERT
  5
2133
330
18
100
AcDbEntity
  8
目盛
100
AcDbBlockReference
  2
PC_PCN針
 10
314.8691364436211
 20
281.1710867079679
 30
0.0
 50
282.8556191069411
  0
LINE
  5
2173
330
18
100
AcDbEntity
  8
外形線
100
AcDbLine
 10
317.4952642448839
 20
356.1113538749425
 30
0.0
 11
418.4952642448839
 21
356.1113538749425
 31
0.0
  0
LINE
  5
2174
330
18
100
AcDbEntity
  8
外形線
100
AcDbLine
 10
317.4952642448839
 20
355.1113538749425
 30
0.0
 11
418.4952642448839
 21
355.1113538749425
 31
0.0
  0
TEXT
  5
2175
330
18
100
AcDbEntity
  8
文字
100
AcDbText
 10
318.1169762448839
 20
357.2409398749425
 30
0.0
 40
4.0
  1
Model No.PC-2 Pic Test Indicator
  7
STYLE3
100
AcDbText
  0
LINE
  5
2178
330
18
100
AcDbEntity
  8
外形線
100
AcDbLine
 10
350.5266494808083
 20
192.6533732345695
 30
0.0
 11
491.3180674808082
 21
192.6533732345695
 31
0.0
  0
LINE
  5
2179
330
18
100
AcDbEntity
  8
外形線
100
AcDbLine
 10
350.5266494808083
 20
181.8731672345695
 30
0.0
 11
491.3180674808082
 21
181.8731672345695
 31
0.0
  0
TEXT
  5
217A
330
18
100
AcDbEntity
  8
0
  6
Continuous
100
AcDbText
 10
351.9841164808083
 20
183.7711572345695
 30
0.0
 40
2.1
  1
Design and specifications are subject to change without notice for future improvement.
  7
STYLE3
100
AcDbText
  0
TEXT
  5
217B
330
18
100
AcDbEntity
  8
0
  6
Continuous
100
AcDbText
 10
352.2756104808083
 20
187.7003052345695
 30
0.0
 40
3.5
  1
仕様及び外観は予告なく変更される場合がございますのでご了承下さい。
  7
STYLE3
100
AcDbText
  0
TEXT
  5
217C
330
18
100
AcDbEntity
  8
0
  6
Continuous
100
AcDbText
 10
351.6926254808083
 20
174.0065292345695
 30
0.0
 40
2.1
  1
3RD Angle Projection
  7
STYLE3
100
AcDbText
  0
TEXT
  5
217D
330
18
100
AcDbEntity
  8
0
  6
Continuous
100
AcDbText
 10
354.3160684808083
 20
177.5028122345695
 30
0.0
 40
3.0
  1
三　　角　　法
  7
STYLE3
100
AcDbText
  0
LINE
  5
217E
330
18
100
AcDbEntity
  8
外形線
100
AcDbLine
 10
350.5266494808083
 20
172.2583892345695
 30
0.0
 11
350.5266494808083
 21
192.6533732345695
 31
0.0
  0
LINE
  5
217F
330
18
100
AcDbEntity
  8
外形線
100
AcDbLine
 10
452.5494164808082
 20
181.8731672345695
 30
0.0
 11
452.5494164808082
 21
172.2583892345695
 31
0.0
  0
LINE
  5
2180
330
18
100
AcDbEntity
  8
外形線
100
AcDbLine
 10
422.8170664808082
 20
181.8731672345695
 30
0.0
 11
422.8170664808082
 21
172.2583892345695
 31
0.0
  0
LINE
  5
2181
330
18
100
AcDbEntity
  8
外形線
100
AcDbLine
 10
403.2869944808083
 20
181.8731672345695
 30
0.0
 11
403.2869944808083
 21
172.2583892345695
 31
0.0
  0
LINE
  5
2182
330
18
100
AcDbEntity
  8
外形線
100
AcDbLine
 10
385.7973774808083
 20
181.8731672345695
 30
0.0
 11
385.7973774808083
 21
172.2583892345695
 31
0.0
  0
TEXT
  5
2183
330
18
100
AcDbEntity
  8
0
  6
Continuous
100
AcDbText
 10
387.2548464808083
 20
177.5087672345695
 30
0.0
 40
3.0
  1
単位
  7
STYLE3
100
AcDbText
  0
TEXT
  5
2184
330
18
100
AcDbEntity
  8
0
  6
Continuous
100
AcDbText
 10
387.4265674808084
 20
174.0065302345695
 30
0.0
 40
2.1
  1
Unit
  7
STYLE3
100
AcDbText
  0
TEXT
  5
2185
330
18
100
AcDbEntity
  8
0
  6
Continuous
100
AcDbText
 10
404.5727424808083
 20
177.2174092345695
 30
0.0
 40
3.0
  1
尺 度
  7
STYLE3
100
AcDbText
  0
TEXT
  5
2186
330
18
100
AcDbEntity
  8
0
  6
Continuous
100
AcDbText
 10
395.2968944808083
 20
175.7546732345695
 30
0.0
 40
2.399999999999999
  1
mm
  7
STYLE3
100
AcDbText
  0
TEXT
  5
2187
330
18
100
AcDbEntity
  8
0
  6
Continuous
100
AcDbText
 10
405.0359574808083
 20
174.2978872345695
 30
0.0
 40
2.1
  1
Scale
  7
STYLE3
100
AcDbText
  0
TEXT
  5
2188
330
18
100
AcDbEntity
  8
0
  6
Continuous
100
AcDbText
 10
414.6552464808083
 20
176.0460302345695
 30
0.0
 40
2.399999999999999
  1
1/1
  7
STYLE3
100
AcDbText
  0
TEXT
  5
2189
330
18
100
AcDbEntity
  8
0
  6
Continuous
100
AcDbText
 10
424.7490174808083
 20
174.0065312345695
 30
0.0
 40
2.1
  1
Date
  7
STYLE3
100
AcDbText
  0
TEXT
  5
218A
330
18
100
AcDbEntity
  8
0
  6
Continuous
100
AcDbText
 10
424.3656564808082
 20
177.3396142345695
 30
0.0
 40
3.0
  1
日 付
  7
STYLE3
100
AcDbText
  0
TEXT
  5
218B
330
18
100
AcDbEntity
  8
0
  6
Continuous
100
AcDbText
 10
433.4938254808083
 20
175.7546722345695
 30
0.0
 40
2.1
  1
2010.06.15
  7
STYLE3
100
AcDbText
  0
TEXT
  5
218C
330
18
100
AcDbEntity
  8
0
  6
Continuous
100
AcDbText
 10
453.8983794808083
 20
177.7941692345695
 30
0.0
 40
3.0
  1
株式会社　尾崎製作所
  7
STYLE3
100
AcDbText
  0
TEXT
  5
218D
330
18
100
AcDbEntity
  8
0
  6
Continuous
100
AcDbText
 10
454.7728584808083
 20
174.0065302345695
 30
0.0
 40
2.1
  1
OZAKI MFG. CO., LTD.
  7
STYLE3
100
AcDbText
  0
ENDSEC
  0
SECTION
  2
OBJECTS
  0
DICTIONARY
  5
C
330
0
100
AcDbDictionary
281
     1
  3
ACAD_COLOR
350
1BCD
  3
ACAD_GROUP
350
D
  3
ACAD_IMAGE_DICT
350
B2C
  3
ACAD_LAYOUT
350
1BD0
  3
ACAD_MATERIAL
350
1BCC
  3
ACAD_MLINESTYLE
350
1B
  3
ACAD_PLOTSETTINGS
350
1BD1
  3
ACAD_PLOTSTYLENAME
350
1BCA
  3
ACAD_TABLESTYLE
350
1BCE
  3
ACDBVARIABLEDICTIONARY
350
1297
  0
DICTIONARY
  5
1BD9
330
1BD8
100
AcDbDictionary
280
     1
281
     1
  3
ACAD_SORTENTS
360
1BDA
  0
DICTIONARY
  5
1BCD
102
{ACAD_REACTORS
330
C
102
}
330
C
100
AcDbDictionary
281
     1
  0
DICTIONARY
  5
D
102
{ACAD_REACTORS
330
C
102
}
330
C
100
AcDbDictionary
281
     1
  0
DICTIONARY
  5
B2C
102
{ACAD_REACTORS
330
C
102
}
330
C
100
AcDbDictionary
281
     1
  3
ROGO01
350
B2D
  0
DICTIONARY
  5
1BD0
102
{ACAD_REACTORS
330
C
102
}
330
C
100
AcDbDictionary
281
     1
  3
Model
350
1BD2
  3
レイアウト1
350
1BD3
  0
DICTIONARY
  5
1BCC
102
{ACAD_REACTORS
330
C
102
}
330
C
100
AcDbDictionary
281
     1
  0
DICTIONARY
  5
1B
102
{ACAD_REACTORS
330
C
102
}
330
C
100
AcDbDictionary
281
     1
  3
STANDARD
350
1C
  0
DICTIONARY
  5
1BD1
102
{ACAD_REACTORS
330
C
102
}
330
C
100
AcDbDictionary
281
     1
  0
ACDBDICTIONARYWDFLT
  5
1BCA
102
{ACAD_REACTORS
330
C
102
}
330
C
100
AcDbDictionary
281
     1
  3
Normal
350
1BCB
100
AcDbDictionaryWithDefault
340
1BCB
  0
DICTIONARY
  5
1BCE
102
{ACAD_REACTORS
330
C
102
}
330
C
100
AcDbDictionary
281
     1
  3
Standard
350
1BCF
  0
DICTIONARY
  5
1297
102
{ACAD_REACTORS
330
C
102
}
330
C
100
AcDbDictionary
281
     1
  3
CTABLESTYLE
350
2136
  3
SORTENTS
350
1298
  0
SORTENTSTABLE
  5
1BDA
102
{ACAD_REACTORS
330
1BD9
102
}
330
1BD9
100
AcDbSortentsTable
330
1BD8
  0
IMAGEDEF
  5
B2D
102
{ACAD_REACTORS
330
B2C
102
}
330
B2C
100
AcDbRasterImageDef
 90
        0
  1
D:\ﾃｽﾄ\rogo01.TIF
 10
3388.0
 20
4668.0
 11
0.0635
 21
0.0635
280
     1
281
     5
  0
LAYOUT
  5
1BD2
102
{ACAD_REACTORS
330
1BD0
102
}
330
1BD0
100
AcDbPlotSettings
  1

  2
A4 EPSON LP-6100.pc3
  4
A4
  6

 40
5.873749732971191
 41
5.873747825622558
 42
5.873748779296875
 43
5.873748779296875
 44
209.9733276367187
 45
297.0106506347656
 46
0.9
 47
25.0
 48
0.0
 49
0.0
140
0.0
141
0.0
142
1.0
143
1.0
 70
 28336
 72
     1
 73
     1
 74
     1
  7
AutoCAD LT 98.ctb
 75
    16
147
1.0
 76
     1
 77
     2
 78
   300
148
-236.4886379941706
149
-171.6235136330668
100
AcDbLayout
  1
Model
 70
     1
 71
     0
 10
0.0
 20
0.0
 11
12.0
 21
9.0
 12
0.0
 22
0.0
 32
0.0
 14
0.0
 24
0.0
 34
0.0
 15
0.0
 25
0.0
 35
0.0
146
0.0
 13
0.0
 23
0.0
 33
0.0
 16
1.0
 26
0.0
 36
0.0
 17
0.0
 27
1.0
 37
0.0
 76
     0
330
18
1001
ACAD_PSEXT
1000
A4 EPSON LP-6100.pc3
1000
EPSON LP-6100
1000
\\SATO-MATE2
1000

1070
     0
  0
LAYOUT
  5
1BD3
102
{ACAD_REACTORS
330
1BD0
102
}
330
1BD0
100
AcDbPlotSettings
  1

  2
WIDR Printer
  4

  6

 40
0.0
 41
0.0
 42
0.0
 43
0.0
 44
0.0
 45
0.0
 46
0.0
 47
0.0
 48
0.0
 49
0.0
140
0.0
141
0.0
142
1.0
143
1.0
 70
   688
 72
     0
 73
     0
 74
     5
  7
AutoCad LT 98.ctb
 75
    16
147
1.0
 76
     0
 77
     2
 78
   300
148
0.0
149
0.0
100
AcDbLayout
  1
レイアウト1
 70
     1
 71
     1
 10
0.0
 20
0.0
 11
420.0
 21
297.0
 12
0.0
 22
0.0
 32
0.0
 14
1.000000000000000E+20
 24
1.000000000000000E+20
 34
1.000000000000000E+20
 15
-1.000000000000000E+20
 25
-1.000000000000000E+20
 35
-1.000000000000000E+20
146
0.0
 13
0.0
 23
0.0
 33
0.0
 16
1.0
 26
0.0
 36
0.0
 17
0.0
 27
1.0
 37
0.0
 76
     0
330
15
  0
MLINESTYLE
  5
1C
102
{ACAD_REACTORS
330
1B
102
}
330
1B
100
AcDbMlineStyle
  2
STANDARD
 70
     0
  3

 62
   256
 51
90.0
 52
90.0
 71
     2
 49
0.5
 62
   256
  6
BYLAYER
 49
-0.5
 62
   256
  6
BYLAYER
  0
ACDBPLACEHOLDER
  5
1BCB
102
{ACAD_REACTORS
330
1BCA
102
}
330
1BCA
  0
ACAD_PROXY_OBJECT
  5
1BCF
102
{ACAD_REACTORS
330
1BCE
102
}
330
1BCE
100
AcDbProxyObject
 90
      499
 91
      505
 95
  2555929
 70
     0
 93
     1849
310
4214DD185B99185C992420000000000000F83F0000000000003E0FC00000000000004901028000000C1008070000C3001FDFF8000000C1003FBFF000000182007F7FE00000030400FEFFC00000060801FDFF8000000C1003FBFF000000182000000000000000C2020B0000001820100E000186003FBFF000000182007F7FE0
310
0000030400FEFFC00000060801FDFF8000000C1003FBFF000000182007F7FE0000003040000000000000012404160000003040201C00030C007F7FE00000030400FEFFC00000060801FDFF8000000C1003FBFF000000182007F7FE00000030400FEFFC000000608015
340
F
340
F
340
F
 94
        0
  0
DICTIONARYVAR
  5
2136
102
{ACAD_REACTORS
330
1297
102
}
330
1297
100
DictionaryVariables
280
     0
  1
STANDARD
  0
DICTIONARYVAR
  5
1298
102
{ACAD_REACTORS
330
1297
102
}
330
1297
100
DictionaryVariables
280
     0
  1
96
  0
ENDSEC
  0
EOF
