  0
SECTION
  2
HEADER
  9
$ACADVER
  1
AC1018
  9
$ACADMAINTVER
 70
     0
  9
$DWGCODEPAGE
  3
ANSI_932
  9
$INSBASE
 10
0.0
 20
0.0
 30
0.0
  9
$EXTMIN
 10
236.4619353910007
 20
171.6313712927051
 30
-0.0000000016292531
  9
$EXTMAX
 10
491.8915644529841
 20
367.0501782466424
 30
0.0000000041915129
  9
$LIMMIN
 10
0.0
 20
0.0
  9
$LIMMAX
 10
420.0
 20
297.0
  9
$ORTHOMODE
 70
     0
  9
$REGENMODE
 70
     1
  9
$FILLMODE
 70
     1
  9
$QTEXTMODE
 70
     0
  9
$MIRRTEXT
 70
     1
  9
$LTSCALE
 40
1.0
  9
$ATTMODE
 70
     1
  9
$TEXTSIZE
 40
2.5
  9
$TRACEWID
 40
1.0
  9
$TEXTSTYLE
  7
STYLE3
  9
$CLAYER
  8
外形線
  9
$CELTYPE
  6
BYLAYER
  9
$CECOLOR
 62
   256
  9
$CELTSCALE
 40
1.0
  9
$DISPSILH
 70
     0
  9
$DIMSCALE
 40
1.0
  9
$DIMASZ
 40
2.5
  9
$DIMEXO
 40
0.0
  9
$DIMDLI
 40
3.75
  9
$DIMRND
 40
0.0
  9
$DIMDLE
 40
0.0
  9
$DIMEXE
 40
1.25
  9
$DIMTP
 40
0.0
  9
$DIMTM
 40
0.0
  9
$DIMTXT
 40
2.5
  9
$DIMCEN
 40
2.5
  9
$DIMTSZ
 40
0.0
  9
$DIMTOL
 70
     0
  9
$DIMLIM
 70
     0
  9
$DIMTIH
 70
     0
  9
$DIMTOH
 70
     0
  9
$DIMSE1
 70
     0
  9
$DIMSE2
 70
     0
  9
$DIMTAD
 70
     1
  9
$DIMZIN
 70
     8
  9
$DIMBLK
  1

  9
$DIMASO
 70
     1
  9
$DIMSHO
 70
     1
  9
$DIMPOST
  1

  9
$DIMAPOST
  1

  9
$DIMALT
 70
     0
  9
$DIMALTD
 70
     4
  9
$DIMALTF
 40
0.0394
  9
$DIMLFAC
 40
1.0
  9
$DIMTOFL
 70
     1
  9
$DIMTVP
 40
0.0
  9
$DIMTIX
 70
     0
  9
$DIMSOXD
 70
     0
  9
$DIMSAH
 70
     1
  9
$DIMBLK1
  1
OPEN
  9
$DIMBLK2
  1
OPEN
  9
$DIMSTYLE
  2
STYLE3
  9
$DIMCLRD
 70
     2
  9
$DIMCLRE
 70
     2
  9
$DIMCLRT
 70
     6
  9
$DIMTFAC
 40
1.0
  9
$DIMGAP
 40
0.625
  9
$DIMJUST
 70
     0
  9
$DIMSD1
 70
     0
  9
$DIMSD2
 70
     0
  9
$DIMTOLJ
 70
     1
  9
$DIMTZIN
 70
     0
  9
$DIMALTZ
 70
     0
  9
$DIMALTTZ
 70
     0
  9
$DIMUPT
 70
     0
  9
$DIMDEC
 70
     2
  9
$DIMTDEC
 70
     4
  9
$DIMALTU
 70
     8
  9
$DIMALTTD
 70
     4
  9
$DIMTXSTY
  7
STYLE3
  9
$DIMAUNIT
 70
     0
  9
$DIMADEC
 70
     0
  9
$DIMALTRND
 40
0.0
  9
$DIMAZIN
 70
     0
  9
$DIMDSEP
 70
    46
  9
$DIMATFIT
 70
     3
  9
$DIMFRAC
 70
     0
  9
$DIMLDRBLK
  1

  9
$DIMLUNIT
 70
     2
  9
$DIMLWD
 70
    -2
  9
$DIMLWE
 70
    -2
  9
$DIMTMOVE
 70
     0
  9
$LUNITS
 70
     2
  9
$LUPREC
 70
     4
  9
$SKETCHINC
 40
1.0
  9
$FILLETRAD
 40
0.0
  9
$AUNITS
 70
     0
  9
$AUPREC
 70
     0
  9
$MENU
  1
.
  9
$ELEVATION
 40
0.0
  9
$PELEVATION
 40
0.0
  9
$THICKNESS
 40
0.0
  9
$LIMCHECK
 70
     0
  9
$CHAMFERA
 40
0.35
  9
$CHAMFERB
 40
0.35
  9
$CHAMFERC
 40
20.0
  9
$CHAMFERD
 40
0.0
  9
$SKPOLY
 70
     0
  9
$TDCREATE
 40
2451066.662483449
  9
$TDUCREATE
 40
2451066.287483449
  9
$TDUPDATE
 40
2455363.361572628
  9
$TDUUPDATE
 40
2455362.986572628
  9
$TDINDWG
 40
0.5983274884
  9
$TDUSRTIMER
 40
0.5983274884
  9
$USRTIMER
 70
     1
  9
$ANGBASE
 50
0.0
  9
$ANGDIR
 70
     0
  9
$PDMODE
 70
     0
  9
$PDSIZE
 40
0.0
  9
$PLINEWID
 40
0.0
  9
$SPLFRAME
 70
     0
  9
$SPLINETYPE
 70
     6
  9
$SPLINESEGS
 70
     8
  9
$HANDSEED
  5
214D
  9
$SURFTAB1
 70
     6
  9
$SURFTAB2
 70
     6
  9
$SURFTYPE
 70
     6
  9
$SURFU
 70
     6
  9
$SURFV
 70
     6
  9
$UCSBASE
  2

  9
$UCSNAME
  2

  9
$UCSORG
 10
0.0
 20
0.0
 30
0.0
  9
$UCSXDIR
 10
1.0
 20
0.0
 30
0.0
  9
$UCSYDIR
 10
0.0
 20
1.0
 30
0.0
  9
$UCSORTHOREF
  2

  9
$UCSORTHOVIEW
 70
     0
  9
$UCSORGTOP
 10
0.0
 20
0.0
 30
0.0
  9
$UCSORGBOTTOM
 10
0.0
 20
0.0
 30
0.0
  9
$UCSORGLEFT
 10
0.0
 20
0.0
 30
0.0
  9
$UCSORGRIGHT
 10
0.0
 20
0.0
 30
0.0
  9
$UCSORGFRONT
 10
0.0
 20
0.0
 30
0.0
  9
$UCSORGBACK
 10
0.0
 20
0.0
 30
0.0
  9
$PUCSBASE
  2

  9
$PUCSNAME
  2

  9
$PUCSORG
 10
0.0
 20
0.0
 30
0.0
  9
$PUCSXDIR
 10
1.0
 20
0.0
 30
0.0
  9
$PUCSYDIR
 10
0.0
 20
1.0
 30
0.0
  9
$PUCSORTHOREF
  2

  9
$PUCSORTHOVIEW
 70
     0
  9
$PUCSORGTOP
 10
0.0
 20
0.0
 30
0.0
  9
$PUCSORGBOTTOM
 10
0.0
 20
0.0
 30
0.0
  9
$PUCSORGLEFT
 10
0.0
 20
0.0
 30
0.0
  9
$PUCSORGRIGHT
 10
0.0
 20
0.0
 30
0.0
  9
$PUCSORGFRONT
 10
0.0
 20
0.0
 30
0.0
  9
$PUCSORGBACK
 10
0.0
 20
0.0
 30
0.0
  9
$USERI1
 70
     0
  9
$USERI2
 70
     0
  9
$USERI3
 70
     0
  9
$USERI4
 70
     0
  9
$USERI5
 70
     0
  9
$USERR1
 40
0.0
  9
$USERR2
 40
0.0
  9
$USERR3
 40
0.0
  9
$USERR4
 40
0.0
  9
$USERR5
 40
0.0
  9
$WORLDVIEW
 70
     1
  9
$SHADEDGE
 70
     3
  9
$SHADEDIF
 70
    70
  9
$TILEMODE
 70
     1
  9
$MAXACTVP
 70
    48
  9
$PINSBASE
 10
0.0
 20
0.0
 30
0.0
  9
$PLIMCHECK
 70
     0
  9
$PEXTMIN
 10
1.000000000000000E+20
 20
1.000000000000000E+20
 30
1.000000000000000E+20
  9
$PEXTMAX
 10
-1.000000000000000E+20
 20
-1.000000000000000E+20
 30
-1.000000000000000E+20
  9
$PLIMMIN
 10
0.0
 20
0.0
  9
$PLIMMAX
 10
420.0
 20
297.0
  9
$UNITMODE
 70
     0
  9
$VISRETAIN
 70
     1
  9
$PLINEGEN
 70
     0
  9
$PSLTSCALE
 70
     1
  9
$TREEDEPTH
 70
  3020
  9
$CMLSTYLE
  2
STANDARD
  9
$CMLJUST
 70
     0
  9
$CMLSCALE
 40
20.0
  9
$PROXYGRAPHICS
 70
     1
  9
$MEASUREMENT
 70
     1
  9
$CELWEIGHT
370
    -1
  9
$ENDCAPS
280
     0
  9
$JOINSTYLE
280
     0
  9
$LWDISPLAY
290
     0
  9
$INSUNITS
 70
     0
  9
$HYPERLINKBASE
  1

  9
$STYLESHEET
  1
AutoCAD LT 98.ctb
  9
$XEDIT
290
     1
  9
$CEPSNTYPE
380
     0
  9
$PSTYLEMODE
290
     1
  9
$FINGERPRINTGUID
  2
{0AF25295-83F8-4E65-9A70-950CC4154F7F}
  9
$VERSIONGUID
  2
{27BF0165-B488-462F-9817-F97244A4EF4E}
  9
$EXTNAMES
290
     1
  9
$PSVPSCALE
 40
0.0
  9
$OLESTARTUP
290
     0
  9
$SORTENTS
280
    96
  9
$INDEXCTL
280
     0
  9
$HIDETEXT
280
     0
  9
$XCLIPFRAME
290
     0
  9
$HALOGAP
280
     0
  9
$OBSCOLOR
 70
   257
  9
$OBSLTYPE
280
     0
  9
$INTERSECTIONDISPLAY
280
     0
  9
$INTERSECTIONCOLOR
 70
   257
  9
$DIMASSOC
280
     1
  9
$PROJECTNAME
  1

  0
ENDSEC
  0
SECTION
  2
CLASSES
  0
CLASS
  1
HATCH
  2
AcDbHatch
  3
ObjectDBX Classes
 90
        0
 91
       12
280
     0
281
     1
  0
CLASS
  1
LWPOLYLINE
  2
AcDbPolyline
  3
ObjectDBX Classes
 90
        0
 91
        1
280
     0
281
     1
  0
CLASS
  1
IMAGEDEF
  2
AcDbRasterImageDef
  3
ISM
 90
        0
 91
        1
280
     0
281
     0
  0
CLASS
  1
DICTIONARYVAR
  2
AcDbDictionaryVar
  3
ObjectDBX Classes
 90
        0
 91
        2
280
     0
281
     0
  0
CLASS
  1
ACDBDICTIONARYWDFLT
  2
AcDbDictionaryWithDefault
  3
ObjectDBX Classes
 90
        0
 91
        1
280
     0
281
     0
  0
CLASS
  1
TABLESTYLE
  2
AcDbTableStyle
  3
ObjectDBX Classes
 90
     2047
 91
        1
280
     0
281
     0
  0
CLASS
  1
SORTENTSTABLE
  2
AcDbSortentsTable
  3
ObjectDBX Classes
 90
        0
 91
        2
280
     0
281
     0
  0
ENDSEC
  0
SECTION
  2
TABLES
  0
TABLE
  2
VPORT
  5
8
330
0
100
AcDbSymbolTable
 70
     2
  0
VPORT
  5
214C
330
8
100
AcDbSymbolTableRecord
100
AcDbViewportTableRecord
  2
*Active
 70
     0
 10
0.0
 20
0.0
 11
1.0
 21
1.0
 12
364.1767499219924
 22
269.3407747696738
 13
0.0
 23
0.0
 14
10.0
 24
10.0
 15
10.0
 25
10.0
 16
0.0
 26
0.0
 36
1.0
 17
0.0
 27
0.0
 37
0.0
 40
196.9514065349466
 41
1.530456852791878
 42
50.0
 43
0.0
 44
0.0
 50
0.0
 51
0.0
 71
     0
 72
   100
 73
     1
 74
     1
 75
     0
 76
     0
 77
     0
 78
     0
281
     0
 65
     1
110
0.0
120
0.0
130
0.0
111
1.0
121
0.0
131
0.0
112
0.0
122
1.0
132
0.0
 79
     0
146
0.0
  0
ENDTAB
  0
TABLE
  2
LTYPE
  5
5
330
0
100
AcDbSymbolTable
 70
     5
  0
LTYPE
  5
12
330
5
100
AcDbSymbolTableRecord
100
AcDbLinetypeTableRecord
  2
BYBLOCK
 70
     0
  3

 72
    65
 73
     0
 40
0.0
  0
LTYPE
  5
13
330
5
100
AcDbSymbolTableRecord
100
AcDbLinetypeTableRecord
  2
BYLAYER
 70
     0
  3

 72
    65
 73
     0
 40
0.0
  0
LTYPE
  5
14
330
5
100
AcDbSymbolTableRecord
100
AcDbLinetypeTableRecord
  2
CONTINUOUS
 70
     0
  3
Solid line
 72
    65
 73
     0
 40
0.0
  0
LTYPE
  5
22
330
5
100
AcDbSymbolTableRecord
100
AcDbLinetypeTableRecord
  2
CENTER2
 70
     0
  3
Center (.5x) ___ _ ___ _ ___ _ ___ _ ___ _ ___
 72
    65
 73
     4
 40
28.575
 49
19.05
 74
     0
 49
-3.174999999999999
 74
     0
 49
3.174999999999999
 74
     0
 49
-3.174999999999999
 74
     0
  0
LTYPE
  5
23
330
5
100
AcDbSymbolTableRecord
100
AcDbLinetypeTableRecord
  2
HIDDEN2
 70
     0
  3
Hidden (.5x) _ _ _ _ _ _ _ _ _ _ _ _ _ _ _ _ _
 72
    65
 73
     2
 40
4.762499999999999
 49
3.174999999999999
 74
     0
 49
-1.587499999999999
 74
     0
  0
ENDTAB
  0
TABLE
  2
LAYER
  5
2
330
0
100
AcDbSymbolTable
 70
    11
  0
LAYER
  5
E
330
2
100
AcDbSymbolTableRecord
100
AcDbLayerTableRecord
  2
0
 70
     0
 62
     7
  6
CONTINUOUS
370
    -3
390
19F9
  0
LAYER
  5
25
330
2
100
AcDbSymbolTableRecord
100
AcDbLayerTableRecord
  2
外形線
 70
     0
 62
     7
  6
CONTINUOUS
370
    -3
390
19F9
  0
LAYER
  5
26
330
2
100
AcDbSymbolTableRecord
100
AcDbLayerTableRecord
  2
寸法線
 70
     0
 62
     2
  6
CONTINUOUS
370
    -3
390
19F9
  0
LAYER
  5
27
330
2
100
AcDbSymbolTableRecord
100
AcDbLayerTableRecord
  2
中心線
 70
     0
 62
     4
  6
CENTER2
370
    -3
390
19F9
  0
LAYER
  5
28
330
2
100
AcDbSymbolTableRecord
100
AcDbLayerTableRecord
  2
隠れ線
 70
     0
 62
     6
  6
HIDDEN2
370
    -3
390
19F9
  0
LAYER
  5
2B
330
2
100
AcDbSymbolTableRecord
100
AcDbLayerTableRecord
  2
文字
 70
     0
 62
     6
  6
CONTINUOUS
370
    -3
390
19F9
  0
LAYER
  5
2C
330
2
100
AcDbSymbolTableRecord
100
AcDbLayerTableRecord
  2
目盛
 70
     0
 62
    70
  6
CONTINUOUS
370
    -3
390
19F9
  0
LAYER
  5
2D
330
2
100
AcDbSymbolTableRecord
100
AcDbLayerTableRecord
  2
針
 70
     0
 62
     5
  6
CONTINUOUS
370
    -3
390
19F9
  0
LAYER
  5
53
330
2
100
AcDbSymbolTableRecord
100
AcDbLayerTableRecord
  2
DEFPOINTS
 70
     0
 62
     7
  6
CONTINUOUS
290
     0
370
    -3
390
19F9
  0
LAYER
  5
A5
330
2
100
AcDbSymbolTableRecord
100
AcDbLayerTableRecord
  2
C
 70
     0
 62
     7
  6
CONTINUOUS
370
    -3
390
19F9
  0
LAYER
  5
AD4
330
2
100
AcDbSymbolTableRecord
100
AcDbLayerTableRecord
  2
ROGO
 70
     0
 62
     6
  6
CONTINUOUS
370
    -3
390
19F9
  0
ENDTAB
  0
TABLE
  2
STYLE
  5
3
330
0
100
AcDbSymbolTable
 70
     3
  0
STYLE
  5
F
330
3
100
AcDbSymbolTableRecord
100
AcDbTextStyleTableRecord
  2
STANDARD
 70
     0
 40
0.0
 41
1.0
 50
0.0
 71
     0
 42
2.5
  3
txt
  4

  0
STYLE
  5
3F
330
3
100
AcDbSymbolTableRecord
100
AcDbTextStyleTableRecord
  2
STYLE3
 70
     0
 40
0.0
 41
1.0
 50
0.0
 71
     0
 42
2.5
  3
romans.shx
  4
bigfont.shx
  0
ENDTAB
  0
TABLE
  2
VIEW
  5
6
330
0
100
AcDbSymbolTable
 70
     0
  0
ENDTAB
  0
TABLE
  2
UCS
  5
7
330
0
100
AcDbSymbolTable
 70
     0
  0
ENDTAB
  0
TABLE
  2
APPID
  5
9
330
0
100
AcDbSymbolTable
 70
     2
  0
APPID
  5
10
330
9
100
AcDbSymbolTableRecord
100
AcDbRegAppTableRecord
  2
ACAD
 70
     0
  0
APPID
  5
1A21
330
9
100
AcDbSymbolTableRecord
100
AcDbRegAppTableRecord
  2
ACAD_PSEXT
 70
     0
  0
ENDTAB
  0
TABLE
  2
DIMSTYLE
  5
A
330
0
100
AcDbSymbolTable
 70
     3
100
AcDbDimStyleTable
 71
     1
340
8F
  0
DIMSTYLE
105
1D
330
A
100
AcDbSymbolTableRecord
100
AcDbDimStyleTableRecord
  2
STANDARD
 70
     0
 41
2.5
 42
0.625
 43
3.75
 44
1.25
 73
     0
 74
     0
 77
     1
 78
     8
140
2.5
141
2.5
143
0.0394
147
0.625
171
     4
172
     1
273
     8
274
     4
277
     6
340
F
  0
DIMSTYLE
105
8F
330
A
100
AcDbSymbolTableRecord
100
AcDbDimStyleTableRecord
  2
STYLE3
 70
     0
 41
2.5
 42
0.0
 43
3.75
 44
1.25
 73
     0
 74
     0
 77
     1
 78
     8
140
2.5
141
2.5
143
0.0394
147
0.625
171
     4
172
     1
173
     1
176
     2
177
     2
178
     6
271
     1
273
     8
274
     4
340
3F
341
45
343
45
344
45
  0
ENDTAB
  0
TABLE
  2
BLOCK_RECORD
  5
1
330
0
100
AcDbSymbolTable
 70
     7
  0
BLOCK_RECORD
  5
18
330
1
100
AcDbSymbolTableRecord
100
AcDbBlockTableRecord
  2
*MODEL_SPACE
340
1A00
  0
BLOCK_RECORD
  5
15
330
1
100
AcDbSymbolTableRecord
100
AcDbBlockTableRecord
  2
*PAPER_SPACE
340
1A01
  0
BLOCK_RECORD
  5
45
330
1
100
AcDbSymbolTableRecord
100
AcDbBlockTableRecord
  2
_OPEN
340
0
102
{BLKREFS
331
1637
331
1638
331
1654
331
1669
331
166A
331
168B
331
168C
331
192F
331
1930
331
1938
331
1939
331
1941
331
1942
331
194A
331
194B
331
1953
331
1954
331
195C
331
195D
331
1965
331
1966
331
19C2
331
19C3
331
19CB
331
19CC
331
19D6
331
19D7
331
19E2
331
19E3
331
19EB
331
19EC
102
}
  0
BLOCK_RECORD
  5
ADD
330
1
100
AcDbSymbolTableRecord
100
AcDbBlockTableRecord
  2
ROGO1
340
0
102
{BLKREFS
331
B43
331
B44
331
FCB
331
FCC
102
}
  0
BLOCK_RECORD
  5
1A06
102
{ACAD_XDICTIONARY
360
1A07
102
}
330
1
100
AcDbSymbolTableRecord
100
AcDbBlockTableRecord
  2
PC_PCN針
340
0
102
{BLKREFS
331
20B6
102
}
  0
ENDTAB
  0
ENDSEC
  0
SECTION
  2
BLOCKS
  0
BLOCK
  5
19
330
18
100
AcDbEntity
  8
0
100
AcDbBlockBegin
  2
*MODEL_SPACE
 70
     0
 10
0.0
 20
0.0
 30
0.0
  3
*MODEL_SPACE
  1

  0
ENDBLK
  5
1A
330
18
100
AcDbEntity
  8
0
100
AcDbBlockEnd
  0
BLOCK
  5
16
330
15
100
AcDbEntity
 67
     1
  8
0
100
AcDbBlockBegin
  2
*PAPER_SPACE
 70
     0
 10
0.0
 20
0.0
 30
0.0
  3
*PAPER_SPACE
  1

  0
ENDBLK
  5
17
330
15
100
AcDbEntity
 67
     1
  8
0
100
AcDbBlockEnd
  0
BLOCK
  5
46
330
45
100
AcDbEntity
  8
0
100
AcDbBlockBegin
  2
_OPEN
 70
     0
 10
0.0
 20
0.0
 30
0.0
  3
_OPEN
  1

  0
LINE
  5
47
330
45
100
AcDbEntity
  8
0
  6
ByBlock
 62
     0
100
AcDbLine
 10
-1.0
 20
0.1666666666666666
 30
0.0
 11
0.0
 21
0.0
 31
0.0
  0
LINE
  5
48
330
45
100
AcDbEntity
  8
0
  6
ByBlock
 62
     0
100
AcDbLine
 10
0.0
 20
0.0
 30
0.0
 11
-1.0
 21
-0.1666666666666666
 31
0.0
  0
LINE
  5
49
330
45
100
AcDbEntity
  8
0
  6
ByBlock
 62
     0
100
AcDbLine
 10
0.0
 20
0.0
 30
0.0
 11
-1.0
 21
0.0
 31
0.0
  0
ENDBLK
  5
4A
330
45
100
AcDbEntity
  8
0
100
AcDbBlockEnd
  0
BLOCK
  5
B2A
330
ADD
100
AcDbEntity
  8
0
100
AcDbBlockBegin
  2
ROGO1
 70
     0
 10
0.0
 20
0.0
 30
0.0
  3
ROGO1
  1

  0
MTEXT
  5
B42
330
ADD
100
AcDbEntity
  8
DEFPOINTS
  6
Continuous
100
AcDbMText
 10
1039.786461861274
 20
160.9640365185991
 30
0.0
 40
1.0
 41
0.0
 71
     4
 72
     1
  1
\A1;
 73
     1
 44
1.0
  0
ENDBLK
  5
B2B
330
ADD
100
AcDbEntity
  8
0
100
AcDbBlockEnd
  0
BLOCK
  5
1A09
330
1A06
100
AcDbEntity
  8
0
100
AcDbBlockBegin
  2
PC_PCN針
 70
     0
 10
0.0
 20
0.0
 30
0.0
  3
PC_PCN針
  1

  0
HATCH
  5
20A6
330
1A06
100
AcDbEntity
  8
針
 62
     5
100
AcDbHatch
 10
0.0
 20
0.0
 30
0.0
210
0.0
220
0.0
230
1.0
  2
SOLID
 70
     1
 71
     1
 91
        2
 92
        7
 72
     1
 73
     1
 93
        7
 10
-2.023904563850578
 20
-0.2645931338153105
 42
-0.1640812035095904
 10
-1.421638696153195
 20
-0.4784803210162636
 42
-0.0813437861988258
 10
-1.5
 20
0.0
 42
-0.0813437861988211
 10
-1.421638696153195
 20
0.4784803210162352
 42
-0.1640812035095877
 10
-2.023904563850578
 20
0.2645931338153105
 42
0.0
 10
-14.19999999999993
 20
0.07000000000005
 42
0.0
 10
-14.20000000000004
 20
-0.0700000000000216
 42
0.0
 97
        6
330
20AA
330
20AC
330
20A7
330
20AD
330
20AB
330
20B3
 92
        7
 72
     1
 73
     1
 93
        9
 10
1.601307174430758
 20
0.4866168858272318
 42
-0.1053331282509662
 10
1.399713151580613
 20
0.5392616185973793
 42
-0.0921949713546931
 10
1.5
 20
0.0
 42
-0.0921949713546883
 10
1.399713151580613
 20
-0.5392616185973509
 42
-0.1053331282510194
 10
1.601307174430871
 20
-0.4866168858272318
 42
0.0
 10
6.657469727507077
 20
-0.256172195646343
 42
-0.2863987309427536
 10
6.842033426437637
 20
-0.359972204586029
 42
3.911320250910649
 10
6.842033426437637
 20
0.3599722045860858
 42
-0.2863987309427981
 10
6.657469727507077
 20
0.256172195646343
 42
0.0
 97
        8
330
20B1
330
20AE
330
20A9
330
20B3
330
20A8
330
20AF
330
20B2
330
20B0
 75
     0
 76
     1
 47
0.0259966004614645
 98
        2
 10
-6.998752094249084
 20
-0.0094903483859525
 10
3.014397170732763
 20
0.0944959703959967
450
        0
451
        0
460
0.0
461
0.0
452
        1
462
1.0
453
        2
463
0.0
 63
     5
421
      255
463
1.0
 63
    51
421
 16777113
470
LINEAR
  0
LINE
  5
20A7
102
{ACAD_REACTORS
330
20A6
102
}
330
1A06
100
AcDbEntity
  8
針
100
AcDbLine
 10
-14.20000000000004
 20
0.0700000000000216
 30
0.0
 11
-14.20000000000004
 21
-0.0699999999999932
 31
0.0
  0
ARC
  5
20A8
102
{ACAD_REACTORS
330
20A6
102
}
330
1A06
100
AcDbEntity
  8
針
100
AcDbCircle
 10
1.624072039381871
 20
-0.9860983779005323
 30
0.0
 40
0.5
100
AcDbArc
 50
92.60956348104661
 51
116.6614474826241
  0
ARC
  5
20A9
102
{ACAD_REACTORS
330
20A6
102
}
330
1A06
100
AcDbEntity
  8
針
100
AcDbCircle
 10
1.624072039381871
 20
0.9860983779005323
 30
0.0
 40
0.5
100
AcDbArc
 50
243.3385525173759
 51
267.3904365189533
  0
ARC
  5
20AA
102
{ACAD_REACTORS
330
20A6
102
}
330
1A06
100
AcDbEntity
  8
針
100
AcDbCircle
 10
-2.039884094318267
 20
1.264465452967101
 30
0.0
 40
1.0
100
AcDbArc
 50
270.9155986228672
 51
308.1881170613605
  0
ARC
  5
20AB
102
{ACAD_REACTORS
330
20A6
102
}
330
1A06
100
AcDbEntity
  8
針
100
AcDbCircle
 10
-2.039884094318267
 20
-1.264465452967101
 30
0.0
 40
1.0
100
AcDbArc
 50
51.8118829386395
 51
89.08440137713276
  0
LINE
  5
20AC
102
{ACAD_REACTORS
330
20A6
102
}
330
1A06
100
AcDbEntity
  8
針
100
AcDbLine
 10
-14.20000000000004
 20
0.0700000000000216
 30
0.0
 11
-2.023904563850578
 21
0.2645931338153105
 31
0.0
  0
LINE
  5
20AD
102
{ACAD_REACTORS
330
20A6
102
}
330
1A06
100
AcDbEntity
  8
針
100
AcDbLine
 10
-2.023904563850578
 20
-0.2645931338153105
 30
0.0
 11
-14.20000000000004
 21
-0.0699999999999932
 31
0.0
  0
LINE
  5
20AE
102
{ACAD_REACTORS
330
20A6
102
}
330
1A06
100
AcDbEntity
  8
針
100
AcDbLine
 10
1.601307174430758
 20
0.4866168858272318
 30
0.0
 11
6.657469727507077
 21
0.256172195646343
 31
0.0
  0
LINE
  5
20AF
102
{ACAD_REACTORS
330
20A6
102
}
330
1A06
100
AcDbEntity
  8
針
100
AcDbLine
 10
1.601307174430758
 20
-0.4866168858272318
 30
0.0
 11
6.657469727507077
 21
-0.256172195646343
 31
0.0
  0
ARC
  5
20B0
102
{ACAD_REACTORS
330
20A6
102
}
330
1A06
100
AcDbEntity
  8
針
100
AcDbCircle
 10
7.5
 20
0.0
 30
0.0
 40
0.75
100
AcDbArc
 50
208.6829815593726
 51
151.3170184406274
  0
ARC
  5
20B1
102
{ACAD_REACTORS
330
20A6
102
}
330
1A06
100
AcDbEntity
  8
針
100
AcDbCircle
 10
6.666575673487614
 20
0.4559647924756405
 30
0.0
 40
0.2
100
AcDbArc
 50
267.3904365189468
 51
331.3170184406275
  0
ARC
  5
20B2
102
{ACAD_REACTORS
330
20A6
102
}
330
1A06
100
AcDbEntity
  8
針
100
AcDbCircle
 10
6.666575673487614
 20
-0.4559647924756405
 30
0.0
 40
0.2
100
AcDbArc
 50
28.68298155937256
 51
92.60956348105315
  0
CIRCLE
  5
20B3
102
{ACAD_REACTORS
330
20A6
102
}
330
1A06
100
AcDbEntity
  8
外形線
100
AcDbCircle
 10
0.0
 20
0.0
 30
0.0
 40
1.5
  0
CIRCLE
  5
20B4
330
1A06
100
AcDbEntity
  8
外形線
 62
     4
100
AcDbCircle
 10
0.0
 20
0.0
 30
0.0
 40
0.25
  0
ENDBLK
  5
1A19
330
1A06
100
AcDbEntity
  8
0
100
AcDbBlockEnd
  0
ENDSEC
  0
SECTION
  2
ENTITIES
  0
LWPOLYLINE
  5
10B
330
18
100
AcDbEntity
  8
C
100
AcDbPolyline
 90
        5
 70
     0
 43
0.4
 10
236.6915604445414
 20
366.8501752555372
 10
491.6915604445414
 20
366.8501752555372
 10
491.6915604445414
 20
171.8501752555372
 10
236.6915604445414
 20
171.8501752555372
 10
236.6915604445414
 20
366.8501752555372
  0
LINE
  5
16B
330
18
100
AcDbEntity
  8
中心線
 48
0.5
100
AcDbLine
 10
418.9845126464322
 20
246.6113125715176
 30
0.0
 11
418.9845126464322
 21
217.4721675497912
 31
0.0
  0
LINE
  5
16C
330
18
100
AcDbEntity
  8
外形線
100
AcDbLine
 10
415.7345126464321
 20
319.2174963632898
 30
0.0
 11
421.7345126464322
 21
319.2174963632898
 31
0.0
  0
LINE
  5
16E
330
18
100
AcDbEntity
  8
外形線
100
AcDbLine
 10
421.7345126464322
 20
319.2174963632898
 30
0.0
 11
421.7345126464322
 21
304.0713439405832
 31
0.0
  0
LINE
  5
16F
330
18
100
AcDbEntity
  8
外形線
100
AcDbLine
 10
415.7345126464321
 20
319.2174963632898
 30
0.0
 11
415.7345126464322
 21
304.0713439405832
 31
0.0
  0
ARC
  5
170
330
18
100
AcDbEntity
  8
外形線
100
AcDbCircle
 10
418.7345126464322
 20
314.0213439405832
 30
0.0
 40
6.0
100
AcDbArc
 50
60.0
 51
120.0
  0
LINE
  5
17D
330
18
100
AcDbEntity
  8
中心線
 48
0.5
100
AcDbLine
 10
415.23590783011
 20
221.0213439405832
 30
0.0
 11
423.1155612458208
 21
221.0213439405832
 31
0.0
  0
LINE
  5
305
330
18
100
AcDbEntity
  8
中心線
 48
0.5
100
AcDbLine
 10
402.4237341607604
 20
279.9213439405833
 30
0.0
 11
425.7497991114396
 21
279.9213439405833
 31
0.0
  0
CIRCLE
  5
307
330
18
100
AcDbEntity
  8
外形線
100
AcDbCircle
 10
347.3067945684834
 20
279.9213439405833
 30
0.0
 40
15.0
  0
LINE
  5
30A
330
18
100
AcDbEntity
  8
目盛
100
AcDbLine
 10
347.3067945684834
 20
294.9213439405832
 30
0.0
 11
347.3067945684834
 21
292.4213439405832
 31
0.0
  0
LINE
  5
30B
330
18
100
AcDbEntity
  8
目盛
100
AcDbLine
 10
349.186793071948
 20
294.8030644603004
 30
0.0
 11
348.9987932216016
 21
293.3148924083287
 31
0.0
  0
LINE
  5
30C
330
18
100
AcDbEntity
  8
目盛
100
AcDbLine
 10
351.0371428759563
 20
294.4500913575128
 30
0.0
 11
350.664108045209
 21
292.9972166158198
 31
0.0
  0
LINE
  5
30D
330
18
100
AcDbEntity
  8
目盛
100
AcDbLine
 10
352.8286628587536
 20
293.8679912289071
 30
0.0
 11
352.2764760297266
 21
292.4733265000746
 31
0.0
  0
LINE
  5
30E
330
18
100
AcDbEntity
  8
目盛
100
AcDbLine
 10
354.5330996800092
 20
293.0659441412412
 30
0.0
 11
353.8104691688566
 21
291.7514841211754
 31
0.0
  0
LINE
  5
322
330
18
100
AcDbEntity
  8
目盛
100
AcDbLine
 10
340.0804894569577
 20
293.0659441412412
 30
0.0
 11
340.8031199681104
 21
291.7514841211754
 31
0.0
  0
LINE
  5
323
330
18
100
AcDbEntity
  8
目盛
100
AcDbLine
 10
341.7849262782133
 20
293.867991228907
 30
0.0
 11
342.3371131072403
 21
292.4733265000746
 31
0.0
  0
LINE
  5
324
330
18
100
AcDbEntity
  8
目盛
100
AcDbLine
 10
343.5764462610106
 20
294.4500913575127
 30
0.0
 11
343.949481091758
 21
292.9972166158198
 31
0.0
  0
LINE
  5
325
330
18
100
AcDbEntity
  8
目盛
100
AcDbLine
 10
338.4900157840963
 20
292.0565988562074
 30
0.0
 11
339.9594789148276
 21
290.03405637027
 31
0.0
  0
LINE
  5
326
330
18
100
AcDbEntity
  8
目盛
100
AcDbLine
 10
345.4267960650189
 20
294.8030644603004
 30
0.0
 11
345.6147959153653
 21
293.3148924083287
 31
0.0
  0
LINE
  5
327
330
18
100
AcDbEntity
  8
目盛
100
AcDbLine
 10
333.7343887814931
 20
286.3080333140593
 30
0.0
 11
335.0916293601922
 21
285.6693643767118
 31
0.0
  0
LINE
  5
328
330
18
100
AcDbEntity
  8
目盛
100
AcDbLine
 10
334.6418756859531
 20
287.9587458652682
 30
0.0
 11
335.9083675742062
 21
287.1550056727997
 31
0.0
  0
LINE
  5
329
330
18
100
AcDbEntity
  8
目盛
100
AcDbLine
 10
335.7490959268466
 20
289.4827037868136
 30
0.0
 11
336.9048657910103
 21
288.5265678021905
 31
0.0
  0
LINE
  5
32A
330
18
100
AcDbEntity
  8
目盛
100
AcDbLine
 10
333.0409468240562
 20
284.5565988562075
 30
0.0
 11
335.4185881147941
 21
283.7840563702701
 31
0.0
  0
LINE
  5
32B
330
18
100
AcDbEntity
  8
目盛
100
AcDbLine
 10
337.0385879795531
 20
290.8558733519044
 30
0.0
 11
338.0654086384462
 21
289.7624204107723
 31
0.0
  0
LINE
  5
32C
330
18
100
AcDbEntity
  8
目盛
100
AcDbLine
 10
332.5724858075531
 20
277.1106242217974
 30
0.0
 11
334.0459166836461
 21
277.3916961936761
 31
0.0
  0
LINE
  5
32D
330
18
100
AcDbEntity
  8
目盛
100
AcDbLine
 10
332.3363936420594
 20
278.9794861476436
 30
0.0
 11
333.8334337347018
 21
279.0736719269375
 31
0.0
  0
LINE
  5
32E
330
18
100
AcDbEntity
  8
目盛
100
AcDbLine
 10
332.3363936420594
 20
280.8632017335229
 30
0.0
 11
333.8334337347018
 21
280.7690159542291
 31
0.0
  0
LINE
  5
32F
330
18
100
AcDbEntity
  8
目盛
100
AcDbLine
 10
333.0409468240561
 20
275.2860890249591
 30
0.0
 11
335.418588114794
 21
276.0586315108964
 31
0.0
  0
LINE
  5
330
330
18
100
AcDbEntity
  8
目盛
100
AcDbLine
 10
332.5724858075531
 20
282.7320636593691
 30
0.0
 11
334.0459166836461
 21
282.4509916874905
 31
0.0
  0
LINE
  5
331
330
18
100
AcDbEntity
  8
目盛
100
AcDbLine
 10
337.0385879795531
 20
268.9868145292621
 30
0.0
 11
338.0654086384461
 21
270.0802674703942
 31
0.0
  0
LINE
  5
332
330
18
100
AcDbEntity
  8
目盛
100
AcDbLine
 10
335.7490959268466
 20
270.3599840943529
 30
0.0
 11
336.9048657910103
 21
271.316120078976
 31
0.0
  0
LINE
  5
333
330
18
100
AcDbEntity
  8
目盛
100
AcDbLine
 10
334.6418756859531
 20
271.8839420158983
 30
0.0
 11
335.9083675742062
 21
272.6876822083668
 31
0.0
  0
LINE
  5
334
330
18
100
AcDbEntity
  8
目盛
100
AcDbLine
 10
338.4900157840963
 20
267.7860890249591
 30
0.0
 11
339.9594789148275
 21
269.8086315108965
 31
0.0
  0
LINE
  5
335
330
18
100
AcDbEntity
  8
目盛
100
AcDbLine
 10
333.7343887814931
 20
273.5346545671072
 30
0.0
 11
335.0916293601922
 21
274.1733235044548
 31
0.0
  0
LINE
  5
336
330
18
100
AcDbEntity
  8
目盛
100
AcDbLine
 10
345.4267960650188
 20
265.0396234208661
 30
0.0
 11
345.6147959153652
 21
266.5277954728379
 31
0.0
  0
LINE
  5
337
330
18
100
AcDbEntity
  8
目盛
100
AcDbLine
 10
343.5764462610106
 20
265.3925965236538
 30
0.0
 11
343.9494810917578
 21
266.8454712653468
 31
0.0
  0
LINE
  5
338
330
18
100
AcDbEntity
  8
目盛
100
AcDbLine
 10
341.7849262782132
 20
265.9746966522595
 30
0.0
 11
342.3371131072402
 21
267.3693613810919
 31
0.0
  0
LINE
  5
339
330
18
100
AcDbEntity
  8
目盛
100
AcDbLine
 10
347.3067945684834
 20
264.9213439405833
 30
0.0
 11
347.3067945684834
 21
267.4213439405833
 31
0.0
  0
LINE
  5
33A
330
18
100
AcDbEntity
  8
目盛
100
AcDbLine
 10
340.0804894569577
 20
266.7767437399253
 30
0.0
 11
340.8031199681103
 21
268.0912037599912
 31
0.0
  0
LINE
  5
33B
330
18
100
AcDbEntity
  8
目盛
100
AcDbLine
 10
354.5330996800093
 20
266.7767437399253
 30
0.0
 11
353.8104691688566
 21
268.0912037599911
 31
0.0
  0
LINE
  5
33C
330
18
100
AcDbEntity
  8
目盛
100
AcDbLine
 10
352.8286628587536
 20
265.9746966522595
 30
0.0
 11
352.2764760297266
 21
267.3693613810919
 31
0.0
  0
LINE
  5
33D
330
18
100
AcDbEntity
  8
目盛
100
AcDbLine
 10
351.0371428759563
 20
265.3925965236538
 30
0.0
 11
350.6641080452089
 21
266.8454712653467
 31
0.0
  0
LINE
  5
33E
330
18
100
AcDbEntity
  8
目盛
100
AcDbLine
 10
356.1235733528706
 20
267.7860890249591
 30
0.0
 11
354.6541102221393
 21
269.8086315108965
 31
0.0
  0
LINE
  5
33F
330
18
100
AcDbEntity
  8
目盛
100
AcDbLine
 10
349.186793071948
 20
265.0396234208661
 30
0.0
 11
348.9987932216016
 21
266.5277954728379
 31
0.0
  0
LINE
  5
340
330
18
100
AcDbEntity
  8
目盛
100
AcDbLine
 10
360.8792003554737
 20
273.5346545671072
 30
0.0
 11
359.5219597767746
 21
274.1733235044547
 31
0.0
  0
LINE
  5
341
330
18
100
AcDbEntity
  8
目盛
100
AcDbLine
 10
359.9717134510137
 20
271.8839420158984
 30
0.0
 11
358.7052215627606
 21
272.6876822083668
 31
0.0
  0
LINE
  5
342
330
18
100
AcDbEntity
  8
目盛
100
AcDbLine
 10
358.8644932101203
 20
270.359984094353
 30
0.0
 11
357.7087233459565
 21
271.316120078976
 31
0.0
  0
LINE
  5
343
330
18
100
AcDbEntity
  8
目盛
100
AcDbLine
 10
361.5726423129107
 20
275.2860890249591
 30
0.0
 11
359.1950010221728
 21
276.0586315108964
 31
0.0
  0
LINE
  5
344
330
18
100
AcDbEntity
  8
目盛
100
AcDbLine
 10
357.5750011574137
 20
268.9868145292621
 30
0.0
 11
356.5481804985207
 21
270.0802674703942
 31
0.0
  0
LINE
  5
345
330
18
100
AcDbEntity
  8
目盛
100
AcDbLine
 10
362.0411033294138
 20
282.7320636593691
 30
0.0
 11
360.5676724533207
 21
282.4509916874904
 31
0.0
  0
LINE
  5
346
330
18
100
AcDbEntity
  8
目盛
100
AcDbLine
 10
362.2771954949075
 20
280.8632017335229
 30
0.0
 11
360.7801554022651
 21
280.7690159542289
 31
0.0
  0
LINE
  5
347
330
18
100
AcDbEntity
  8
目盛
100
AcDbLine
 10
362.2771954949075
 20
278.9794861476435
 30
0.0
 11
360.7801554022651
 21
279.0736719269375
 31
0.0
  0
LINE
  5
348
330
18
100
AcDbEntity
  8
目盛
100
AcDbLine
 10
361.5726423129108
 20
284.5565988562075
 30
0.0
 11
359.1950010221729
 21
283.7840563702701
 31
0.0
  0
LINE
  5
349
330
18
100
AcDbEntity
  8
目盛
100
AcDbLine
 10
362.0411033294138
 20
277.1106242217974
 30
0.0
 11
360.5676724533207
 21
277.391696193676
 31
0.0
  0
LINE
  5
34A
330
18
100
AcDbEntity
  8
目盛
100
AcDbLine
 10
357.5750011574138
 20
290.8558733519044
 30
0.0
 11
356.5481804985207
 21
289.7624204107723
 31
0.0
  0
LINE
  5
34B
330
18
100
AcDbEntity
  8
目盛
100
AcDbLine
 10
358.8644932101203
 20
289.4827037868136
 30
0.0
 11
357.7087233459566
 21
288.5265678021905
 31
0.0
  0
LINE
  5
34C
330
18
100
AcDbEntity
  8
目盛
100
AcDbLine
 10
359.9717134510137
 20
287.9587458652682
 30
0.0
 11
358.7052215627606
 21
287.1550056727997
 31
0.0
  0
LINE
  5
34D
330
18
100
AcDbEntity
  8
目盛
100
AcDbLine
 10
356.1235733528705
 20
292.0565988562075
 30
0.0
 11
354.6541102221393
 21
290.0340563702701
 31
0.0
  0
LINE
  5
34E
330
18
100
AcDbEntity
  8
目盛
100
AcDbLine
 10
360.8792003554738
 20
286.3080333140593
 30
0.0
 11
359.5219597767747
 21
285.6693643767118
 31
0.0
  0
TEXT
  5
351
330
18
100
AcDbEntity
  8
文字
100
AcDbText
 10
346.5063855552123
 20
290.1934151757035
 30
0.0
 40
1.8
  1
0
  7
STYLE3
100
AcDbText
  0
TEXT
  5
352
330
18
100
AcDbEntity
  8
文字
100
AcDbText
 10
353.0462912525617
 20
287.8813365085396
 30
0.0
 40
1.8
  1
5
  7
STYLE3
100
AcDbText
  0
TEXT
  5
353
330
18
100
AcDbEntity
  8
文字
100
AcDbText
 10
355.6360831655508
 20
282.2887284538191
 30
0.0
 40
1.8
  1
10
  7
STYLE3
100
AcDbText
  0
TEXT
  5
354
330
18
100
AcDbEntity
  8
文字
100
AcDbText
 10
355.5446082147175
 20
275.5761987217068
 30
0.0
 40
1.8
  1
15
  7
STYLE3
100
AcDbText
  0
TEXT
  5
355
330
18
100
AcDbEntity
  8
文字
100
AcDbText
 10
352.180690020807
 20
270.6367484615114
 30
0.0
 40
1.8
  1
20
  7
STYLE3
100
AcDbText
  0
TEXT
  5
356
330
18
100
AcDbEntity
  8
文字
100
AcDbText
 10
345.6082346639931
 20
267.8964179751949
 30
0.0
 40
1.8
  1
25
  7
STYLE3
100
AcDbText
  0
TEXT
  5
357
330
18
100
AcDbEntity
  8
文字
100
AcDbText
 10
339.449996854401
 20
270.5513377659088
 30
0.0
 40
1.8
  1
20
  7
STYLE3
100
AcDbText
  0
TEXT
  5
358
330
18
100
AcDbEntity
  8
文字
100
AcDbText
 10
335.124208659259
 20
275.6230964436929
 30
0.0
 40
1.8
  1
15
  7
STYLE3
100
AcDbText
  0
TEXT
  5
359
330
18
100
AcDbEntity
  8
文字
100
AcDbText
 10
335.3962366024372
 20
282.7554932465881
 30
0.0
 40
1.8
  1
10
  7
STYLE3
100
AcDbText
  0
TEXT
  5
35A
330
18
100
AcDbEntity
  8
文字
100
AcDbText
 10
340.0941010358139
 20
288.0882751009837
 30
0.0
 40
1.8
  1
5
  7
STYLE3
100
AcDbText
  0
TEXT
  5
35E
330
18
100
AcDbEntity
  8
文字
100
AcDbText
 10
350.9615932121322
 20
279.5120041560081
 30
0.0
 40
0.8
  1
0.01mm
  7
STYLE3
100
AcDbText
  0
TEXT
  5
35F
330
18
100
AcDbEntity
  8
文字
100
AcDbText
 10
340.3663600837411
 20
279.5472928913338
 30
0.0
 40
0.8
  1
Jeweled
  7
STYLE3
100
AcDbText
  0
TEXT
  5
363
330
18
100
AcDbEntity
  8
文字
100
AcDbText
 10
344.7810401526805
 20
274.8892275982024
 30
0.0
 40
1.0
  1
PC-3
  7
STYLE3
100
AcDbText
  0
TEXT
  5
368
330
18
100
AcDbEntity
  8
文字
100
AcDbText
 10
343.8627871605507
 20
282.9349759964186
 30
0.0
 40
1.0
  1
PIC-TEST
  7
STYLE3
100
AcDbText
  0
INSERT
  5
B43
330
18
100
AcDbEntity
  8
文字
100
AcDbBlockReference
  2
ROGO1
 10
301.1334577592202
 20
275.1168679656769
 30
0.0
  0
INSERT
  5
B44
330
18
100
AcDbEntity
  8
文字
100
AcDbBlockReference
  2
ROGO1
 10
301.1095809474122
 20
275.1436630917189
 30
0.0
  0
LINE
  5
BF9
330
18
100
AcDbEntity
  8
外形線
100
AcDbLine
 10
420.2345126464322
 20
239.2213439405832
 30
0.0
 11
417.7345126464322
 21
239.2213439405832
 31
0.0
  0
LINE
  5
BFE
330
18
100
AcDbEntity
  8
外形線
 62
     4
100
AcDbLine
 10
419.7148974041617
 20
237.4213439405831
 30
0.0
 11
418.2541278887028
 21
237.4213439405831
 31
0.0
  0
LINE
  5
BFF
330
18
100
AcDbEntity
  8
外形線
100
AcDbLine
 10
420.2345126464321
 20
237.1213439405833
 30
0.0
 11
417.7345126464322
 21
237.1213439405832
 31
0.0
  0
LINE
  5
C00
330
18
100
AcDbEntity
  8
外形線
100
AcDbLine
 10
420.2345126464321
 20
237.7213439405832
 30
0.0
 11
417.7345126464322
 21
237.7213439405832
 31
0.0
  0
LINE
  5
C01
330
18
100
AcDbEntity
  8
外形線
100
AcDbLine
 10
420.2345126464321
 20
236.2213439405832
 30
0.0
 11
417.7345126464322
 21
236.2213439405832
 31
0.0
  0
LINE
  5
C02
330
18
100
AcDbEntity
  8
外形線
100
AcDbLine
 10
419.5856493063533
 20
221.8213439405833
 30
0.0
 11
418.383375986511
 21
221.8213439405833
 31
0.0
  0
LINE
  5
C06
330
18
100
AcDbEntity
  8
外形線
100
AcDbLine
 10
420.2345126464321
 20
239.1213439405833
 30
0.0
 11
420.2345126464321
 21
237.7213439405831
 31
0.0
  0
LINE
  5
C07
330
18
100
AcDbEntity
  8
外形線
100
AcDbLine
 10
417.7345126464322
 20
239.1213439405832
 30
0.0
 11
417.7345126464322
 21
237.7213439405833
 31
0.0
  0
LINE
  5
C09
330
18
100
AcDbEntity
  8
外形線
100
AcDbLine
 10
417.7345126464322
 20
239.1213439405832
 30
0.0
 11
417.8345126464321
 21
239.2213439405832
 31
0.0
  0
LINE
  5
C0A
330
18
100
AcDbEntity
  8
外形線
100
AcDbLine
 10
420.1345126464322
 20
239.2213439405832
 30
0.0
 11
420.2345126464321
 21
239.1213439405833
 31
0.0
  0
LINE
  5
C0B
330
18
100
AcDbEntity
  8
外形線
100
AcDbLine
 10
417.7345126464322
 20
237.1213439405832
 30
0.0
 11
417.7345126464322
 21
236.2213439405832
 31
0.0
  0
LINE
  5
C0C
330
18
100
AcDbEntity
  8
外形線
100
AcDbLine
 10
420.2345126464321
 20
237.1213439405833
 30
0.0
 11
420.2345126464321
 21
236.2213439405832
 31
0.0
  0
LINE
  5
C0D
330
18
100
AcDbEntity
  8
外形線
100
AcDbLine
 10
417.7345126464322
 20
237.7213439405833
 30
0.0
 11
418.2541278887029
 21
237.4213439405833
 31
0.0
  0
LINE
  5
C0E
330
18
100
AcDbEntity
  8
外形線
100
AcDbLine
 10
417.7345126464322
 20
237.1213439405832
 30
0.0
 11
418.2541278887028
 21
237.4213439405833
 31
0.0
  0
LINE
  5
C0F
330
18
100
AcDbEntity
  8
外形線
100
AcDbLine
 10
420.2345126464321
 20
237.1213439405832
 30
0.0
 11
419.7148974041615
 21
237.4213439405833
 31
0.0
  0
LINE
  5
C10
330
18
100
AcDbEntity
  8
外形線
100
AcDbLine
 10
420.2345126464321
 20
237.7213439405832
 30
0.0
 11
419.7148974041614
 21
237.4213439405833
 31
0.0
  0
LINE
  5
C11
330
18
100
AcDbEntity
  8
外形線
 62
     4
100
AcDbLine
 10
420.2345126464321
 20
239.1213439405833
 30
0.0
 11
417.7345126464322
 21
239.1213439405832
 31
0.0
  0
LINE
  5
C12
330
18
100
AcDbEntity
  8
外形線
100
AcDbLine
 10
417.7345126464322
 20
236.2213439405832
 30
0.0
 11
418.383375986511
 21
221.8213439405833
 31
0.0
  0
LINE
  5
C13
330
18
100
AcDbEntity
  8
外形線
100
AcDbLine
 10
420.2345126464321
 20
236.2213439405832
 30
0.0
 11
419.5856493063534
 21
221.8213439405833
 31
0.0
  0
ARC
  5
C14
330
18
100
AcDbEntity
  8
外形線
100
AcDbCircle
 10
418.9845126464322
 20
221.0213439405832
 30
0.0
 40
1.0
100
AcDbArc
 50
126.869897645842
 51
53.13010235415791
  0
LINE
  5
C24
330
18
100
AcDbEntity
  8
隠れ線
 62
     4
 48
0.3
100
AcDbLine
 10
418.9845126464322
 20
222.0213439405832
 30
0.0
 11
419.5856493063534
 21
221.8213439405833
 31
0.0
  0
LINE
  5
C25
330
18
100
AcDbEntity
  8
隠れ線
 62
     4
 48
0.3
100
AcDbLine
 10
418.9845126464322
 20
222.0213439405832
 30
0.0
 11
418.383375986511
 21
221.8213439405833
 31
0.0
  0
LINE
  5
C4D
330
18
100
AcDbEntity
  8
中心線
 48
0.5
100
AcDbLine
 10
411.6149871705645
 20
242.4213439405832
 30
0.0
 11
425.9339049798748
 21
242.4213439405832
 31
0.0
  0
LINE
  5
C56
330
18
100
AcDbEntity
  8
外形線
100
AcDbLine
 10
420.7457750897026
 20
302.4213439405833
 30
0.0
 11
421.7345126464323
 21
304.0713439405832
 31
0.0
  0
LINE
  5
C57
330
18
100
AcDbEntity
  8
外形線
100
AcDbLine
 10
416.7232502031622
 20
302.4213439405834
 30
0.0
 11
415.734512646432
 21
304.0713439405832
 31
0.0
  0
LINE
  5
C88
330
18
100
AcDbEntity
  8
外形線
100
AcDbLine
 10
422.2845126464322
 20
238.9213439405832
 30
0.0
 11
420.5845126464321
 21
238.9213439405832
 31
0.0
  0
LINE
  5
CAF
330
18
100
AcDbEntity
  8
外形線
100
AcDbLine
 10
417.2345126464321
 20
245.3983135412917
 30
0.0
 11
417.2345126464322
 21
239.7213439405832
 31
0.0
  0
LINE
  5
CB0
330
18
100
AcDbEntity
  8
外形線
100
AcDbLine
 10
417.7345126464322
 20
245.4213439405832
 30
0.0
 11
417.7345126464322
 21
239.2213439405832
 31
0.0
  0
LINE
  5
CB2
330
18
100
AcDbEntity
  8
外形線
100
AcDbLine
 10
417.2345126464322
 20
239.7213439405832
 30
0.0
 11
417.7345126464322
 21
239.7213439405832
 31
0.0
  0
INSERT
  5
FCB
330
18
100
AcDbEntity
  8
文字
100
AcDbBlockReference
  2
ROGO1
 10
579.0605083803766
 20
282.754069537204
 30
0.0
  0
INSERT
  5
FCC
330
18
100
AcDbEntity
  8
文字
100
AcDbBlockReference
  2
ROGO1
 10
579.0366315685687
 20
282.780864663246
 30
0.0
  0
LINE
  5
1249
330
18
100
AcDbEntity
  8
外形線
100
AcDbLine
 10
350.3067945684835
 20
319.2674963632899
 30
0.0
 11
350.3067945684835
 21
304.0713439405832
 31
0.0
  0
LINE
  5
124A
330
18
100
AcDbEntity
  8
外形線
100
AcDbLine
 10
344.3067945684834
 20
319.2674963632899
 30
0.0
 11
344.3067945684834
 21
304.0713439405832
 31
0.0
  0
LINE
  5
1253
330
18
100
AcDbEntity
  8
外形線
100
AcDbLine
 10
344.3067945684834
 20
304.0713439405832
 30
0.0
 11
350.3067945684835
 21
304.0713439405832
 31
0.0
  0
LINE
  5
1259
330
18
100
AcDbEntity
  8
外形線
100
AcDbLine
 10
344.3067945684834
 20
319.2674963632899
 30
0.0
 11
350.3067945684835
 21
319.2674963632899
 31
0.0
  0
ARC
  5
125A
330
18
100
AcDbEntity
  8
外形線
100
AcDbCircle
 10
347.3067945684834
 20
314.0713439405832
 30
0.0
 40
6.0
100
AcDbArc
 50
60.0
 51
120.0
  0
LINE
  5
12CA
330
18
100
AcDbEntity
  8
外形線
100
AcDbLine
 10
408.048254615025
 20
297.4213439405833
 30
0.0
 11
411.1982546150249
 21
297.4213439405833
 31
0.0
  0
LINE
  5
12CC
330
18
100
AcDbEntity
  8
外形線
100
AcDbLine
 10
407.8482546150251
 20
297.2213439405834
 30
0.0
 11
407.8482546150249
 21
262.6213439405835
 31
0.0
  0
LINE
  5
12CD
330
18
100
AcDbEntity
  8
外形線
100
AcDbLine
 10
411.5482546150251
 20
297.0713439405832
 30
0.0
 11
411.548254615025
 21
262.7713439405834
 31
0.0
  0
LINE
  5
12CE
330
18
100
AcDbEntity
  8
外形線
100
AcDbLine
 10
412.548254615025
 20
297.0713439405833
 30
0.0
 11
412.548254615025
 21
262.7713439405833
 31
0.0
  0
LINE
  5
12CF
330
18
100
AcDbEntity
  8
外形線
 48
0.5
100
AcDbLine
 10
407.848254615025
 20
297.2213439405834
 30
0.0
 11
408.048254615025
 21
297.4213439405833
 31
0.0
  0
LINE
  5
12D0
330
18
100
AcDbEntity
  8
外形線
100
AcDbLine
 10
411.1982546150249
 20
297.4213439405833
 30
0.0
 11
411.548254615025
 21
297.0713439405833
 31
0.0
  0
LINE
  5
12EF
330
18
100
AcDbEntity
  8
外形線
100
AcDbLine
 10
411.1982546150249
 20
262.4213439405833
 30
0.0
 11
411.548254615025
 21
262.7713439405833
 31
0.0
  0
LINE
  5
12F0
330
18
100
AcDbEntity
  8
外形線
 48
0.5
100
AcDbLine
 10
407.848254615025
 20
262.6213439405833
 30
0.0
 11
408.048254615025
 21
262.4213439405833
 31
0.0
  0
LINE
  5
12F1
330
18
100
AcDbEntity
  8
外形線
100
AcDbLine
 10
408.048254615025
 20
262.4213439405833
 30
0.0
 11
411.1982546150249
 21
262.4213439405833
 31
0.0
  0
LINE
  5
12F5
330
18
100
AcDbEntity
  8
外形線
100
AcDbLine
 10
407.348254615025
 20
296.4213439405833
 30
0.0
 11
407.348254615025
 21
263.4213439405834
 31
0.0
  0
LINE
  5
12FF
330
18
100
AcDbEntity
  8
外形線
100
AcDbLine
 10
411.548254615025
 20
297.0713439405832
 30
0.0
 11
412.548254615025
 21
297.0713439405833
 31
0.0
  0
LINE
  5
1300
330
18
100
AcDbEntity
  8
外形線
100
AcDbLine
 10
411.548254615025
 20
262.7713439405833
 30
0.0
 11
412.548254615025
 21
262.7713439405833
 31
0.0
  0
LINE
  5
1308
330
18
100
AcDbEntity
  8
外形線
100
AcDbLine
 10
407.348254615025
 20
296.4213439405833
 30
0.0
 11
407.8482546150251
 21
296.9213439405833
 31
0.0
  0
LINE
  5
1309
330
18
100
AcDbEntity
  8
外形線
100
AcDbLine
 10
407.348254615025
 20
263.4213439405833
 30
0.0
 11
407.8482546150251
 21
262.9213439405833
 31
0.0
  0
LINE
  5
1312
330
18
100
AcDbEntity
  8
外形線
100
AcDbLine
 10
407.8482546150251
 20
296.7213439405833
 30
0.0
 11
411.548254615025
 21
296.7213439405833
 31
0.0
  0
LINE
  5
1313
330
18
100
AcDbEntity
  8
外形線
100
AcDbLine
 10
407.8482546150251
 20
296.0213439405833
 30
0.0
 11
411.548254615025
 21
296.0213439405833
 31
0.0
  0
LINE
  5
1314
330
18
100
AcDbEntity
  8
外形線
100
AcDbLine
 10
407.8482546150251
 20
295.2213439405833
 30
0.0
 11
411.548254615025
 21
295.2213439405833
 31
0.0
  0
LINE
  5
1315
330
18
100
AcDbEntity
  8
外形線
100
AcDbLine
 10
407.8482546150251
 20
294.4213439405833
 30
0.0
 11
411.548254615025
 21
294.4213439405833
 31
0.0
  0
LINE
  5
1316
330
18
100
AcDbEntity
  8
外形線
100
AcDbLine
 10
407.8482546150251
 20
293.5213439405833
 30
0.0
 11
411.548254615025
 21
293.5213439405833
 31
0.0
  0
LINE
  5
1328
330
18
100
AcDbEntity
  8
外形線
100
AcDbLine
 10
407.848254615025
 20
280.6213439405833
 30
0.0
 11
411.548254615025
 21
280.6213439405833
 31
0.0
  0
LINE
  5
1329
330
18
100
AcDbEntity
  8
外形線
100
AcDbLine
 10
407.848254615025
 20
279.2213439405833
 30
0.0
 11
411.548254615025
 21
279.2213439405833
 31
0.0
  0
LINE
  5
132A
330
18
100
AcDbEntity
  8
外形線
100
AcDbLine
 10
407.848254615025
 20
281.4213439405833
 30
0.0
 11
411.548254615025
 21
281.4213439405833
 31
0.0
  0
LINE
  5
132B
330
18
100
AcDbEntity
  8
外形線
100
AcDbLine
 10
407.848254615025
 20
278.4213439405833
 30
0.0
 11
411.548254615025
 21
278.4213439405833
 31
0.0
  0
LINE
  5
132C
330
18
100
AcDbEntity
  8
外形線
100
AcDbLine
 10
407.8482546150249
 20
279.9213439405833
 30
0.0
 11
411.5482546150249
 21
279.9213439405833
 31
0.0
  0
LINE
  5
132D
330
18
100
AcDbEntity
  8
外形線
100
AcDbLine
 10
407.8482546150251
 20
266.3213439405833
 30
0.0
 11
411.548254615025
 21
266.3213439405833
 31
0.0
  0
LINE
  5
132E
330
18
100
AcDbEntity
  8
外形線
100
AcDbLine
 10
407.8482546150251
 20
265.4213439405833
 30
0.0
 11
411.548254615025
 21
265.4213439405833
 31
0.0
  0
LINE
  5
132F
330
18
100
AcDbEntity
  8
外形線
100
AcDbLine
 10
407.8482546150251
 20
264.6213439405833
 30
0.0
 11
411.548254615025
 21
264.6213439405833
 31
0.0
  0
LINE
  5
1330
330
18
100
AcDbEntity
  8
外形線
100
AcDbLine
 10
407.8482546150251
 20
263.8213439405833
 30
0.0
 11
411.548254615025
 21
263.8213439405833
 31
0.0
  0
LINE
  5
1331
330
18
100
AcDbEntity
  8
外形線
100
AcDbLine
 10
407.8482546150251
 20
263.1213439405833
 30
0.0
 11
411.548254615025
 21
263.1213439405833
 31
0.0
  0
LINE
  5
1336
330
18
100
AcDbEntity
  8
外形線
100
AcDbLine
 10
412.548254615025
 20
294.9213439405833
 30
0.0
 11
413.0482546150251
 21
294.9213439405833
 31
0.0
  0
ARC
  5
1337
330
18
100
AcDbEntity
  8
外形線
100
AcDbCircle
 10
413.0482546150251
 20
293.9213439405833
 30
0.0
 40
1.0
100
AcDbArc
 50
20.5676516053971
 51
90.0
  0
ARC
  5
1338
330
18
100
AcDbEntity
  8
外形線
100
AcDbCircle
 10
413.0482546150251
 20
265.9213439405833
 30
0.0
 40
1.0
100
AcDbArc
 50
270.0
 51
339.4323483946029
  0
LINE
  5
1339
330
18
100
AcDbEntity
  8
外形線
100
AcDbLine
 10
412.548254615025
 20
264.9213439405833
 30
0.0
 11
413.0482546150251
 21
264.9213439405833
 31
0.0
  0
ARC
  5
133C
330
18
100
AcDbEntity
  8
外形線
100
AcDbCircle
 10
467.3635442310093
 20
279.9213439405833
 30
0.0
 40
62.37903158457702
100
AcDbArc
 50
166.4545064755762
 51
193.5454935244236
  0
LINE
  5
1343
330
18
100
AcDbEntity
  8
外形線
100
AcDbLine
 10
407.2057239771358
 20
294.9144875660262
 30
0.0
 11
407.3482546150249
 21
294.9144875660262
 31
0.0
  0
ARC
  5
1345
330
18
100
AcDbEntity
  8
外形線
100
AcDbCircle
 10
407.2057239771358
 20
294.4144875660261
 30
0.0
 40
0.5
100
AcDbArc
 50
89.99999999999349
 51
166.4545064755751
  0
ARC
  5
1346
330
18
100
AcDbEntity
  8
外形線
100
AcDbCircle
 10
407.2057239771358
 20
265.4282003151406
 30
0.0
 40
0.5
100
AcDbArc
 50
193.5454935244249
 51
270.0000000000065
  0
LINE
  5
1347
330
18
100
AcDbEntity
  8
外形線
100
AcDbLine
 10
407.2057239771358
 20
264.9282003151405
 30
0.0
 11
407.3482546150249
 21
264.9282003151405
 31
0.0
  0
LINE
  5
1348
330
18
100
AcDbEntity
  8
外形線
100
AcDbLine
 10
416.8845126464321
 20
242.9213439405832
 30
0.0
 11
417.2345126464322
 21
242.9213439405832
 31
0.0
  0
LINE
  5
1349
330
18
100
AcDbEntity
  8
外形線
100
AcDbLine
 10
416.8845126464321
 20
241.9213439405832
 30
0.0
 11
417.2345126464322
 21
241.9213439405832
 31
0.0
  0
LINE
  5
134A
330
18
100
AcDbEntity
  8
外形線
100
AcDbLine
 10
420.2345126464322
 20
242.9213439405832
 30
0.0
 11
420.584512646432
 21
242.9213439405832
 31
0.0
  0
LINE
  5
134B
330
18
100
AcDbEntity
  8
外形線
100
AcDbLine
 10
420.2345126464321
 20
241.9213439405832
 30
0.0
 11
420.584512646432
 21
241.9213439405832
 31
0.0
  0
LINE
  5
138E
330
18
100
AcDbEntity
  8
外形線
100
AcDbLine
 10
423.2345126464323
 20
245.4213439405832
 30
0.0
 11
423.2345126464323
 21
239.4213439405833
 31
0.0
  0
LINE
  5
138F
330
18
100
AcDbEntity
  8
外形線
100
AcDbLine
 10
423.7345126464322
 20
244.4213439405832
 30
0.0
 11
423.7345126464322
 21
240.4213439405832
 31
0.0
  0
LINE
  5
1390
330
18
100
AcDbEntity
  8
外形線
100
AcDbLine
 10
422.2845126464322
 20
239.4213439405832
 30
0.0
 11
423.2345126464323
 21
239.4213439405833
 31
0.0
  0
LINE
  5
1391
330
18
100
AcDbEntity
  8
外形線
100
AcDbLine
 10
423.2345126464323
 20
240.4213439405832
 30
0.0
 11
423.7345126464322
 21
240.4213439405832
 31
0.0
  0
LINE
  5
1392
330
18
100
AcDbEntity
  8
外形線
100
AcDbLine
 10
422.2845126464322
 20
245.4213439405833
 30
0.0
 11
423.2345126464323
 21
245.4213439405832
 31
0.0
  0
LINE
  5
1393
330
18
100
AcDbEntity
  8
外形線
100
AcDbLine
 10
423.2345126464323
 20
244.4213439405832
 30
0.0
 11
423.7345126464322
 21
244.4213439405832
 31
0.0
  0
POINT
  5
13FC
330
18
100
AcDbEntity
  8
DEFPOINTS
  6
ByBlock
 62
     0
100
AcDbPoint
 10
419.5086305949726
 20
220.1696982536818
 30
0.0
  0
POINT
  5
13FD
330
18
100
AcDbEntity
  8
DEFPOINTS
  6
ByBlock
 62
     0
100
AcDbPoint
 10
418.9845126464321
 20
221.0213439405832
 30
0.0
  0
TEXT
  5
14EC
330
18
100
AcDbEntity
  8
寸法線
 62
     6
100
AcDbText
 10
362.2887903199176
 20
264.1727361800712
 30
0.0
 40
2.5
  1
C
  7
STYLE3
100
AcDbText
  0
CIRCLE
  5
14EE
102
{ACAD_REACTORS
330
14F1
102
}
330
18
100
AcDbEntity
  8
外形線
100
AcDbCircle
 10
354.07378561389
 20
253.3907208904463
 30
0.0
 40
0.222687898198611
  0
HATCH
  5
14F1
330
18
100
AcDbEntity
  8
外形線
100
AcDbHatch
 10
0.0
 20
0.0
 30
0.0
210
0.0
220
0.0
230
1.0
  2
SOLID
 70
     1
 71
     1
 91
        1
 92
        7
 72
     1
 73
     1
 93
        2
 10
354.2964735120886
 20
253.3907208904463
 42
1.0
 10
353.8510977156914
 20
253.3907208904463
 42
1.0
 97
        1
330
14EE
 75
     0
 76
     1
 47
0.0200805185115556
 98
        1
 10
354.1983017173057
 20
253.2739344624681
450
        0
451
        0
460
0.0
461
0.0
452
        0
462
0.0
453
        0
470

  0
CIRCLE
  5
14F8
102
{ACAD_REACTORS
330
151F
102
}
330
18
100
AcDbEntity
  8
外形線
100
AcDbCircle
 10
342.0562808114789
 20
303.0153036931006
 30
0.0
 40
0.222687898198611
  0
HATCH
  5
151F
330
18
100
AcDbEntity
  8
外形線
100
AcDbHatch
 10
0.0
 20
0.0
 30
0.0
210
0.0
220
0.0
230
1.0
  2
SOLID
 70
     1
 71
     1
 91
        1
 92
        7
 72
     1
 73
     1
 93
        2
 10
342.2789687096775
 20
303.0153036931006
 42
1.0
 10
341.8335929132803
 20
303.0153036931006
 42
1.0
 97
        1
330
14F8
 75
     0
 76
     1
 47
0.0431140550968677
 98
        1
 10
342.1735309260641
 20
302.9059685223371
450
        0
451
        0
460
0.0
461
0.0
452
        0
462
0.0
453
        0
470

  0
LINE
  5
157C
330
18
100
AcDbEntity
  8
外形線
100
AcDbLine
 10
280.1711551282161
 20
259.3520806733701
 30
0.0
 11
293.051548448128
 21
259.3520806733702
 31
0.0
  0
LINE
  5
157F
330
18
100
AcDbEntity
  8
外形線
100
AcDbLine
 10
269.3764110165417
 20
262.6520806733702
 30
0.0
 11
282.0764110165418
 21
262.6520806733702
 31
0.0
  0
LINE
  5
1584
330
18
100
AcDbEntity
  8
外形線
100
AcDbLine
 10
280.1711551282161
 20
259.3520806733701
 30
0.0
 11
282.0764110165418
 21
262.6520806733702
 31
0.0
  0
LINE
  5
1585
330
18
100
AcDbEntity
  8
外形線
100
AcDbLine
 10
271.2816669048675
 20
259.3520806733701
 30
0.0
 11
269.3764110165417
 21
262.6520806733702
 31
0.0
  0
LINE
  5
1586
330
18
100
AcDbEntity
  8
外形線
100
AcDbLine
 10
271.2816669048675
 20
259.3520806733701
 30
0.0
 11
258.4012735849557
 21
259.3520806733701
 31
0.0
  0
CIRCLE
  5
1588
330
18
100
AcDbEntity
  8
外形線
100
AcDbCircle
 10
268.6864110165417
 20
260.8520806733702
 30
0.0
 40
1.5
  0
CIRCLE
  5
1589
330
18
100
AcDbEntity
  8
外形線
100
AcDbCircle
 10
282.7664110165418
 20
260.8520806733702
 30
0.0
 40
1.5
  0
LINE
  5
158C
330
18
100
AcDbEntity
  8
中心線
100
AcDbLine
 10
265.7496055119926
 20
260.8520806733702
 30
0.0
 11
271.8266696925044
 21
260.8520806733702
 31
0.0
  0
LINE
  5
158D
330
18
100
AcDbEntity
  8
中心線
100
AcDbLine
 10
282.7664110165418
 20
264.2685027875117
 30
0.0
 11
282.7664110165418
 21
257.1278531036798
 31
0.0
  0
LINE
  5
158E
330
18
100
AcDbEntity
  8
中心線
100
AcDbLine
 10
268.6864110165417
 20
264.2685027875117
 30
0.0
 11
268.6864110165417
 21
257.1278531036798
 31
0.0
  0
LINE
  5
1591
330
18
100
AcDbEntity
  8
中心線
100
AcDbLine
 10
279.8579327344353
 20
260.8520806733702
 30
0.0
 11
286.0911526767202
 21
260.8520806733702
 31
0.0
  0
LINE
  5
15A3
330
18
100
AcDbEntity
  8
寸法線
100
AcDbLine
 10
258.4012735849557
 20
257.1833245391287
 30
0.0
 11
260.5700297191971
 21
259.3520806733701
 31
0.0
  0
LINE
  5
15A4
330
18
100
AcDbEntity
  8
寸法線
100
AcDbLine
 10
258.4012735849557
 20
252.6931964785941
 30
0.0
 11
265.0601577797317
 21
259.3520806733701
 31
0.0
  0
LINE
  5
15A5
330
18
100
AcDbEntity
  8
寸法線
100
AcDbLine
 10
261.4559589180698
 20
251.2577537511737
 30
0.0
 11
269.5502858402664
 21
259.3520806733702
 31
0.0
  0
LINE
  5
15A6
330
18
100
AcDbEntity
  8
寸法線
100
AcDbLine
 10
270.6479374515922
 20
260.4497322846961
 30
0.0
 11
272.8502858402663
 21
262.6520806733702
 31
0.0
  0
LINE
  5
15A7
330
18
100
AcDbEntity
  8
寸法線
100
AcDbLine
 10
265.9460869786043
 20
251.2577537511736
 30
0.0
 11
277.3404139008011
 21
262.6520806733703
 31
0.0
  0
LINE
  5
15A8
330
18
100
AcDbEntity
  8
寸法線
100
AcDbLine
 10
270.4362150391389
 20
251.2577537511736
 30
0.0
 11
281.8305419613356
 21
262.6520806733703
 31
0.0
  0
LINE
  5
15A9
330
18
100
AcDbEntity
  8
寸法線
100
AcDbLine
 10
274.9263430996734
 20
251.2577537511736
 30
0.0
 11
283.0206700218702
 21
259.3520806733703
 31
0.0
  0
LINE
  5
15AA
330
18
100
AcDbEntity
  8
寸法線
100
AcDbLine
 10
279.4164711602082
 20
251.2577537511736
 30
0.0
 11
287.5107980824047
 21
259.3520806733702
 31
0.0
  0
LINE
  5
15AB
330
18
100
AcDbEntity
  8
寸法線
100
AcDbLine
 10
283.9065992207426
 20
251.2577537511736
 30
0.0
 11
292.0009261429392
 21
259.3520806733702
 31
0.0
  0
LINE
  5
15AC
330
18
100
AcDbEntity
  8
寸法線
100
AcDbLine
 10
288.3967272812773
 20
251.2577537511737
 30
0.0
 11
293.051548448128
 21
255.9125749180243
 31
0.0
  0
LINE
  5
1634
330
18
100
AcDbEntity
  8
0
  6
ByBlock
 62
     2
100
AcDbLine
 10
282.0764110165418
 20
262.6520806733702
 30
0.0
 11
293.696304725544
 21
282.7783269559128
 31
0.0
  0
LINE
  5
1635
330
18
100
AcDbEntity
  8
0
  6
ByBlock
 62
     2
100
AcDbLine
 10
269.3764110165417
 20
262.6520806733702
 30
0.0
 11
257.7565173075394
 21
282.7783269559126
 31
0.0
  0
ARC
  5
1636
330
18
100
AcDbEntity
  8
0
  6
ByBlock
 62
     2
100
AcDbCircle
 10
275.7264110165419
 20
251.6535580453074
 30
0.0
 40
34.6897874180055
100
AcDbArc
 50
64.13004734756665
 51
115.869952652434
  0
INSERT
  5
1637
330
18
100
AcDbEntity
  8
0
  6
ByBlock
 62
     2
100
AcDbBlockReference
  2
_OPEN
 10
293.071304725544
 20
281.6957952011822
 30
0.0
 41
2.5
 42
2.5
 43
2.5
 50
332.0650236737839
  0
INSERT
  5
1638
330
18
100
AcDbEntity
  8
0
  6
ByBlock
 62
     2
100
AcDbBlockReference
  2
_OPEN
 10
258.3815173075394
 20
281.6957952011821
 30
0.0
 41
2.5
 42
2.5
 43
2.5
 50
207.9349763262168
  0
MTEXT
  5
1639
330
18
100
AcDbEntity
  8
0
  6
ByBlock
 62
     6
100
AcDbMText
 10
277.220872114765
 20
288.2183454633128
 30
0.0
 40
2.5
 41
0.0
 71
     5
 72
     1
  1
\A1;60°
  7
STYLE3
 73
     1
 44
1.0
  0
POINT
  5
163A
330
18
100
AcDbEntity
  8
DEFPOINTS
  6
ByBlock
 62
     0
100
AcDbPoint
 10
281.7502293853313
 20
285.8163296449046
 30
0.0
  0
POINT
  5
163B
330
18
100
AcDbEntity
  8
DEFPOINTS
  6
ByBlock
 62
     0
100
AcDbPoint
 10
271.2816669048675
 20
259.3520806733701
 30
0.0
  0
POINT
  5
163C
330
18
100
AcDbEntity
  8
DEFPOINTS
  6
ByBlock
 62
     0
100
AcDbPoint
 10
280.1711551282161
 20
259.3520806733701
 30
0.0
  0
POINT
  5
163D
330
18
100
AcDbEntity
  8
DEFPOINTS
  6
ByBlock
 62
     0
100
AcDbPoint
 10
282.0764110165418
 20
262.6520806733702
 30
0.0
  0
POINT
  5
163E
330
18
100
AcDbEntity
  8
DEFPOINTS
  6
ByBlock
 62
     0
100
AcDbPoint
 10
269.3764110165417
 20
262.6520806733702
 30
0.0
  0
LINE
  5
164E
330
18
100
AcDbEntity
  8
0
  6
ByBlock
 62
     2
100
AcDbLine
 10
266.4540160662544
 20
267.7138172070509
 30
0.0
 11
257.7565173075395
 21
282.7783269559127
 31
0.0
  0
LINE
  5
164F
330
18
100
AcDbEntity
  8
0
  6
ByBlock
 62
     2
100
AcDbLine
 10
267.3873729108649
 20
260.1020806733702
 30
0.0
 11
255.1605563384566
 21
281.279548191607
 31
0.0
  0
LINE
  5
1651
330
18
100
AcDbEntity
  8
0
  6
ByBlock
 62
     2
100
AcDbLine
 10
253.6204928289955
 20
278.9470164368764
 30
0.0
 11
251.4554293195344
 21
277.6970164368764
 31
0.0
  0
LINE
  5
1652
330
18
100
AcDbEntity
  8
0
  6
ByBlock
 62
     2
100
AcDbLine
 10
258.3815173075394
 20
281.6957952011821
 30
0.0
 11
255.7855563384566
 21
280.1970164368764
 31
0.0
  0
INSERT
  5
1654
330
18
100
AcDbEntity
  8
0
  6
ByBlock
 62
     2
100
AcDbBlockReference
  2
_OPEN
 10
255.7855563384566
 20
280.1970164368764
 30
0.0
 41
2.5
 42
2.5
 43
2.5
 50
29.99999999999951
  0
MTEXT
  5
1655
330
18
100
AcDbEntity
  8
0
  6
ByBlock
 62
     6
100
AcDbMText
 10
253.8372849143652
 20
282.570203451125
 30
0.0
 40
2.5
 41
0.0
 71
     5
 72
     1
  1
φ1.5
  7
STYLE3
 11
0.8660254037844429
 21
0.4999999999999926
 31
0.0
 73
     1
 44
1.0
  0
POINT
  5
1656
330
18
100
AcDbEntity
  8
DEFPOINTS
  6
ByBlock
 62
     0
100
AcDbPoint
 10
266.4540160662544
 20
267.7138172070509
 30
0.0
 50
60.00000000000049
  0
POINT
  5
1657
330
18
100
AcDbEntity
  8
DEFPOINTS
  6
ByBlock
 62
     0
100
AcDbPoint
 10
267.3873729108649
 20
260.1020806733702
 30
0.0
 50
60.00000000000049
  0
POINT
  5
1658
330
18
100
AcDbEntity
  8
DEFPOINTS
  6
ByBlock
 62
     0
100
AcDbPoint
 10
255.7855563384566
 20
280.1970164368764
 30
0.0
 50
60.00000000000049
  0
LINE
  5
1664
330
18
100
AcDbEntity
  8
0
  6
ByBlock
 62
     2
100
AcDbLine
 10
282.0764110165418
 20
262.6520806733702
 30
0.0
 11
299.8325607702678
 21
262.6520806733702
 31
0.0
  0
LINE
  5
1665
330
18
100
AcDbEntity
  8
0
  6
ByBlock
 62
     2
100
AcDbLine
 10
293.051548448128
 20
259.3520806733702
 30
0.0
 11
299.8325607702678
 21
259.3520806733702
 31
0.0
  0
LINE
  5
1666
330
18
100
AcDbEntity
  8
0
  6
ByBlock
 62
     2
100
AcDbLine
 10
298.5825607702679
 20
265.1520806733702
 30
0.0
 11
298.5825607702679
 21
267.6520806733702
 31
0.0
  0
LINE
  5
1667
330
18
100
AcDbEntity
  8
0
  6
ByBlock
 62
     2
100
AcDbLine
 10
298.5825607702679
 20
256.8520806733702
 30
0.0
 11
298.5825607702679
 21
248.4791486313745
 31
0.0
  0
LINE
  5
1668
330
18
100
AcDbEntity
  8
0
  6
ByBlock
 62
     2
100
AcDbLine
 10
298.5825607702679
 20
262.6520806733702
 30
0.0
 11
298.5825607702679
 21
259.3520806733702
 31
0.0
  0
INSERT
  5
1669
330
18
100
AcDbEntity
  8
0
  6
ByBlock
 62
     2
100
AcDbBlockReference
  2
_OPEN
 10
298.5825607702679
 20
262.6520806733702
 30
0.0
 41
2.5
 42
2.5
 43
2.5
 50
270.0
  0
INSERT
  5
166A
330
18
100
AcDbEntity
  8
0
  6
ByBlock
 62
     2
100
AcDbBlockReference
  2
_OPEN
 10
298.5825607702679
 20
259.3520806733702
 30
0.0
 41
2.5
 42
2.5
 43
2.5
 50
90.0
  0
MTEXT
  5
166B
330
18
100
AcDbEntity
  8
0
  6
ByBlock
 62
     6
100
AcDbMText
 10
296.7075607702678
 20
252.3392553545915
 30
0.0
 40
2.5
 41
0.0
 71
     5
 72
     1
  1
\A1;1.65
  7
STYLE3
 11
0.0000000000000001
 21
1.0
 31
0.0
 73
     1
 44
1.0
  0
POINT
  5
166C
330
18
100
AcDbEntity
  8
DEFPOINTS
  6
ByBlock
 62
     0
100
AcDbPoint
 10
282.0764110165418
 20
262.6520806733702
 30
0.0
  0
POINT
  5
166D
330
18
100
AcDbEntity
  8
DEFPOINTS
  6
ByBlock
 62
     0
100
AcDbPoint
 10
293.051548448128
 20
259.3520806733702
 30
0.0
  0
POINT
  5
166E
330
18
100
AcDbEntity
  8
DEFPOINTS
  6
ByBlock
 62
     0
100
AcDbPoint
 10
298.5825607702679
 20
259.3520806733702
 30
0.0
  0
TEXT
  5
166F
330
18
100
AcDbEntity
  8
文字
100
AcDbText
 10
253.8502515278252
 20
237.7863000127074
 30
0.0
 40
4.0
  1
A.B.C 断面図 
  7
STYLE3
100
AcDbText
  0
TEXT
  5
1670
330
18
100
AcDbEntity
  8
文字
100
AcDbText
 10
287.9929984307548
 20
237.8985243885864
 30
0.0
 40
3.0
  1
S=2／1
  7
STYLE3
100
AcDbText
  0
LINE
  5
1671
330
18
100
AcDbEntity
  8
外形線
100
AcDbLine
 10
253.5133161905966
 20
237.1129537574338
 30
0.0
 11
303.3796967623644
 21
237.1129537574338
 31
0.0
  0
LINE
  5
1686
330
18
100
AcDbEntity
  8
0
  6
ByBlock
 62
     2
100
AcDbLine
 10
344.3067945684834
 20
319.2674963632899
 30
0.0
 11
344.3067945684834
 21
331.9143024816749
 31
0.0
  0
LINE
  5
1687
330
18
100
AcDbEntity
  8
0
  6
ByBlock
 62
     2
100
AcDbLine
 10
350.3067945684835
 20
319.2674963632899
 30
0.0
 11
350.3067945684835
 21
331.9143024816749
 31
0.0
  0
LINE
  5
1688
330
18
100
AcDbEntity
  8
0
  6
ByBlock
 62
     2
100
AcDbLine
 10
341.8067945684835
 20
330.6643024816749
 30
0.0
 11
339.3067945684834
 21
330.6643024816749
 31
0.0
  0
LINE
  5
1689
330
18
100
AcDbEntity
  8
0
  6
ByBlock
 62
     2
100
AcDbLine
 10
352.8067945684834
 20
330.6643024816749
 30
0.0
 11
355.3067945684834
 21
330.6643024816749
 31
0.0
  0
LINE
  5
168A
330
18
100
AcDbEntity
  8
0
  6
ByBlock
 62
     2
100
AcDbLine
 10
344.3067945684834
 20
330.6643024816749
 30
0.0
 11
350.3067945684835
 21
330.6643024816749
 31
0.0
  0
INSERT
  5
168B
330
18
100
AcDbEntity
  8
0
  6
ByBlock
 62
     2
100
AcDbBlockReference
  2
_OPEN
 10
344.3067945684834
 20
330.6643024816749
 30
0.0
 41
2.5
 42
2.5
 43
2.5
  0
INSERT
  5
168C
330
18
100
AcDbEntity
  8
0
  6
ByBlock
 62
     2
100
AcDbBlockReference
  2
_OPEN
 10
350.3067945684835
 20
330.6643024816749
 30
0.0
 41
2.5
 42
2.5
 43
2.5
 50
180.0
  0
MTEXT
  5
168D
330
18
100
AcDbEntity
  8
0
  6
ByBlock
 62
     6
100
AcDbMText
 10
346.7819954258934
 20
333.5429580802239
 30
0.0
 40
2.5
 41
0.0
 71
     5
 72
     1
  1
\A1;φ6.0
  7
STYLE3
 73
     1
 44
1.0
  0
POINT
  5
168E
330
18
100
AcDbEntity
  8
DEFPOINTS
  6
ByBlock
 62
     0
100
AcDbPoint
 10
415.7345126464321
 20
319.2174963632898
 30
0.0
  0
POINT
  5
168F
330
18
100
AcDbEntity
  8
DEFPOINTS
  6
ByBlock
 62
     0
100
AcDbPoint
 10
421.7345126464322
 20
319.2174963632898
 30
0.0
  0
POINT
  5
1690
330
18
100
AcDbEntity
  8
DEFPOINTS
  6
ByBlock
 62
     0
100
AcDbPoint
 10
350.3067945684835
 20
330.6643024816749
 30
0.0
  0
TEXT
  5
1691
330
18
100
AcDbEntity
  8
文字
100
AcDbText
 10
353.0579973440313
 20
334.9814329596866
 30
0.0
 40
1.5
  1
0
  7
STYLE3
100
AcDbText
  0
TEXT
  5
1692
330
18
100
AcDbEntity
  8
文字
100
AcDbText
 10
351.2808511015566
 20
333.1854282843486
 30
0.0
 40
1.5
  1
-0.03
  7
STYLE3
100
AcDbText
  0
LINE
  5
16CC
330
18
100
AcDbEntity
  8
中心線
 48
0.5
100
AcDbLine
 10
326.3225433056425
 20
279.9213439405833
 30
0.0
 11
369.2558387104564
 21
279.9213439405833
 31
0.0
  0
LINE
  5
16CD
330
18
100
AcDbEntity
  8
中心線
 48
0.5
100
AcDbLine
 10
347.3067945684834
 20
321.8937455463096
 30
0.0
 11
347.3067945684834
 21
217.585132037338
 31
0.0
  0
LINE
  5
16DF
330
18
100
AcDbEntity
  8
中心線
100
AcDbLine
 10
340.3644019584821
 20
242.4213439405833
 30
0.0
 11
353.4715593604967
 21
242.4213439405833
 31
0.0
  0
ARC
  5
16E1
330
18
100
AcDbEntity
  8
外形線
100
AcDbCircle
 10
347.3067945684834
 20
242.4213439405833
 30
0.0
 40
3.5
100
AcDbArc
 50
190.3876411553972
 51
349.6123588445924
  0
LINE
  5
16E2
330
18
100
AcDbEntity
  8
外形線
100
AcDbLine
 10
354.3067945684835
 20
304.0713439405832
 30
0.0
 11
354.3067945684835
 21
295.9603588729287
 31
0.0
  0
LINE
  5
16E3
330
18
100
AcDbEntity
  8
外形線
100
AcDbLine
 10
340.3067945684834
 20
304.0713439405832
 30
0.0
 11
340.3067945684834
 21
295.9603588729287
 31
0.0
  0
LINE
  5
16E4
330
18
100
AcDbEntity
  8
外形線
100
AcDbLine
 10
340.3067945684834
 20
302.4213439405833
 30
0.0
 11
354.3067945684835
 21
302.4213439405833
 31
0.0
  0
LINE
  5
16E5
330
18
100
AcDbEntity
  8
外形線
100
AcDbLine
 10
340.3067945684834
 20
304.0713439405832
 30
0.0
 11
354.3067945684835
 21
304.0713439405832
 31
0.0
  0
LINE
  5
16E7
330
18
100
AcDbEntity
  8
外形線
100
AcDbLine
 10
354.3067945684835
 20
257.4213439405832
 30
0.0
 11
350.7494309207708
 21
241.79026950289
 31
0.0
  0
LINE
  5
16EF
330
18
100
AcDbEntity
  8
外形線
100
AcDbLine
 10
355.9156559019864
 20
257.0551947775921
 30
0.0
 11
353.2679915833591
 21
245.4213439405833
 31
0.0
  0
LINE
  5
16F0
330
18
100
AcDbEntity
  8
外形線
100
AcDbLine
 10
354.3067945684835
 20
257.4213439405832
 30
0.0
 11
355.9156559019864
 21
257.0551947775921
 31
0.0
  0
LINE
  5
16F1
330
18
100
AcDbEntity
  8
外形線
100
AcDbLine
 10
351.5758009990579
 20
245.4213439405833
 30
0.0
 11
353.2679915833591
 21
245.4213439405833
 31
0.0
  0
LINE
  5
16F2
330
18
100
AcDbEntity
  8
外形線
100
AcDbLine
 10
338.6979332349805
 20
257.0551947775921
 30
0.0
 11
341.3455975536078
 21
245.4213439405833
 31
0.0
  0
LINE
  5
16F3
330
18
100
AcDbEntity
  8
外形線
100
AcDbLine
 10
343.0377881379089
 20
245.4213439405833
 30
0.0
 11
341.3455975536078
 21
245.4213439405833
 31
0.0
  0
LINE
  5
16F4
330
18
100
AcDbEntity
  8
外形線
100
AcDbLine
 10
340.3067945684834
 20
257.4213439405832
 30
0.0
 11
338.6979332349805
 21
257.0551947775921
 31
0.0
  0
LINE
  5
16F5
330
18
100
AcDbEntity
  8
外形線
100
AcDbLine
 10
340.3067945684834
 20
257.4213439405832
 30
0.0
 11
343.8641582161961
 21
241.79026950289
 31
0.0
  0
ARC
  5
1724
330
18
100
AcDbEntity
  8
外形線
100
AcDbCircle
 10
347.3067945684834
 20
221.0213439405833
 30
0.0
 40
1.0
100
AcDbArc
 50
126.869897645842
 51
53.13010235415791
  0
LINE
  5
1726
330
18
100
AcDbEntity
  8
外形線
100
AcDbLine
 10
347.9079312284046
 20
221.8213439405834
 30
0.0
 11
346.7056579085622
 21
221.8213439405835
 31
0.0
  0
LINE
  5
1727
330
18
100
AcDbEntity
  8
隠れ線
 62
     4
 48
0.3
100
AcDbLine
 10
347.3067945684834
 20
222.0213439405833
 30
0.0
 11
346.7056579085623
 21
221.8213439405834
 31
0.0
  0
LINE
  5
1728
330
18
100
AcDbEntity
  8
中心線
100
AcDbLine
 10
343.5581897521613
 20
221.0213439405833
 30
0.0
 11
351.4378431678721
 21
221.0213439405833
 31
0.0
  0
LINE
  5
1729
330
18
100
AcDbEntity
  8
隠れ線
 62
     4
 48
0.3
100
AcDbLine
 10
347.3067945684834
 20
222.0213439405833
 30
0.0
 11
347.9079312284046
 21
221.8213439405834
 31
0.0
  0
LINE
  5
172A
330
18
100
AcDbEntity
  8
外形線
100
AcDbLine
 10
346.0567945684835
 20
236.2213439405833
 30
0.0
 11
346.7056579085623
 21
221.8213439405834
 31
0.0
  0
LINE
  5
172B
330
18
100
AcDbEntity
  8
外形線
100
AcDbLine
 10
348.5567945684834
 20
236.2213439405833
 30
0.0
 11
347.9079312284046
 21
221.8213439405834
 31
0.0
  0
CIRCLE
  5
172C
330
18
100
AcDbEntity
  8
外形線
100
AcDbCircle
 10
347.3067945684834
 20
242.4213439405834
 30
0.0
 40
2.0
  0
LINE
  5
172D
330
18
100
AcDbEntity
  8
外形線
100
AcDbLine
 10
345.8925810061103
 20
241.0071303782103
 30
0.0
 11
348.7210081308565
 21
243.8355575029565
 31
0.0
  0
ARC
  5
172E
330
18
100
AcDbEntity
  8
外形線
100
AcDbCircle
 10
347.3067945684834
 20
242.4213439405833
 30
0.0
 40
3.0
100
AcDbArc
 50
234.5940682268605
 51
35.4059317731395
  0
ARC
  5
172F
330
18
100
AcDbEntity
  8
外形線
100
AcDbCircle
 10
347.3067945684834
 20
242.4213439405833
 30
0.0
 40
3.0
100
AcDbArc
 50
54.59406822686052
 51
215.4059317731395
  0
LINE
  5
1730
330
18
100
AcDbEntity
  8
外形線
 62
     4
100
AcDbLine
 10
348.037179326213
 20
237.4213439405833
 30
0.0
 11
346.5764098107541
 21
237.4213439405833
 31
0.0
  0
LINE
  5
1731
330
18
100
AcDbEntity
  8
外形線
100
AcDbLine
 10
348.5567945684834
 20
237.1213439405833
 30
0.0
 11
346.0567945684835
 21
237.1213439405833
 31
0.0
  0
LINE
  5
1732
330
18
100
AcDbEntity
  8
外形線
100
AcDbLine
 10
348.5567945684834
 20
237.7213439405833
 30
0.0
 11
346.0567945684835
 21
237.7213439405833
 31
0.0
  0
LINE
  5
1733
330
18
100
AcDbEntity
  8
外形線
100
AcDbLine
 10
348.5567945684834
 20
236.2213439405833
 30
0.0
 11
346.0567945684835
 21
236.2213439405833
 31
0.0
  0
LINE
  5
1734
330
18
100
AcDbEntity
  8
針
 62
     4
100
AcDbLine
 10
346.0567945684833
 20
239.1213439405833
 30
0.0
 11
346.2842382737782
 21
239.1213439405833
 31
0.0
  0
LINE
  5
1735
330
18
100
AcDbEntity
  8
外形線
100
AcDbLine
 10
346.0567945684834
 20
239.2083142194051
 30
0.0
 11
346.0567945684835
 21
237.7213439405834
 31
0.0
  0
LINE
  5
1736
330
18
100
AcDbEntity
  8
外形線
100
AcDbLine
 10
346.0567945684835
 20
237.1213439405833
 30
0.0
 11
346.0567945684835
 21
236.2213439405833
 31
0.0
  0
LINE
  5
1737
330
18
100
AcDbEntity
  8
外形線
100
AcDbLine
 10
346.0567945684835
 20
237.7213439405834
 30
0.0
 11
346.5764098107542
 21
237.4213439405834
 31
0.0
  0
LINE
  5
1738
330
18
100
AcDbEntity
  8
外形線
100
AcDbLine
 10
346.0567945684835
 20
237.1213439405833
 30
0.0
 11
346.5764098107541
 21
237.4213439405834
 31
0.0
  0
LINE
  5
1739
330
18
100
AcDbEntity
  8
外形線
100
AcDbLine
 10
345.1854742249238
 20
241.0071303782103
 30
0.0
 11
344.8615911115549
 21
240.6832472648414
 31
0.0
  0
LINE
  5
173A
330
18
100
AcDbEntity
  8
外形線
100
AcDbLine
 10
345.8925810061103
 20
240.3000235970237
 30
0.0
 11
345.5686978927416
 21
239.9761404836548
 31
0.0
  0
LINE
  5
173B
330
18
100
AcDbEntity
  8
外形線
100
AcDbLine
 10
345.8925810061103
 20
240.3000235970237
 30
0.0
 11
345.1854742249238
 21
241.0071303782103
 31
0.0
  0
LINE
  5
173C
330
18
100
AcDbEntity
  8
針
 62
     4
100
AcDbLine
 10
348.3293508631886
 20
239.1213439405833
 30
0.0
 11
348.5567945684834
 21
239.1213439405833
 31
0.0
  0
LINE
  5
173D
330
18
100
AcDbEntity
  8
外形線
100
AcDbLine
 10
348.5567945684834
 20
239.2083142194052
 30
0.0
 11
348.5567945684834
 21
237.7213439405833
 31
0.0
  0
LINE
  5
173E
330
18
100
AcDbEntity
  8
外形線
100
AcDbLine
 10
348.5567945684834
 20
237.1213439405833
 30
0.0
 11
348.5567945684834
 21
236.2213439405833
 31
0.0
  0
LINE
  5
173F
330
18
100
AcDbEntity
  8
外形線
100
AcDbLine
 10
348.5567945684834
 20
237.1213439405833
 30
0.0
 11
348.0371793262128
 21
237.4213439405834
 31
0.0
  0
LINE
  5
1740
330
18
100
AcDbEntity
  8
外形線
100
AcDbLine
 10
348.5567945684834
 20
237.7213439405833
 30
0.0
 11
348.0371793262127
 21
237.4213439405834
 31
0.0
  0
POINT
  5
1741
330
18
100
AcDbEntity
  8
DEFPOINTS
  6
ByBlock
 62
     0
100
AcDbPoint
 10
347.3067945684834
 20
242.4213439405834
 30
0.0
  0
POINT
  5
1742
330
18
100
AcDbEntity
  8
DEFPOINTS
  6
ByBlock
 62
     0
100
AcDbPoint
 10
347.3067945684834
 20
242.4213439405834
 30
0.0
  0
LINE
  5
1743
330
18
100
AcDbEntity
  8
外形線
100
AcDbLine
 10
348.7210081308565
 20
244.5426642841429
 30
0.0
 11
349.0448912442253
 21
244.8665473975118
 31
0.0
  0
LINE
  5
1744
330
18
100
AcDbEntity
  8
外形線
100
AcDbLine
 10
349.428114912043
 20
243.8355575029564
 30
0.0
 11
348.7210081308565
 21
244.5426642841429
 31
0.0
  0
LINE
  5
1745
330
18
100
AcDbEntity
  8
外形線
100
AcDbLine
 10
349.428114912043
 20
243.8355575029564
 30
0.0
 11
349.7519980254119
 21
244.1594406163253
 31
0.0
  0
LINE
  5
1746
330
18
100
AcDbEntity
  8
外形線
100
AcDbLine
 10
341.4219502759989
 20
252.5213439405833
 30
0.0
 11
353.191638860968
 21
252.5213439405833
 31
0.0
  0
LINE
  5
1765
330
18
100
AcDbEntity
  8
中心線
100
AcDbLine
 10
349.6629372341695
 20
258.4213439405833
 30
0.0
 11
354.6377521156965
 21
258.4213439405833
 31
0.0
  0
LINE
  5
1766
330
18
100
AcDbEntity
  8
中心線
100
AcDbLine
 10
352.0567945684835
 20
260.8133089571448
 30
0.0
 11
352.0567945684835
 21
255.9043433929332
 31
0.0
  0
CIRCLE
  5
1769
330
18
100
AcDbEntity
  8
外形線
100
AcDbCircle
 10
347.3067945684834
 20
279.9213439405833
 30
0.0
 40
17.5
  0
LINE
  5
176A
330
18
100
AcDbEntity
  8
外形線
100
AcDbLine
 10
354.3067945684835
 20
263.8823290082378
 30
0.0
 11
354.3067945684835
 21
257.4213439405834
 31
0.0
  0
LINE
  5
176B
330
18
100
AcDbEntity
  8
外形線
100
AcDbLine
 10
340.3067945684834
 20
263.8823290082378
 30
0.0
 11
340.3067945684834
 21
257.4213439405832
 31
0.0
  0
CIRCLE
  5
176C
330
18
100
AcDbEntity
  8
外形線
100
AcDbCircle
 10
352.0567945684835
 20
258.4213439405833
 30
0.0
 40
1.5
  0
LINE
  5
176D
330
18
100
AcDbEntity
  8
外形線
100
AcDbLine
 10
351.4130196835016
 20
257.8811526720339
 30
0.0
 11
352.7005694534652
 21
258.9615352091328
 31
0.0
  0
LINE
  5
176E
330
18
100
AcDbEntity
  8
外形線
100
AcDbLine
 10
352.5969858370328
 20
257.7775690556015
 30
0.0
 11
351.5166032999339
 21
259.0651188255652
 31
0.0
  0
LINE
  5
176F
330
18
100
AcDbEntity
  8
中心線
100
AcDbLine
 10
344.9506519027974
 20
258.4213439405833
 30
0.0
 11
339.9758370212704
 21
258.4213439405833
 31
0.0
  0
CIRCLE
  5
1770
330
18
100
AcDbEntity
  8
外形線
100
AcDbCircle
 10
342.5567945684834
 20
258.4213439405833
 30
0.0
 40
1.5
  0
LINE
  5
1771
330
18
100
AcDbEntity
  8
中心線
100
AcDbLine
 10
342.5567945684834
 20
260.8133089571448
 30
0.0
 11
342.5567945684834
 21
255.9043433929332
 31
0.0
  0
LINE
  5
1772
330
18
100
AcDbEntity
  8
外形線
100
AcDbLine
 10
342.0166032999341
 20
257.7775690556015
 30
0.0
 11
343.096985837033
 21
259.0651188255652
 31
0.0
  0
LINE
  5
1773
330
18
100
AcDbEntity
  8
外形線
100
AcDbLine
 10
343.2005694534653
 20
257.8811526720339
 30
0.0
 11
341.9130196835017
 21
258.9615352091328
 31
0.0
  0
LINE
  5
1775
330
18
100
AcDbEntity
  8
外形線
100
AcDbLine
 10
343.2005694534653
 20
298.9615352091326
 30
0.0
 11
341.9130196835017
 21
297.8811526720337
 31
0.0
  0
CIRCLE
  5
1776
330
18
100
AcDbEntity
  8
外形線
100
AcDbCircle
 10
342.5567945684834
 20
298.4213439405833
 30
0.0
 40
1.5
  0
LINE
  5
1777
330
18
100
AcDbEntity
  8
中心線
100
AcDbLine
 10
344.9506519027974
 20
298.4213439405833
 30
0.0
 11
339.9758370212704
 21
298.4213439405833
 31
0.0
  0
LINE
  5
1778
330
18
100
AcDbEntity
  8
外形線
100
AcDbLine
 10
342.0166032999341
 20
299.065118825565
 30
0.0
 11
343.096985837033
 21
297.7775690556013
 31
0.0
  0
LINE
  5
1779
330
18
100
AcDbEntity
  8
中心線
100
AcDbLine
 10
342.5567945684834
 20
296.0293789240217
 30
0.0
 11
342.5567945684834
 21
300.9383444882333
 31
0.0
  0
CIRCLE
  5
177A
330
18
100
AcDbEntity
  8
外形線
100
AcDbCircle
 10
352.0567945684835
 20
298.4213439405833
 30
0.0
 40
1.5
  0
LINE
  5
177B
330
18
100
AcDbEntity
  8
中心線
100
AcDbLine
 10
352.0567945684835
 20
296.0293789240217
 30
0.0
 11
352.0567945684835
 21
300.9383444882333
 31
0.0
  0
LINE
  5
177C
330
18
100
AcDbEntity
  8
外形線
100
AcDbLine
 10
352.5969858370328
 20
299.065118825565
 30
0.0
 11
351.5166032999339
 21
297.7775690556013
 31
0.0
  0
LINE
  5
177D
330
18
100
AcDbEntity
  8
外形線
100
AcDbLine
 10
351.4130196835016
 20
298.9615352091326
 30
0.0
 11
352.7005694534652
 21
297.8811526720337
 31
0.0
  0
LINE
  5
177E
330
18
100
AcDbEntity
  8
中心線
100
AcDbLine
 10
349.6629372341695
 20
298.4213439405833
 30
0.0
 11
354.6377521156965
 21
298.4213439405833
 31
0.0
  0
LINE
  5
17AB
330
18
100
AcDbEntity
  8
外形線
100
AcDbLine
 10
422.2845126464322
 20
302.4213439405833
 30
0.0
 11
422.2845126464322
 21
238.9213439405832
 31
0.0
  0
LINE
  5
17AC
330
18
100
AcDbEntity
  8
外形線
100
AcDbLine
 10
420.5845126464321
 20
244.9213439405832
 30
0.0
 11
420.5845126464321
 21
238.9213439405832
 31
0.0
  0
LINE
  5
17AD
330
18
100
AcDbEntity
  8
外形線
100
AcDbLine
 10
420.2345126464321
 20
245.3983135412917
 30
0.0
 11
420.2345126464322
 21
239.2213439405832
 31
0.0
  0
LINE
  5
17AE
330
18
100
AcDbEntity
  8
外形線
100
AcDbLine
 10
413.7345126464322
 20
244.4213439405832
 30
0.0
 11
413.7345126464322
 21
240.4213439405832
 31
0.0
  0
LINE
  5
17AF
330
18
100
AcDbEntity
  8
外形線
100
AcDbLine
 10
414.2345126464321
 20
245.4213439405832
 30
0.0
 11
414.2345126464321
 21
239.4213439405833
 31
0.0
  0
LINE
  5
17B0
330
18
100
AcDbEntity
  8
外形線
100
AcDbLine
 10
415.1845126464321
 20
239.4213439405832
 30
0.0
 11
414.2345126464321
 21
239.4213439405833
 31
0.0
  0
LINE
  5
17B1
330
18
100
AcDbEntity
  8
外形線
100
AcDbLine
 10
414.2345126464321
 20
240.4213439405832
 30
0.0
 11
413.7345126464322
 21
240.4213439405832
 31
0.0
  0
LINE
  5
17B2
330
18
100
AcDbEntity
  8
外形線
100
AcDbLine
 10
415.1845126464321
 20
245.4213439405833
 30
0.0
 11
414.2345126464321
 21
245.4213439405832
 31
0.0
  0
LINE
  5
17B3
330
18
100
AcDbEntity
  8
外形線
100
AcDbLine
 10
414.2345126464321
 20
244.4213439405832
 30
0.0
 11
413.7345126464322
 21
244.4213439405832
 31
0.0
  0
LINE
  5
17B4
330
18
100
AcDbEntity
  8
外形線
100
AcDbLine
 10
415.1845126464322
 20
302.4213439405833
 30
0.0
 11
415.1845126464321
 21
292.9213439405832
 31
0.0
  0
LINE
  5
17B5
330
18
100
AcDbEntity
  8
外形線
100
AcDbLine
 10
416.8845126464322
 20
244.9213439405832
 30
0.0
 11
416.8845126464322
 21
238.9213439405832
 31
0.0
  0
LINE
  5
17B6
330
18
100
AcDbEntity
  8
外形線
100
AcDbLine
 10
415.1845126464322
 20
238.9213439405832
 30
0.0
 11
416.8845126464322
 21
238.9213439405832
 31
0.0
  0
LINE
  5
17C8
330
18
100
AcDbEntity
  8
外形線
100
AcDbLine
 10
415.7345126464321
 20
245.4213439405833
 30
0.0
 11
421.7345126464322
 21
245.4213439405833
 31
0.0
  0
ARC
  5
17C9
330
18
100
AcDbEntity
  8
外形線
100
AcDbCircle
 10
420.0845126464321
 20
244.9213439405832
 30
0.0
 40
0.5
100
AcDbArc
 50
360.0
 51
90.0
  0
ARC
  5
17CB
330
18
100
AcDbEntity
  8
外形線
100
AcDbCircle
 10
417.3845126464322
 20
244.9213439405832
 30
0.0
 40
0.5
100
AcDbArc
 50
90.0
 51
180.0
  0
LINE
  5
17CE
330
18
100
AcDbEntity
  8
中心線
 48
0.5
100
AcDbLine
 10
418.7345126464322
 20
321.1354977744715
 30
0.0
 11
418.7345126464322
 21
299.3350149895011
 31
0.0
  0
LINE
  5
17CF
330
18
100
AcDbEntity
  8
外形線
100
AcDbLine
 10
421.7345126464322
 20
257.4213439405832
 30
0.0
 11
421.7345126464322
 21
245.4213439405833
 31
0.0
  0
LINE
  5
17D0
330
18
100
AcDbEntity
  8
外形線
100
AcDbLine
 10
415.7345126464321
 20
257.4213439405832
 30
0.0
 11
415.7345126464321
 21
245.4213439405833
 31
0.0
  0
LINE
  5
17D1
330
18
100
AcDbEntity
  8
外形線
100
AcDbLine
 10
415.1845126464322
 20
257.4213439405832
 30
0.0
 11
421.7345126464322
 21
257.4213439405832
 31
0.0
  0
LINE
  5
17D2
330
18
100
AcDbEntity
  8
外形線
100
AcDbLine
 10
415.7345126464321
 20
257.0551947775921
 30
0.0
 11
421.7345126464322
 21
257.0551947775921
 31
0.0
  0
LINE
  5
17D3
330
18
100
AcDbEntity
  8
外形線
100
AcDbLine
 10
421.7345126464322
 20
257.4213439405832
 30
0.0
 11
422.2845126464322
 21
257.4213439405832
 31
0.0
  0
LINE
  5
17D4
330
18
100
AcDbEntity
  8
外形線
100
AcDbLine
 10
415.1845126464321
 20
252.5213439405833
 30
0.0
 11
415.7345126464321
 21
252.5213439405833
 31
0.0
  0
LINE
  5
17D5
330
18
100
AcDbEntity
  8
外形線
100
AcDbLine
 10
415.1845126464322
 20
302.4213439405833
 30
0.0
 11
416.7845126464323
 21
302.4213439405834
 31
0.0
  0
LINE
  5
17D6
330
18
100
AcDbEntity
  8
外形線
100
AcDbLine
 10
415.7345126464322
 20
304.0713439405832
 30
0.0
 11
421.7345126464322
 21
304.0713439405832
 31
0.0
  0
LINE
  5
17D7
330
18
100
AcDbEntity
  8
外形線
100
AcDbLine
 10
420.7457750897026
 20
302.4213439405833
 30
0.0
 11
422.2845126464322
 21
302.4213439405833
 31
0.0
  0
LINE
  5
17D9
330
18
100
AcDbEntity
  8
外形線
100
AcDbLine
 10
416.7845126464323
 20
302.4213439405834
 30
0.0
 11
416.7845126464322
 21
257.4213439405832
 31
0.0
  0
LINE
  5
17EC
330
18
100
AcDbEntity
  8
中心線
100
AcDbLine
 10
413.6469647119626
 20
298.4213439405833
 30
0.0
 11
418.6217795934896
 21
298.4213439405833
 31
0.0
  0
LINE
  5
17EE
330
18
100
AcDbEntity
  8
外形線
 48
0.5
100
AcDbLine
 10
414.4845126464322
 20
294.9213439405832
 30
0.0
 11
415.1845126464321
 21
294.9213439405832
 31
0.0
  0
LINE
  5
17EF
330
18
100
AcDbEntity
  8
外形線
100
AcDbLine
 10
413.9845126464321
 20
294.4213439405833
 30
0.0
 11
413.9845126464321
 21
265.4213439405832
 31
0.0
  0
ARC
  5
17F0
330
18
100
AcDbEntity
  8
外形線
 48
0.5
100
AcDbCircle
 10
414.4845126464322
 20
294.4213439405833
 30
0.0
 40
0.5
100
AcDbArc
 50
90.0
 51
180.0
  0
LINE
  5
17F1
330
18
100
AcDbEntity
  8
外形線
 48
0.5
100
AcDbLine
 10
413.9845126464321
 20
292.9213439405832
 30
0.0
 11
415.1845126464321
 21
292.9213439405832
 31
0.0
  0
LINE
  5
17F2
330
18
100
AcDbEntity
  8
外形線
 48
0.5
100
AcDbLine
 10
413.9845126464321
 20
266.9213439405833
 30
0.0
 11
415.1845126464321
 21
266.9213439405833
 31
0.0
  0
LINE
  5
17F3
330
18
100
AcDbEntity
  8
外形線
 48
0.5
100
AcDbLine
 10
414.4845126464322
 20
264.9213439405833
 30
0.0
 11
415.1845126464321
 21
264.9213439405833
 31
0.0
  0
ARC
  5
17F4
330
18
100
AcDbEntity
  8
外形線
 48
0.5
100
AcDbCircle
 10
414.4845126464322
 20
265.4213439405832
 30
0.0
 40
0.5
100
AcDbArc
 50
180.0
 51
270.0
  0
LINE
  5
17F5
330
18
100
AcDbEntity
  8
外形線
100
AcDbLine
 10
415.1845126464323
 20
238.9213439405832
 30
0.0
 11
415.1845126464321
 21
266.9213439405833
 31
0.0
  0
LINE
  5
17F6
330
18
100
AcDbEntity
  8
中心線
100
AcDbLine
 10
413.6469647119626
 20
261.4213439405832
 30
0.0
 11
418.6217795934896
 21
261.4213439405832
 31
0.0
  0
LINE
  5
1815
330
18
100
AcDbEntity
  8
中心線
 48
0.4
100
AcDbLine
 10
418.9736201183529
 20
276.4213439405832
 30
0.0
 11
426.2291246215594
 21
276.4213439405832
 31
0.0
  0
HATCH
  5
1823
330
18
100
AcDbEntity
  8
外形線
100
AcDbHatch
 10
0.0
 20
0.0
 30
0.0
210
0.0
220
0.0
230
1.0
  2
SOLID
 70
     1
 71
     1
 91
        1
 92
        7
 72
     1
 73
     1
 93
        2
 10
340.7624914212755
 20
253.3907208904463
 42
1.0
 10
340.3171156248782
 20
253.3907208904463
 42
1.0
 97
        1
330
1824
 75
     0
 76
     1
 47
0.0200805185115556
 98
        1
 10
340.4152874196612
 20
253.2739344624681
450
        0
451
        0
460
0.0
461
0.0
452
        0
462
0.0
453
        0
470

  0
CIRCLE
  5
1824
102
{ACAD_REACTORS
330
1823
102
}
330
18
100
AcDbEntity
  8
外形線
100
AcDbCircle
 10
340.5398035230768
 20
253.3907208904463
 30
0.0
 40
0.222687898198611
  0
TEXT
  5
1826
330
18
100
AcDbEntity
  8
寸法線
 62
     6
100
AcDbText
 10
329.9931185404748
 20
264.1727361800712
 30
0.0
 40
2.5
  1
B
  7
STYLE3
100
AcDbText
  0
POINT
  5
18B8
330
18
100
AcDbEntity
  8
DEFPOINTS
  6
ByBlock
 62
     0
100
AcDbPoint
 10
347.3067945684834
 20
242.4213439405833
 30
0.0
  0
POINT
  5
18B9
330
18
100
AcDbEntity
  8
DEFPOINTS
  6
ByBlock
 62
     0
100
AcDbPoint
 10
347.3067945684834
 20
242.4213439405833
 30
0.0
  0
LINE
  5
18E4
330
18
100
AcDbEntity
  8
外形線
100
AcDbLine
 10
423.2845126464322
 20
273.9213439405832
 30
0.0
 11
423.2845126464322
 21
265.4213439405832
 31
0.0
  0
LINE
  5
18E6
330
18
100
AcDbEntity
  8
外形線
100
AcDbLine
 10
422.2845126464322
 20
278.9213439405833
 30
0.0
 11
424.1583061415477
 21
278.9213439405833
 31
0.0
  0
LINE
  5
18E7
330
18
100
AcDbEntity
  8
外形線
100
AcDbLine
 10
422.2845126464322
 20
273.9213439405832
 30
0.0
 11
423.2845126464322
 21
273.9213439405832
 31
0.0
  0
ARC
  5
18E8
330
18
100
AcDbEntity
  8
外形線
100
AcDbCircle
 10
354.4845126464323
 20
272.1713439405832
 30
0.0
 40
70.0
100
AcDbArc
 50
354.4664515425994
 51
5.533548457400675
  0
LINE
  5
18E9
330
18
100
AcDbEntity
  8
外形線
100
AcDbLine
 10
423.2845126464322
 20
265.4213439405832
 30
0.0
 11
424.1583061415477
 21
265.4213439405832
 31
0.0
  0
LINE
  5
192B
330
18
100
AcDbEntity
  8
0
  6
ByBlock
 62
     2
100
AcDbLine
 10
413.7345126464322
 20
240.4213439405832
 30
0.0
 11
413.7345126464322
 21
232.8648642237256
 31
0.0
  0
LINE
  5
192C
330
18
100
AcDbEntity
  8
0
  6
ByBlock
 62
     2
100
AcDbLine
 10
423.7345126464322
 20
240.4213439405832
 30
0.0
 11
423.7345126464322
 21
232.8648642237256
 31
0.0
  0
LINE
  5
192D
330
18
100
AcDbEntity
  8
0
  6
ByBlock
 62
     2
100
AcDbLine
 10
416.2345126464321
 20
234.1148642237257
 30
0.0
 11
421.2345126464322
 21
234.1148642237257
 31
0.0
  0
LINE
  5
192E
330
18
100
AcDbEntity
  8
0
  6
ByBlock
 62
     2
100
AcDbLine
 10
423.7345126464322
 20
234.1148642237257
 30
0.0
 11
434.6273697892893
 21
234.1148642237257
 31
0.0
  0
INSERT
  5
192F
330
18
100
AcDbEntity
  8
0
  6
ByBlock
 62
     2
100
AcDbBlockReference
  2
_OPEN
 10
413.7345126464322
 20
234.1148642237257
 30
0.0
 41
2.5
 42
2.5
 43
2.5
 50
180.0
  0
INSERT
  5
1930
330
18
100
AcDbEntity
  8
0
  6
ByBlock
 62
     2
100
AcDbBlockReference
  2
_OPEN
 10
423.7345126464322
 20
234.1148642237257
 30
0.0
 41
2.5
 42
2.5
 43
2.5
  0
MTEXT
  5
1931
330
18
100
AcDbEntity
  8
0
  6
ByBlock
 62
     6
100
AcDbMText
 10
430.4309412178607
 20
236.6446261284875
 30
0.0
 40
2.5
 41
0.0
 71
     5
 72
     1
  1
\A1;(10)
  7
STYLE3
 73
     1
 44
1.0
  0
POINT
  5
1932
330
18
100
AcDbEntity
  8
DEFPOINTS
  6
ByBlock
 62
     0
100
AcDbPoint
 10
413.7345126464322
 20
240.4213439405832
 30
0.0
  0
POINT
  5
1933
330
18
100
AcDbEntity
  8
DEFPOINTS
  6
ByBlock
 62
     0
100
AcDbPoint
 10
423.7345126464322
 20
240.4213439405832
 30
0.0
  0
POINT
  5
1934
330
18
100
AcDbEntity
  8
DEFPOINTS
  6
ByBlock
 62
     0
100
AcDbPoint
 10
423.7345126464322
 20
234.1148642237257
 30
0.0
  0
LINE
  5
1935
330
18
100
AcDbEntity
  8
0
  6
ByBlock
 62
     2
100
AcDbLine
 10
347.3067945684834
 20
320.0713439405832
 30
0.0
 11
382.8425256121469
 21
320.0713439405832
 31
0.0
  0
LINE
  5
1936
330
18
100
AcDbEntity
  8
0
  6
ByBlock
 62
     2
100
AcDbLine
 10
347.3067945684834
 20
220.0213439405833
 30
0.0
 11
382.8425256121469
 21
220.0213439405833
 31
0.0
  0
LINE
  5
1937
330
18
100
AcDbEntity
  8
0
  6
ByBlock
 62
     2
100
AcDbLine
 10
381.5925256121468
 20
317.5713439405833
 30
0.0
 11
381.5925256121468
 21
222.5213439405834
 31
0.0
  0
INSERT
  5
1938
330
18
100
AcDbEntity
  8
0
  6
ByBlock
 62
     2
100
AcDbBlockReference
  2
_OPEN
 10
381.5925256121468
 20
320.0713439405832
 30
0.0
 41
2.5
 42
2.5
 43
2.5
 50
90.0
  0
INSERT
  5
1939
330
18
100
AcDbEntity
  8
0
  6
ByBlock
 62
     2
100
AcDbBlockReference
  2
_OPEN
 10
381.5925256121468
 20
220.0213439405833
 30
0.0
 41
2.5
 42
2.5
 43
2.5
 50
270.0
  0
MTEXT
  5
193A
330
18
100
AcDbEntity
  8
0
  6
ByBlock
 62
     6
100
AcDbMText
 10
379.7175256121469
 20
270.0463439405833
 30
0.0
 40
2.5
 41
0.0
 71
     5
 72
     1
  1
\A1;100
  7
STYLE3
 11
0.0000000000000001
 21
1.0
 31
0.0
 73
     1
 44
1.0
  0
POINT
  5
193B
330
18
100
AcDbEntity
  8
DEFPOINTS
  6
ByBlock
 62
     0
100
AcDbPoint
 10
347.3067945684834
 20
320.0713439405832
 30
0.0
  0
POINT
  5
193C
330
18
100
AcDbEntity
  8
DEFPOINTS
  6
ByBlock
 62
     0
100
AcDbPoint
 10
347.3067945684834
 20
220.0213439405833
 30
0.0
  0
POINT
  5
193D
330
18
100
AcDbEntity
  8
DEFPOINTS
  6
ByBlock
 62
     0
100
AcDbPoint
 10
381.5925256121468
 20
220.0213439405833
 30
0.0
  0
LINE
  5
193E
330
18
100
AcDbEntity
  8
0
  6
ByBlock
 62
     2
100
AcDbLine
 10
408.048254615025
 20
297.4213439405833
 30
0.0
 11
396.6497410471707
 21
297.4213439405833
 31
0.0
  0
LINE
  5
193F
330
18
100
AcDbEntity
  8
0
  6
ByBlock
 62
     2
100
AcDbLine
 10
408.048254615025
 20
262.4213439405833
 30
0.0
 11
396.6497410471707
 21
262.4213439405833
 31
0.0
  0
LINE
  5
1940
330
18
100
AcDbEntity
  8
0
  6
ByBlock
 62
     2
100
AcDbLine
 10
397.8997410471707
 20
294.9213439405833
 30
0.0
 11
397.8997410471707
 21
264.9213439405833
 31
0.0
  0
INSERT
  5
1941
330
18
100
AcDbEntity
  8
0
  6
ByBlock
 62
     2
100
AcDbBlockReference
  2
_OPEN
 10
397.8997410471707
 20
297.4213439405833
 30
0.0
 41
2.5
 42
2.5
 43
2.5
 50
90.0
  0
INSERT
  5
1942
330
18
100
AcDbEntity
  8
0
  6
ByBlock
 62
     2
100
AcDbBlockReference
  2
_OPEN
 10
397.8997410471707
 20
262.4213439405833
 30
0.0
 41
2.5
 42
2.5
 43
2.5
 50
270.0
  0
MTEXT
  5
1943
330
18
100
AcDbEntity
  8
0
  6
ByBlock
 62
     6
100
AcDbMText
 10
396.0247410471707
 20
279.5744842412211
 30
0.0
 40
2.5
 41
0.0
 71
     5
 72
     1
  1
\A1;φ35
  7
STYLE3
 11
0.0000000000000001
 21
1.0
 31
0.0
 73
     1
 44
1.0
  0
POINT
  5
1944
330
18
100
AcDbEntity
  8
DEFPOINTS
  6
ByBlock
 62
     0
100
AcDbPoint
 10
408.048254615025
 20
297.4213439405833
 30
0.0
  0
POINT
  5
1945
330
18
100
AcDbEntity
  8
DEFPOINTS
  6
ByBlock
 62
     0
100
AcDbPoint
 10
408.048254615025
 20
262.4213439405833
 30
0.0
  0
POINT
  5
1946
330
18
100
AcDbEntity
  8
DEFPOINTS
  6
ByBlock
 62
     0
100
AcDbPoint
 10
397.8997410471707
 20
262.4213439405833
 30
0.0
  0
LINE
  5
1947
330
18
100
AcDbEntity
  8
0
  6
ByBlock
 62
     2
100
AcDbLine
 10
404.9845126464322
 20
279.9213439405833
 30
0.0
 11
404.9845126464322
 21
339.1414330354347
 31
0.0
  0
LINE
  5
1948
330
18
100
AcDbEntity
  8
0
  6
ByBlock
 62
     2
100
AcDbLine
 10
422.2845126464322
 20
331.9143024816749
 30
0.0
 11
422.2845126464322
 21
339.1414330354347
 31
0.0
  0
LINE
  5
1949
330
18
100
AcDbEntity
  8
0
  6
ByBlock
 62
     2
100
AcDbLine
 10
407.4845126464323
 20
337.8914330354346
 30
0.0
 11
419.7845126464322
 21
337.8914330354346
 31
0.0
  0
INSERT
  5
194A
330
18
100
AcDbEntity
  8
0
  6
ByBlock
 62
     2
100
AcDbBlockReference
  2
_OPEN
 10
404.9845126464322
 20
337.8914330354346
 30
0.0
 41
2.5
 42
2.5
 43
2.5
 50
180.0
  0
INSERT
  5
194B
330
18
100
AcDbEntity
  8
0
  6
ByBlock
 62
     2
100
AcDbBlockReference
  2
_OPEN
 10
422.2845126464322
 20
337.8914330354346
 30
0.0
 41
2.5
 42
2.5
 43
2.5
  0
MTEXT
  5
194C
330
18
100
AcDbEntity
  8
0
  6
ByBlock
 62
     6
100
AcDbMText
 10
413.6345126464322
 20
339.7664330354347
 30
0.0
 40
2.5
 41
0.0
 71
     5
 72
     1
  1
\A1;17.3
  7
STYLE3
 73
     1
 44
1.0
  0
POINT
  5
194D
330
18
100
AcDbEntity
  8
DEFPOINTS
  6
ByBlock
 62
     0
100
AcDbPoint
 10
404.9845126464322
 20
279.9213439405833
 30
0.0
  0
POINT
  5
194E
330
18
100
AcDbEntity
  8
DEFPOINTS
  6
ByBlock
 62
     0
100
AcDbPoint
 10
422.2845126464322
 20
331.9143024816749
 30
0.0
  0
POINT
  5
194F
330
18
100
AcDbEntity
  8
DEFPOINTS
  6
ByBlock
 62
     0
100
AcDbPoint
 10
422.2845126464322
 20
337.8914330354346
 30
0.0
  0
LINE
  5
1950
330
18
100
AcDbEntity
  8
0
  6
ByBlock
 62
     2
100
AcDbLine
 10
353.4715593604967
 20
242.4213439405833
 30
0.0
 11
369.4622456578603
 21
242.4213439405833
 31
0.0
  0
LINE
  5
1951
330
18
100
AcDbEntity
  8
0
  6
ByBlock
 62
     2
100
AcDbLine
 10
351.4378431678721
 20
221.0213439405833
 30
0.0
 11
369.4622456578603
 21
221.0213439405833
 31
0.0
  0
LINE
  5
1952
330
18
100
AcDbEntity
  8
0
  6
ByBlock
 62
     2
100
AcDbLine
 10
368.2122456578603
 20
239.9213439405833
 30
0.0
 11
368.2122456578603
 21
223.5213439405833
 31
0.0
  0
INSERT
  5
1953
330
18
100
AcDbEntity
  8
0
  6
ByBlock
 62
     2
100
AcDbBlockReference
  2
_OPEN
 10
368.2122456578603
 20
242.4213439405833
 30
0.0
 41
2.5
 42
2.5
 43
2.5
 50
90.0
  0
INSERT
  5
1954
330
18
100
AcDbEntity
  8
0
  6
ByBlock
 62
     2
100
AcDbBlockReference
  2
_OPEN
 10
368.2122456578603
 20
221.0213439405833
 30
0.0
 41
2.5
 42
2.5
 43
2.5
 50
270.0
  0
MTEXT
  5
1955
330
18
100
AcDbEntity
  8
0
  6
ByBlock
 62
     6
100
AcDbMText
 10
366.3372456578603
 20
231.7213439405833
 30
0.0
 40
2.5
 41
0.0
 71
     5
 72
     1
  1
\A1;21.4
  7
STYLE3
 11
0.0000000000000001
 21
1.0
 31
0.0
 73
     1
 44
1.0
  0
POINT
  5
1956
330
18
100
AcDbEntity
  8
DEFPOINTS
  6
ByBlock
 62
     0
100
AcDbPoint
 10
353.4715593604967
 20
242.4213439405833
 30
0.0
  0
POINT
  5
1957
330
18
100
AcDbEntity
  8
DEFPOINTS
  6
ByBlock
 62
     0
100
AcDbPoint
 10
351.4378431678721
 20
221.0213439405833
 30
0.0
  0
POINT
  5
1958
330
18
100
AcDbEntity
  8
DEFPOINTS
  6
ByBlock
 62
     0
100
AcDbPoint
 10
368.2122456578603
 20
221.0213439405833
 30
0.0
  0
LINE
  5
1959
330
18
100
AcDbEntity
  8
0
  6
ByBlock
 62
     2
100
AcDbLine
 10
269.3764110165417
 20
262.6520806733702
 30
0.0
 11
269.3764110165417
 21
273.6778449021151
 31
0.0
  0
LINE
  5
195A
330
18
100
AcDbEntity
  8
0
  6
ByBlock
 62
     2
100
AcDbLine
 10
281.8305419613356
 20
262.6520806733703
 30
0.0
 11
281.8305419613356
 21
273.6778449021151
 31
0.0
  0
LINE
  5
195B
330
18
100
AcDbEntity
  8
0
  6
ByBlock
 62
     2
100
AcDbLine
 10
271.8764110165417
 20
272.427844902115
 30
0.0
 11
279.3305419613356
 21
272.427844902115
 31
0.0
  0
INSERT
  5
195C
330
18
100
AcDbEntity
  8
0
  6
ByBlock
 62
     2
100
AcDbBlockReference
  2
_OPEN
 10
269.3764110165417
 20
272.427844902115
 30
0.0
 41
2.5
 42
2.5
 43
2.5
 50
180.0
  0
INSERT
  5
195D
330
18
100
AcDbEntity
  8
0
  6
ByBlock
 62
     2
100
AcDbBlockReference
  2
_OPEN
 10
281.8305419613356
 20
272.427844902115
 30
0.0
 41
2.5
 42
2.5
 43
2.5
  0
MTEXT
  5
195E
330
18
100
AcDbEntity
  8
0
  6
ByBlock
 62
     6
100
AcDbMText
 10
275.6034764889387
 20
274.9576068068769
 30
0.0
 40
2.5
 41
0.0
 71
     5
 72
     1
  1
\A1;(6.35)
  7
STYLE3
 73
     1
 44
1.0
  0
POINT
  5
195F
330
18
100
AcDbEntity
  8
DEFPOINTS
  6
ByBlock
 62
     0
100
AcDbPoint
 10
269.3764110165417
 20
262.6520806733702
 30
0.0
  0
POINT
  5
1960
330
18
100
AcDbEntity
  8
DEFPOINTS
  6
ByBlock
 62
     0
100
AcDbPoint
 10
281.8305419613356
 20
262.6520806733703
 30
0.0
  0
POINT
  5
1961
330
18
100
AcDbEntity
  8
DEFPOINTS
  6
ByBlock
 62
     0
100
AcDbPoint
 10
281.8305419613356
 20
272.427844902115
 30
0.0
  0
LINE
  5
1962
330
18
100
AcDbEntity
  8
0
  6
ByBlock
 62
     2
100
AcDbLine
 10
267.1864110165417
 20
260.8520806733702
 30
0.0
 11
267.1864110165417
 21
280.2778263045175
 31
0.0
  0
LINE
  5
1963
330
18
100
AcDbEntity
  8
0
  6
ByBlock
 62
     2
100
AcDbLine
 10
284.2664110165419
 20
260.8520806733702
 30
0.0
 11
284.2664110165419
 21
280.2778263045175
 31
0.0
  0
LINE
  5
1964
330
18
100
AcDbEntity
  8
0
  6
ByBlock
 62
     2
100
AcDbLine
 10
269.6864110165417
 20
279.0278263045175
 30
0.0
 11
281.7664110165418
 21
279.0278263045175
 31
0.0
  0
INSERT
  5
1965
330
18
100
AcDbEntity
  8
0
  6
ByBlock
 62
     2
100
AcDbBlockReference
  2
_OPEN
 10
267.1864110165417
 20
279.0278263045175
 30
0.0
 41
2.5
 42
2.5
 43
2.5
 50
180.0
  0
INSERT
  5
1966
330
18
100
AcDbEntity
  8
0
  6
ByBlock
 62
     2
100
AcDbBlockReference
  2
_OPEN
 10
284.2664110165419
 20
279.0278263045175
 30
0.0
 41
2.5
 42
2.5
 43
2.5
  0
MTEXT
  5
1967
330
18
100
AcDbEntity
  8
0
  6
ByBlock
 62
     6
100
AcDbMText
 10
275.7264110165418
 20
280.9028263045174
 30
0.0
 40
2.5
 41
0.0
 71
     5
 72
     1
  1
\A1;8.54
  7
STYLE3
 73
     1
 44
1.0
  0
POINT
  5
1968
330
18
100
AcDbEntity
  8
DEFPOINTS
  6
ByBlock
 62
     0
100
AcDbPoint
 10
267.1864110165417
 20
260.8520806733702
 30
0.0
  0
POINT
  5
1969
330
18
100
AcDbEntity
  8
DEFPOINTS
  6
ByBlock
 62
     0
100
AcDbPoint
 10
284.2664110165419
 20
260.8520806733702
 30
0.0
  0
POINT
  5
196A
330
18
100
AcDbEntity
  8
DEFPOINTS
  6
ByBlock
 62
     0
100
AcDbPoint
 10
284.2664110165419
 20
279.0278263045175
 30
0.0
  0
LINE
  5
196B
330
18
100
AcDbEntity
  8
寸法線
 62
     2
100
AcDbLine
 10
340.5398035230768
 20
253.3907208904463
 30
0.0
 11
333.7576530067503
 21
263.5477361800712
 31
0.0
1001
ACAD
1000
DSTYLE
1002
{
1070
   271
1070
     2
1002
}
  0
LINE
  5
196C
330
18
100
AcDbEntity
  8
寸法線
 62
     2
100
AcDbLine
 10
333.7576530067503
 20
263.5477361800712
 30
0.0
 11
328.7278911019884
 21
263.5477361800712
 31
0.0
1001
ACAD
1000
DSTYLE
1002
{
1070
   271
1070
     2
1002
}
  0
HATCH
  5
196D
330
18
100
AcDbEntity
  8
ROGO
 62
     4
100
AcDbHatch
 10
0.0
 20
0.0
 30
0.0
210
0.0
220
0.0
230
1.0
  2
SOLID
 70
     1
 71
     1
 91
        1
 92
        7
 72
     0
 73
     1
 93
       11
 10
351.2065121676597
 20
284.9213439405833
 10
351.7536867941196
 20
284.9213439405833
 10
351.9469492422205
 20
285.3089290393948
 10
352.1402116903213
 20
284.9213439405833
 10
352.6873743450406
 20
284.9213439405833
 10
352.3171558077602
 20
285.663811966647
 10
353.216643642531
 20
286.4062799927109
 10
352.6694809878118
 20
286.4062799927109
 10
352.4132832075842
 20
286.2441551933676
 10
352.4941238686805
 20
286.406279992711
 10
351.9469492422204
 20
286.4062799927109
 97
       11
330
19BB
330
19BE
330
19BD
330
19BC
330
1972
330
196F
330
19B8
330
19B7
330
19B9
330
19B6
330
19BA
 75
     0
 76
     1
 47
0.0514683685270805
 98
        1
 10
351.8998574547071
 20
285.7692134895766
450
        0
451
        0
460
0.0
461
0.0
452
        0
462
0.0
453
        0
470

  0
HATCH
  5
196E
330
18
100
AcDbEntity
  8
ROGO
 62
     4
100
AcDbHatch
 10
0.0
 20
0.0
 30
0.0
210
0.0
220
0.0
230
1.0
  2
SOLID
 70
     1
 71
     1
 91
        1
 92
        5
 93
        8
 72
     4
 94
        3
 73
     0
 74
     0
 95
       26
 96
       22
 40
0.0
 40
0.0
 40
0.0
 40
0.0
 40
0.1723984759424608
 40
0.2878059064036966
 40
0.3710240621887089
 40
0.4331603664333254
 40
0.5137544142125283
 40
0.572580212192407
 40
0.6788058922657624
 40
0.7652720686804436
 40
0.8240829233522806
 40
0.8817499774613361
 40
0.984905126098422
 40
1.057848128260907
 40
1.097133570529052
 40
1.152937380796412
 40
1.193234564309735
 40
1.251611879021434
 40
1.284648389624301
 40
1.356539542405996
 40
1.389365667278746
 40
1.389365667278746
 40
1.389365667278746
 40
1.389365667278746
 10
350.7962269914874
 20
286.4062799927109
 10
350.7377122850487
 20
286.4027889049826
 10
350.6400265135683
 20
286.3969608043425
 10
350.5327681307327
 20
286.3318024886398
 10
350.4541843602178
 20
286.2939223072656
 10
350.3981385103892
 20
286.2424274278664
 10
350.3570566752717
 20
286.1892369790769
 10
350.3052653098065
 20
286.1258609493466
 10
350.2630309312093
 20
286.0520621273063
 10
350.241523529783
 20
285.9707229598366
 10
350.2224724777267
 20
285.9058951714184
 10
350.2083438985896
 20
285.8336530614255
 10
350.2119386090969
 20
285.7556061691876
 10
350.2170863990603
 20
285.6831202112627
 10
350.2400700294693
 20
285.6313760899405
 10
350.2662443134028
 20
285.5945378412044
 10
350.2982943656243
 20
285.5539645942857
 10
350.3333641315256
 20
285.5270930642328
 10
350.3623696905192
 20
285.4784134818185
 10
350.4131429430541
 20
285.4722016160229
 10
350.4454164423023
 20
285.459838149096
 10
350.4555333393429
 20
285.4559625259105
 72
     1
 10
350.4555333393429
 20
285.4559625259105
 11
351.2740542835321
 21
285.4559625259105
 72
     1
 10
351.2740542835321
 20
285.4559625259105
 11
351.4503586803112
 21
285.8095384932963
 72
     1
 10
351.4503586803112
 20
285.8095384932963
 11
350.8426850548747
 21
285.8095384932963
 72
     4
 94
        3
 73
     0
 74
     0
 95
       16
 96
       12
 40
0.0
 40
0.0
 40
0.0
 40
0.0
 40
0.0520638816757992
 40
0.1046647644702509
 40
0.1360388269655429
 40
0.1661200957203634
 40
0.1991564750640333
 40
0.222226618446301
 40
0.2441181822786699
 40
0.2885111307736893
 40
0.3794005943324992
 40
0.3794005943324992
 40
0.3794005943324992
 40
0.3794005943324992
 10
350.8426850548746
 20
285.8095384932962
 10
350.8243554768561
 20
285.8149313239092
 10
350.7875072645369
 20
285.8257726082653
 10
350.7844233667218
 20
285.8783271720572
 10
350.7886247313322
 20
285.9157765992839
 10
350.8062200557048
 20
285.9430419692109
 10
350.8275662360369
 20
285.9628811132397
 10
350.8355143657041
 20
285.9887184963659
 10
350.85887716871
 20
286.0082289531644
 10
350.900305678375
 20
286.0410233056134
 10
350.9461184383641
 20
286.0480077699427
 10
350.9768977327036
 20
286.0527002810126
 72
     1
 10
350.9768977327037
 20
286.0527002810126
 11
351.5716070010613
 21
286.0527002810126
 72
     1
 10
351.5716070010613
 20
286.0527002810126
 11
351.7479132648757
 21
286.4062799927109
 72
     1
 10
351.7479132648757
 20
286.4062799927109
 11
350.7962269914874
 21
286.4062799927109
 97
        8
330
1970
330
1994
330
19A0
330
1999
330
19B4
330
19B3
330
19B5
330
1971
 75
     0
 76
     1
 47
0.0514683685270805
 98
        1
 10
350.9604461815653
 20
286.2322736322291
450
        0
451
        0
460
0.0
461
0.0
452
        0
462
0.0
453
        0
470

  0
LINE
  5
196F
102
{ACAD_REACTORS
330
196D
330
1978
102
}
330
18
100
AcDbEntity
  8
ROGO
 62
     4
100
AcDbLine
 10
341.7021475853155
 20
284.9213439405833
 30
0.0
 11
351.7536867941196
 21
284.9213439405833
 31
0.0
  0
LINE
  5
1970
102
{ACAD_REACTORS
330
196E
102
}
330
18
100
AcDbEntity
  8
ROGO
 62
     4
100
AcDbLine
 10
350.7962269914877
 20
286.4062799927109
 30
0.0
 11
351.7479132648757
 21
286.4062799927109
 31
0.0
  0
LINE
  5
1971
102
{ACAD_REACTORS
330
196E
102
}
330
18
100
AcDbEntity
  8
ROGO
 62
     4
100
AcDbLine
 10
351.7479132648757
 20
286.4062799927109
 30
0.0
 11
351.5716070010613
 21
286.0527002810126
 31
0.0
  0
LINE
  5
1972
102
{ACAD_REACTORS
330
196D
102
}
330
18
100
AcDbEntity
  8
ROGO
 62
     4
100
AcDbLine
 10
351.9469492422205
 20
286.4062799927109
 30
0.0
 11
351.2065121676596
 21
284.9213439405833
 31
0.0
  0
HATCH
  5
1973
330
18
100
AcDbEntity
  8
ROGO
 62
     4
100
AcDbHatch
 10
0.0
 20
0.0
 30
0.0
210
0.0
220
0.0
230
1.0
  2
SOLID
 70
     1
 71
     0
 91
        1
 92
        7
 72
     0
 73
     1
 93
        4
 10
351.2807299270082
 20
285.0701866043979
 10
342.4597499713069
 20
285.0701866043979
 10
342.3924093280864
 20
284.9213439405831
 10
351.2065121676596
 20
284.9213439405831
 97
        0
 75
     0
 76
     1
 47
0.0514683685270805
 98
        1
 10
348.0294830806011
 20
285.0308201118935
450
        0
451
        0
460
0.0
461
0.0
452
        0
462
0.0
453
        0
470

  0
HATCH
  5
1974
330
18
100
AcDbEntity
  8
ROGO
 62
     4
100
AcDbHatch
 10
0.0
 20
0.0
 30
0.0
210
0.0
220
0.0
230
1.0
  2
SOLID
 70
     1
 71
     1
 91
        2
 92
        7
 72
     0
 73
     1
 93
        8
 10
346.5001759388647
 20
286.4062799927109
 10
345.9509296115256
 20
286.4062799927109
 10
345.2656372170113
 20
285.4559625259105
 10
345.7919429962764
 20
285.4559625259105
 10
345.9224184281522
 20
285.6368970917872
 10
346.5286871222381
 20
285.6368970917872
 10
346.6591625541141
 20
285.4559625259105
 10
347.1854683333792
 20
285.4559625259105
 97
        8
330
1976
330
197E
330
1983
330
197F
330
1975
330
1997
330
199D
330
1996
 92
       22
 72
     0
 73
     1
 93
        3
 10
346.3910707497732
 20
285.8277342344695
 10
346.0600348006172
 20
285.8277342344696
 10
346.2255527751951
 20
286.0572634450226
 97
        3
330
19A2
330
19A1
330
19A3
 75
     0
 76
     1
 47
0.0514683685270805
 98
        2
 10
346.564001530119
 20
285.919395116563
 10
346.564001530119
 20
285.919395116563
450
        0
451
        0
460
0.0
461
0.0
452
        0
462
0.0
453
        0
470

  0
LINE
  5
1975
102
{ACAD_REACTORS
330
1974
102
}
330
18
100
AcDbEntity
  8
ROGO
 62
     4
100
AcDbLine
 10
345.9224184281523
 20
285.6368970917872
 30
0.0
 11
346.5286871222381
 21
285.6368970917872
 31
0.0
  0
LINE
  5
1976
102
{ACAD_REACTORS
330
1974
102
}
330
18
100
AcDbEntity
  8
ROGO
 62
     4
100
AcDbLine
 10
345.9509296115256
 20
286.4062799927109
 30
0.0
 11
346.5001759388648
 21
286.4062799927109
 31
0.0
  0
LINE
  5
1977
330
18
100
AcDbEntity
  8
ROGO
 62
     4
100
AcDbLine
 10
342.4494275747258
 20
285.070186604398
 30
0.0
 11
351.2807299270082
 21
285.070186604398
 31
0.0
  0
HATCH
  5
1978
330
18
100
AcDbEntity
  8
ROGO
 62
     4
100
AcDbHatch
 10
0.0
 20
0.0
 30
0.0
210
0.0
220
0.0
230
1.0
  2
SOLID
 70
     1
 71
     1
 91
        2
 92
        5
 93
        6
 72
     1
 10
341.7021475853154
 20
284.9213439405833
 11
342.3924093280864
 21
284.9213439405833
 72
     1
 10
342.3924093280864
 20
284.9213439405833
 11
342.6342859412216
 21
285.4559625259104
 72
     1
 10
342.6342859412216
 20
285.4559625259104
 11
343.2795390972673
 21
285.4559625259105
 72
     4
 94
        3
 73
     0
 74
     0
 95
       18
 96
       14
 40
0.108740278791501
 40
0.108740278791501
 40
0.108740278791501
 40
0.108740278791501
 40
0.6623149649549278
 40
1.384304701649787
 40
2.097394834876493
 40
2.774073369849618
 40
3.428974823686337
 40
4.005208313035923
 40
4.455173659284313
 40
4.720999734343524
 40
5.086034088486724
 40
5.569973738255373
 40
6.060470601257719
 40
6.060470601257719
 40
6.060470601257719
 40
6.060470601257719
 10
343.2795390972674
 20
285.4559625259105
 10
343.324950948372
 20
285.4563006942154
 10
343.4295903820258
 20
285.4570799123942
 10
343.5759801309104
 20
285.5352845329534
 10
343.7147994391752
 20
285.6349115216332
 10
343.8266089482988
 20
285.7593850498822
 10
343.8962696411625
 20
285.9016992041453
 10
343.9070598623015
 20
286.0380942490761
 10
343.9004726973934
 20
286.1459810339387
 10
343.8534040955453
 20
286.2211808013829
 10
343.804470540208
 20
286.2975008751559
 10
343.7147429463804
 20
286.3636121577776
 10
343.641224175518
 20
286.3925787270846
 10
343.6038383852675
 20
286.406279992711
 72
     1
 10
343.6038383852676
 20
286.4062799927109
 11
342.4368801338539
 21
286.4062799927109
 72
     1
 10
342.4368801338539
 20
286.4062799927109
 11
341.7021475853154
 21
284.9213439405833
 97
        6
330
197A
330
1984
330
197B
330
196F
330
1981
330
1980
 92
       20
 93
        4
 72
     1
 10
342.78363105691
 20
285.7860592369566
 11
342.8979733980335
 21
286.0387895024506
 72
     1
 10
342.8979733980335
 20
286.0387895024506
 11
343.1917844828256
 21
286.0387895024506
 72
     4
 94
        3
 73
     0
 74
     0
 95
       15
 96
       11
 40
0.0
 40
0.0
 40
0.0
 40
0.0
 40
0.1114278057886432
 40
0.1622327562563865
 40
0.2198997572250677
 40
0.259185199493265
 40
0.3213155338880433
 40
0.3585299069784071
 40
0.4223775764185746
 40
0.4436601464819452
 40
0.4436601464819452
 40
0.4436601464819452
 40
0.4436601464819452
 10
343.1917844828256
 20
286.0387895024506
 10
343.2336346058424
 20
286.038981198353
 10
343.2945660830319
 20
286.0392602970428
 10
343.3278855848933
 20
285.9638878835521
 10
343.3129501954796
 20
285.915359807217
 10
343.2941751937328
 20
285.8655365979291
 10
343.2609955133892
 20
285.8316809757771
 10
343.216463522443
 20
285.7990723043752
 10
343.1743786629074
 20
285.7951248786871
 10
343.1470071859644
 20
285.787872365997
 10
343.1401643134532
 20
285.7860592369565
 72
     1
 10
343.1401643134533
 20
285.7860592369565
 11
342.78363105691
 21
285.7860592369566
 97
        4
330
1987
330
1985
330
1989
330
1986
 75
     0
 76
     1
 47
0.0514683685270805
 98
        2
 10
342.4431173446563
 20
285.9444254718015
 10
342.4431173446563
 20
285.9444254718015
450
        0
451
        0
460
0.0
461
0.0
452
        0
462
0.0
453
        0
470

  0
HATCH
  5
1979
330
18
100
AcDbEntity
  8
ROGO
 62
     4
100
AcDbHatch
 10
0.0
 20
0.0
 30
0.0
210
0.0
220
0.0
230
1.0
  2
SOLID
 70
     1
 71
     1
 91
        1
 92
        1
 93
       12
 72
     1
 10
344.2932483650571
 20
286.4062799927109
 11
345.5785922743373
 21
286.406279992711
 72
     1
 10
345.5785922743373
 20
286.4062799927109
 11
345.4708815924679
 21
286.188590610329
 72
     1
 10
345.4708815924679
 20
286.188590610329
 11
344.79533731367
 21
286.188590610329
 72
     1
 10
344.79533731367
 20
286.188590610329
 11
344.7111209451931
 21
286.0183845646334
 72
     1
 10
344.7111209451931
 20
286.0183845646334
 11
345.386665223991
 21
286.0183845646334
 72
     1
 10
345.386665223991
 20
286.0183845646334
 11
345.3003092275077
 21
285.8438542096755
 72
     1
 10
345.3003092275077
 20
285.8438542096756
 11
344.6247649487098
 21
285.8438542096755
 72
     1
 10
344.6247649487098
 20
285.8438542096755
 11
344.5405450149167
 21
285.6736409582741
 72
     1
 10
344.5405450149167
 20
285.6736409582741
 11
345.2160892937146
 21
285.6736409582741
 72
     1
 10
345.2160892937146
 20
285.6736409582741
 11
345.1083840298124
 21
285.4559625259105
 72
     1
 10
345.1083840298124
 20
285.4559625259105
 11
343.8230401205321
 21
285.4559625259105
 72
     1
 10
343.8230401205321
 20
285.4559625259105
 11
344.2932483650571
 21
286.4062799927109
 97
       12
330
1988
330
198A
330
198C
330
198B
330
198D
330
1990
330
198F
330
1991
330
198E
330
197D
330
1982
330
197C
 75
     0
 76
     1
 98
        1
 10
291.716655388024
 20
220.6960795275452
450
        0
451
        0
460
0.0
461
0.0
452
        0
462
0.0
453
        0
470

  0
SPLINE
  5
197A
102
{ACAD_REACTORS
330
1978
102
}
330
18
100
AcDbEntity
  8
ROGO
 62
     4
100
AcDbSpline
210
0.0
220
0.0
230
1.0
 70
     8
 71
     3
 72
    18
 73
    14
 74
     0
 42
0.0000000001
 43
0.0000000001
 40
0.1087402787915014
 40
0.1087402787915014
 40
0.1087402787915014
 40
0.1087402787915014
 40
0.5992371417938475
 40
1.083176791562496
 40
1.448211145705696
 40
1.714037220764907
 40
2.164002567013297
 40
2.740236056362883
 40
3.395137510199602
 40
4.071816045172726
 40
4.784906178399433
 40
5.506895915094292
 40
6.060470601257719
 40
6.060470601257719
 40
6.060470601257719
 40
6.060470601257719
 10
343.6038383852675
 20
286.406279992711
 30
0.0
 10
343.641224175518
 20
286.3925787270846
 30
0.0
 10
343.7147429463804
 20
286.3636121577776
 30
0.0
 10
343.804470540208
 20
286.2975008751559
 30
0.0
 10
343.8534040955453
 20
286.2211808013829
 30
0.0
 10
343.9004726973934
 20
286.1459810339387
 30
0.0
 10
343.9070598623015
 20
286.0380942490761
 30
0.0
 10
343.8962696411625
 20
285.9016992041453
 30
0.0
 10
343.8266089482988
 20
285.7593850498822
 30
0.0
 10
343.7147994391752
 20
285.6349115216332
 30
0.0
 10
343.5759801309104
 20
285.5352845329534
 30
0.0
 10
343.4295903820258
 20
285.4570799123942
 30
0.0
 10
343.324950948372
 20
285.4563006942154
 30
0.0
 10
343.2795390972674
 20
285.4559625259105
 30
0.0
  0
LINE
  5
197B
102
{ACAD_REACTORS
330
1978
102
}
330
18
100
AcDbEntity
  8
ROGO
 62
     4
100
AcDbLine
 10
342.4368801338538
 20
286.4062799927109
 30
0.0
 11
341.7021475853155
 21
284.9213439405833
 31
0.0
  0
LINE
  5
197C
102
{ACAD_REACTORS
330
1979
102
}
330
18
100
AcDbEntity
  8
ROGO
 62
     4
100
AcDbLine
 10
344.2932483650571
 20
286.4062799927109
 30
0.0
 11
343.8230401205321
 21
285.4559625259105
 31
0.0
  0
LINE
  5
197D
102
{ACAD_REACTORS
330
1979
102
}
330
18
100
AcDbEntity
  8
ROGO
 62
     4
100
AcDbLine
 10
345.2160892937146
 20
285.6736409582741
 30
0.0
 11
345.1083840298124
 21
285.4559625259105
 31
0.0
  0
LINE
  5
197E
102
{ACAD_REACTORS
330
1974
102
}
330
18
100
AcDbEntity
  8
ROGO
 62
     4
100
AcDbLine
 10
345.9509296115256
 20
286.4062799927109
 30
0.0
 11
345.2656372170112
 21
285.4559625259105
 31
0.0
  0
LINE
  5
197F
102
{ACAD_REACTORS
330
1974
102
}
330
18
100
AcDbEntity
  8
ROGO
 62
     4
100
AcDbLine
 10
345.9224184281523
 20
285.6368970917872
 30
0.0
 11
345.7919429962764
 21
285.4559625259105
 31
0.0
  0
LINE
  5
1980
102
{ACAD_REACTORS
330
1978
102
}
330
18
100
AcDbEntity
  8
ROGO
 62
     4
100
AcDbLine
 10
343.279539097491
 20
285.4559625259105
 30
0.0
 11
342.6342859412216
 21
285.4559625259105
 31
0.0
  0
LINE
  5
1981
102
{ACAD_REACTORS
330
1978
102
}
330
18
100
AcDbEntity
  8
ROGO
 62
     4
100
AcDbLine
 10
342.6342859412216
 20
285.4559625259105
 30
0.0
 11
342.3924093280864
 21
284.9213439405833
 31
0.0
  0
LINE
  5
1982
102
{ACAD_REACTORS
330
1979
102
}
330
18
100
AcDbEntity
  8
ROGO
 62
     4
100
AcDbLine
 10
343.8230401205321
 20
285.4559625259105
 30
0.0
 11
345.1083840298124
 21
285.4559625259105
 31
0.0
  0
LINE
  5
1983
102
{ACAD_REACTORS
330
1974
102
}
330
18
100
AcDbEntity
  8
ROGO
 62
     4
100
AcDbLine
 10
345.2656372170112
 20
285.4559625259105
 30
0.0
 11
345.7919429962764
 21
285.4559625259105
 31
0.0
  0
LINE
  5
1984
102
{ACAD_REACTORS
330
1978
102
}
330
18
100
AcDbEntity
  8
ROGO
 62
     4
100
AcDbLine
 10
342.4368801338538
 20
286.4062799927109
 30
0.0
 11
343.6038383852675
 21
286.4062799927109
 31
0.0
  0
LINE
  5
1985
102
{ACAD_REACTORS
330
1978
102
}
330
18
100
AcDbEntity
  8
ROGO
 62
     4
100
AcDbLine
 10
343.1917844828256
 20
286.0387895024506
 30
0.0
 11
342.8979733980335
 21
286.0387895024506
 31
0.0
  0
LINE
  5
1986
102
{ACAD_REACTORS
330
1978
102
}
330
18
100
AcDbEntity
  8
ROGO
 62
     4
100
AcDbLine
 10
343.1401643134532
 20
285.7860592369565
 30
0.0
 11
342.78363105691
 21
285.7860592369565
 31
0.0
  0
LINE
  5
1987
102
{ACAD_REACTORS
330
1978
102
}
330
18
100
AcDbEntity
  8
ROGO
 62
     4
100
AcDbLine
 10
342.8979733980335
 20
286.0387895024506
 30
0.0
 11
342.78363105691
 21
285.7860592369565
 31
0.0
  0
LINE
  5
1988
102
{ACAD_REACTORS
330
1979
102
}
330
18
100
AcDbEntity
  8
ROGO
 62
     4
100
AcDbLine
 10
344.2932483650571
 20
286.4062799927109
 30
0.0
 11
345.5785922743373
 21
286.406279992711
 31
0.0
  0
SPLINE
  5
1989
102
{ACAD_REACTORS
330
1978
102
}
330
18
100
AcDbEntity
  8
ROGO
 62
     4
100
AcDbSpline
210
0.0
220
0.0
230
1.0
 70
     8
 71
     3
 72
    15
 73
    11
 74
     9
 42
0.0000000001
 43
0.0000000001
 44
0.0000000001
 40
0.0
 40
0.0
 40
0.0
 40
0.0
 40
0.1114278057886432
 40
0.1622327562563865
 40
0.2198997572250677
 40
0.259185199493265
 40
0.3213155338880433
 40
0.3585299069784071
 40
0.4223775764185746
 40
0.4436601464819452
 40
0.4436601464819452
 40
0.4436601464819452
 40
0.4436601464819452
 10
343.1917844828256
 20
286.0387895024506
 30
0.0
 10
343.2336346058424
 20
286.038981198353
 30
0.0
 10
343.2945660830319
 20
286.0392602970428
 30
0.0
 10
343.3278855848933
 20
285.9638878835521
 30
0.0
 10
343.3129501954796
 20
285.915359807217
 30
0.0
 10
343.2941751937328
 20
285.8655365979291
 30
0.0
 10
343.2609955133892
 20
285.8316809757771
 30
0.0
 10
343.216463522443
 20
285.7990723043752
 30
0.0
 10
343.1743786629074
 20
285.7951248786871
 30
0.0
 10
343.1470071859644
 20
285.787872365997
 30
0.0
 10
343.1401643134532
 20
285.7860592369565
 30
0.0
 11
343.1917844828256
 21
286.0387895024506
 31
0.0
 11
343.3001869275553
 21
286.0130006312173
 31
0.0
 11
343.3208350546694
 21
285.9665808311455
 31
0.0
 11
343.3105111395255
 21
285.9098454825802
 31
0.0
 11
343.2950251183964
 21
285.8737410628536
 31
0.0
 11
343.2537288641681
 21
285.8273212627817
 31
0.0
 11
343.22275682191
 21
285.8066901657951
 31
0.0
 11
343.1608124405674
 21
285.7912170112032
 31
0.0
 11
343.1401643134532
 21
285.7860592369565
 31
0.0
  0
LINE
  5
198A
102
{ACAD_REACTORS
330
1979
102
}
330
18
100
AcDbEntity
  8
ROGO
 62
     4
100
AcDbLine
 10
345.5785922743373
 20
286.4062799927109
 30
0.0
 11
345.4708815924679
 21
286.188590610329
 31
0.0
  0
LINE
  5
198B
102
{ACAD_REACTORS
330
1979
102
}
330
18
100
AcDbEntity
  8
ROGO
 62
     4
100
AcDbLine
 10
344.79533731367
 20
286.188590610329
 30
0.0
 11
344.7111209451931
 21
286.0183845646334
 31
0.0
  0
LINE
  5
198C
102
{ACAD_REACTORS
330
1979
102
}
330
18
100
AcDbEntity
  8
ROGO
 62
     4
100
AcDbLine
 10
344.79533731367
 20
286.188590610329
 30
0.0
 11
345.4708815924679
 21
286.188590610329
 31
0.0
  0
LINE
  5
198D
102
{ACAD_REACTORS
330
1979
102
}
330
18
100
AcDbEntity
  8
ROGO
 62
     4
100
AcDbLine
 10
344.7111209451931
 20
286.0183845646334
 30
0.0
 11
345.386665223991
 21
286.0183845646334
 31
0.0
  0
LINE
  5
198E
102
{ACAD_REACTORS
330
1979
102
}
330
18
100
AcDbEntity
  8
ROGO
 62
     4
100
AcDbLine
 10
344.5405450149167
 20
285.6736409582741
 30
0.0
 11
345.2160892937146
 21
285.6736409582741
 31
0.0
  0
LINE
  5
198F
102
{ACAD_REACTORS
330
1979
102
}
330
18
100
AcDbEntity
  8
ROGO
 62
     4
100
AcDbLine
 10
344.6247649487098
 20
285.8438542096755
 30
0.0
 11
345.3003092275077
 21
285.8438542096756
 31
0.0
  0
LINE
  5
1990
102
{ACAD_REACTORS
330
1979
102
}
330
18
100
AcDbEntity
  8
ROGO
 62
     4
100
AcDbLine
 10
345.386665223991
 20
286.0183845646334
 30
0.0
 11
345.3003092275077
 21
285.8438542096755
 31
0.0
  0
LINE
  5
1991
102
{ACAD_REACTORS
330
1979
102
}
330
18
100
AcDbEntity
  8
ROGO
 62
     4
100
AcDbLine
 10
344.6247649487098
 20
285.8438542096755
 30
0.0
 11
344.5405450149167
 21
285.6736409582741
 31
0.0
  0
HATCH
  5
1992
330
18
100
AcDbEntity
  8
ROGO
 62
     4
100
AcDbHatch
 10
0.0
 20
0.0
 30
0.0
210
0.0
220
0.0
230
1.0
  2
SOLID
 70
     1
 71
     1
 91
        2
 92
        7
 72
     1
 73
     1
 93
        4
 10
349.5518540758449
 20
286.4062799927109
 42
0.0
 10
349.1675800760671
 20
286.4062799927109
 42
0.9597396185048687
 10
349.1675800760669
 20
285.4559625259105
 42
0.0
 10
349.5794697015718
 20
285.4559625259105
 42
0.9713627655753143
 97
        4
330
19B2
330
199A
330
199F
330
199B
 92
       22
 72
     1
 73
     1
 93
        2
 10
349.4877682293373
 20
285.8851294421606
 42
0.1034173650218193
 10
349.4934272654879
 20
285.9256167742442
 42
0.0
 97
        8
330
19AA
330
19B0
330
19AC
330
19AF
330
19AB
330
19AE
330
19A9
330
19AD
 75
     0
 76
     1
 47
0.0514683685270805
 98
        2
 10
349.6452703398015
 20
286.0195162012207
 10
349.6452703398015
 20
286.0195162012207
450
        0
451
        0
460
0.0
461
0.0
452
        0
462
0.0
453
        0
470

  0
HATCH
  5
1993
330
18
100
AcDbEntity
  8
ROGO
 62
     4
100
AcDbHatch
 10
0.0
 20
0.0
 30
0.0
210
0.0
220
0.0
230
1.0
  2
SOLID
 70
     1
 71
     1
 91
        1
 92
        5
 93
        8
 72
     1
 10
348.5095995919802
 20
286.0527002810126
 11
348.6859058557947
 21
286.406279992711
 72
     1
 10
348.6859058557947
 20
286.406279992711
 11
347.7342195824064
 21
286.4062799927109
 72
     4
 94
        3
 73
     0
 74
     0
 95
       26
 96
       22
 40
0.0
 40
0.0
 40
0.0
 40
0.0
 40
0.1723984759425082
 40
0.2878059064037186
 40
0.3710240621887309
 40
0.4331603664333474
 40
0.5137544142125066
 40
0.572580212192465
 40
0.6788058922657929
 40
0.7652720686804741
 40
0.8240829233522561
 40
0.8817499774613677
 40
0.9849051260984536
 40
1.057848128260939
 40
1.097133570529084
 40
1.152937380796444
 40
1.19323456430973
 40
1.251611879021469
 40
1.284648389624336
 40
1.356539542406011
 40
1.38936566727878
 40
1.38936566727878
 40
1.38936566727878
 40
1.38936566727878
 10
347.7342195824064
 20
286.4062799927109
 10
347.6757048759677
 20
286.4027889049827
 10
347.5780191044872
 20
286.3969608043427
 10
347.4707607216517
 20
286.3318024886398
 10
347.3921769511367
 20
286.2939223072656
 10
347.3361311013081
 20
286.2424274278664
 10
347.2950492661907
 20
286.1892369790769
 10
347.2432579007254
 20
286.1258609493465
 10
347.2010235221282
 20
286.0520621273063
 10
347.1795161207019
 20
285.9707229598366
 10
347.1604650686456
 20
285.9058951714185
 10
347.1463364895085
 20
285.8336530614254
 10
347.149931200016
 20
285.7556061691877
 10
347.1550789899792
 20
285.6831202112626
 10
347.1780626203883
 20
285.6313760899405
 10
347.2042369043218
 20
285.5945378412043
 10
347.2362869565432
 20
285.5539645942857
 10
347.2713567224446
 20
285.5270930642327
 10
347.3003622814381
 20
285.4784134818185
 10
347.3511355339732
 20
285.472201616023
 10
347.3834090332212
 20
285.459838149096
 10
347.3935259302618
 20
285.4559625259105
 72
     1
 10
347.3935259302619
 20
285.4559625259105
 11
348.2120468744509
 21
285.4559625259105
 72
     1
 10
348.2120468744509
 20
285.4559625259105
 11
348.3883512712302
 21
285.8095384932963
 72
     1
 10
348.3883512712302
 20
285.8095384932963
 11
347.7806776457935
 21
285.8095384932962
 72
     4
 94
        3
 73
     0
 74
     0
 95
       16
 96
       12
 40
0.0
 40
0.0
 40
0.0
 40
0.0
 40
0.0520638816757735
 40
0.1046647644702809
 40
0.1360388269655169
 40
0.1661200957203374
 40
0.1991564750640073
 40
0.2222266184463259
 40
0.2441181822786546
 40
0.2885111307736739
 40
0.3794005943324437
 40
0.3794005943324437
 40
0.3794005943324437
 40
0.3794005943324437
 10
347.7806776457935
 20
285.8095384932963
 10
347.7623480677751
 20
285.8149313239092
 10
347.7254998554558
 20
285.8257726082655
 10
347.7224159576407
 20
285.878327172057
 10
347.7266173222513
 20
285.9157765992841
 10
347.7442126466237
 20
285.9430419692109
 10
347.7655588269558
 20
285.9628811132397
 10
347.773506956623
 20
285.9887184963659
 10
347.796869759629
 20
286.0082289531645
 10
347.8382982692939
 20
286.0410233056134
 10
347.884111029283
 20
286.0480077699426
 10
347.9148903236225
 20
286.0527002810126
 72
     1
 10
347.9148903236226
 20
286.0527002810126
 11
348.5095995919802
 21
286.0527002810126
 97
        8
330
19A8
330
1995
330
199C
330
1998
330
19A7
330
19A4
330
19A6
330
19A5
 75
     0
 76
     1
 47
0.0514683685270805
 98
        1
 10
348.0670595077807
 20
286.1947281834455
450
        0
451
        0
460
0.0
461
0.0
452
        0
462
0.0
453
        0
470

  0
SPLINE
  5
1994
102
{ACAD_REACTORS
330
196E
102
}
330
18
100
AcDbEntity
  8
ROGO
 62
     4
100
AcDbSpline
210
0.0
220
0.0
230
1.0
 70
     8
 71
     3
 72
    26
 73
    22
 74
    20
 42
0.0000000001
 43
0.0000000001
 44
0.0000000001
 40
0.0
 40
0.0
 40
0.0
 40
0.0
 40
0.1723984759424608
 40
0.2878059064036966
 40
0.3710240621887089
 40
0.4331603664333254
 40
0.5137544142125283
 40
0.572580212192407
 40
0.6788058922657624
 40
0.7652720686804436
 40
0.8240829233522806
 40
0.8817499774613361
 40
0.984905126098422
 40
1.057848128260907
 40
1.097133570529052
 40
1.152937380796412
 40
1.193234564309735
 40
1.251611879021434
 40
1.284648389624301
 40
1.356539542405996
 40
1.389365667278746
 40
1.389365667278746
 40
1.389365667278746
 40
1.389365667278746
 10
350.7962269914874
 20
286.4062799927109
 30
0.0
 10
350.7377122850487
 20
286.4027889049826
 30
0.0
 10
350.6400265135683
 20
286.3969608043425
 30
0.0
 10
350.5327681307327
 20
286.3318024886398
 30
0.0
 10
350.4541843602178
 20
286.2939223072656
 30
0.0
 10
350.3981385103892
 20
286.2424274278664
 30
0.0
 10
350.3570566752717
 20
286.1892369790769
 30
0.0
 10
350.3052653098065
 20
286.1258609493466
 30
0.0
 10
350.2630309312093
 20
286.0520621273063
 30
0.0
 10
350.241523529783
 20
285.9707229598366
 30
0.0
 10
350.2224724777267
 20
285.9058951714184
 30
0.0
 10
350.2083438985896
 20
285.8336530614255
 30
0.0
 10
350.2119386090969
 20
285.7556061691876
 30
0.0
 10
350.2170863990603
 20
285.6831202112627
 30
0.0
 10
350.2400700294693
 20
285.6313760899405
 30
0.0
 10
350.2662443134028
 20
285.5945378412044
 30
0.0
 10
350.2982943656243
 20
285.5539645942857
 30
0.0
 10
350.3333641315256
 20
285.5270930642328
 30
0.0
 10
350.3623696905192
 20
285.4784134818185
 30
0.0
 10
350.4131429430541
 20
285.4722016160229
 30
0.0
 10
350.4454164423023
 20
285.459838149096
 30
0.0
 10
350.4555333393429
 20
285.4559625259105
 30
0.0
 11
350.7962269914874
 21
286.4062799927109
 31
0.0
 11
350.6258801654151
 21
286.379762199545
 31
0.0
 11
350.5226395298442
 21
286.3281846252265
 31
0.0
 11
350.4503712333578
 21
286.2869225994013
 31
0.0
 11
350.4039131699706
 21
286.245660405428
 31
0.0
 11
350.3522930005983
 21
286.1837672826161
 31
0.0
 11
350.316158852355
 21
286.1373474825443
 31
0.0
 11
350.2645383861564
 21
286.0445077142524
 31
0.0
 11
350.2387284498834
 21
285.9619834944539
 31
0.0
 11
350.2232424287543
 21
285.9052481458886
 31
0.0
 11
350.2129182167841
 21
285.8485127973235
 31
0.0
 11
350.2129182167841
 21
285.7453576486864
 31
0.0
 11
350.2232424287543
 21
285.6731489773811
 31
0.0
 11
350.2387284498834
 21
285.6370445576545
 31
0.0
 11
350.2697004921415
 21
285.5906247575826
 31
0.0
 11
350.2955107252409
 21
285.5596781121026
 31
0.0
 11
350.3368066826429
 21
285.5184160862774
 31
0.0
 11
350.3574548097571
 21
285.4926272150441
 31
0.0
 11
350.4245612970848
 21
285.4668385119588
 31
0.0
 11
350.4555333393429
 21
285.4559625259105
 31
0.0
  0
SPLINE
  5
1995
102
{ACAD_REACTORS
330
1993
102
}
330
18
100
AcDbEntity
  8
ROGO
 62
     4
100
AcDbSpline
210
0.0
220
0.0
230
1.0
 70
     8
 71
     3
 72
    26
 73
    22
 74
    20
 42
0.0000000001
 43
0.0000000001
 44
0.0000000001
 40
0.0
 40
0.0
 40
0.0
 40
0.0
 40
0.1723984759425082
 40
0.2878059064037186
 40
0.3710240621887309
 40
0.4331603664333474
 40
0.5137544142125066
 40
0.572580212192465
 40
0.6788058922657929
 40
0.7652720686804741
 40
0.8240829233522561
 40
0.8817499774613677
 40
0.9849051260984536
 40
1.057848128260939
 40
1.097133570529084
 40
1.152937380796444
 40
1.19323456430973
 40
1.251611879021469
 40
1.284648389624336
 40
1.356539542406011
 40
1.38936566727878
 40
1.38936566727878
 40
1.38936566727878
 40
1.38936566727878
 10
347.7342195824064
 20
286.4062799927109
 30
0.0
 10
347.6757048759677
 20
286.4027889049827
 30
0.0
 10
347.5780191044872
 20
286.3969608043427
 30
0.0
 10
347.4707607216517
 20
286.3318024886398
 30
0.0
 10
347.3921769511367
 20
286.2939223072656
 30
0.0
 10
347.3361311013081
 20
286.2424274278664
 30
0.0
 10
347.2950492661907
 20
286.1892369790769
 30
0.0
 10
347.2432579007254
 20
286.1258609493465
 30
0.0
 10
347.2010235221282
 20
286.0520621273063
 30
0.0
 10
347.1795161207019
 20
285.9707229598366
 30
0.0
 10
347.1604650686456
 20
285.9058951714185
 30
0.0
 10
347.1463364895085
 20
285.8336530614254
 30
0.0
 10
347.149931200016
 20
285.7556061691877
 30
0.0
 10
347.1550789899792
 20
285.6831202112626
 30
0.0
 10
347.1780626203883
 20
285.6313760899405
 30
0.0
 10
347.2042369043218
 20
285.5945378412043
 30
0.0
 10
347.2362869565432
 20
285.5539645942857
 30
0.0
 10
347.2713567224446
 20
285.5270930642327
 30
0.0
 10
347.3003622814381
 20
285.4784134818185
 30
0.0
 10
347.3511355339732
 20
285.472201616023
 30
0.0
 10
347.3834090332212
 20
285.459838149096
 30
0.0
 10
347.3935259302618
 20
285.4559625259105
 30
0.0
 11
347.7342195824064
 21
286.4062799927109
 31
0.0
 11
347.563872756334
 21
286.3797621995451
 31
0.0
 11
347.4606321207632
 21
286.3281846252265
 31
0.0
 11
347.3883638242767
 21
286.2869225994013
 31
0.0
 11
347.3419057608895
 21
286.245660405428
 31
0.0
 11
347.2902855915172
 21
286.1837672826161
 31
0.0
 11
347.254151443274
 21
286.1373474825443
 31
0.0
 11
347.2025309770754
 21
286.0445077142524
 31
0.0
 11
347.1767210408024
 21
285.9619834944539
 31
0.0
 11
347.1612350196733
 21
285.9052481458887
 31
0.0
 11
347.1509108077031
 21
285.8485127973235
 31
0.0
 11
347.1509108077031
 21
285.7453576486864
 31
0.0
 11
347.1612350196733
 21
285.6731489773811
 31
0.0
 11
347.1767210408024
 21
285.6370445576545
 31
0.0
 11
347.2076930830604
 21
285.5906247575826
 31
0.0
 11
347.2335033161598
 21
285.5596781121026
 31
0.0
 11
347.2747992735618
 21
285.5184160862774
 31
0.0
 11
347.2954474006761
 21
285.4926272150441
 31
0.0
 11
347.3625538880037
 21
285.4668385119589
 31
0.0
 11
347.3935259302618
 21
285.4559625259105
 31
0.0
  0
LINE
  5
1996
102
{ACAD_REACTORS
330
1974
102
}
330
18
100
AcDbEntity
  8
ROGO
 62
     4
100
AcDbLine
 10
346.5001759388648
 20
286.4062799927109
 30
0.0
 11
347.1854683333792
 21
285.4559625259105
 31
0.0
  0
LINE
  5
1997
102
{ACAD_REACTORS
330
1974
102
}
330
18
100
AcDbEntity
  8
ROGO
 62
     4
100
AcDbLine
 10
346.5286871222381
 20
285.6368970917872
 30
0.0
 11
346.6591625541141
 21
285.4559625259105
 31
0.0
  0
LINE
  5
1998
102
{ACAD_REACTORS
330
1993
102
}
330
18
100
AcDbEntity
  8
ROGO
 62
     4
100
AcDbLine
 10
348.3883512712302
 20
285.8095384932963
 30
0.0
 11
348.2120468744509
 21
285.4559625259105
 31
0.0
  0
LINE
  5
1999
102
{ACAD_REACTORS
330
196E
102
}
330
18
100
AcDbEntity
  8
ROGO
 62
     4
100
AcDbLine
 10
351.4503586803112
 20
285.8095384932963
 30
0.0
 11
351.274054283532
 21
285.4559625259104
 31
0.0
  0
ARC
  5
199A
102
{ACAD_REACTORS
330
1992
102
}
330
18
100
AcDbEntity
  8
ROGO
 62
     4
100
AcDbCircle
 10
349.1871113942705
 20
285.9311212593107
 30
0.0
 40
0.4755599797263065
100
AcDbArc
 50
92.3538081120337
 51
270.0
  0
ARC
  5
199B
102
{ACAD_REACTORS
330
1992
102
}
330
18
100
AcDbEntity
  8
ROGO
 62
     4
100
AcDbCircle
 10
349.5518540758449
 20
285.9307200129846
 30
0.0
 40
0.4755599797263065
100
AcDbArc
 50
273.3290215232082
 51
90.0000000000006
  0
LINE
  5
199C
102
{ACAD_REACTORS
330
1993
102
}
330
18
100
AcDbEntity
  8
ROGO
 62
     4
100
AcDbLine
 10
347.3935259302618
 20
285.4559625259105
 30
0.0
 11
348.2120468744509
 21
285.4559625259105
 31
0.0
  0
LINE
  5
199D
102
{ACAD_REACTORS
330
1974
102
}
330
18
100
AcDbEntity
  8
ROGO
 62
     4
100
AcDbLine
 10
347.1854683333792
 20
285.4559625259105
 30
0.0
 11
346.6591625541141
 21
285.4559625259105
 31
0.0
  0
LINE
  5
199E
330
18
100
AcDbEntity
  8
ROGO
 62
     4
100
AcDbLine
 10
349.1675800760674
 20
285.4559625259105
 30
0.0
 11
349.5794697015715
 21
285.4559625259105
 31
0.0
  0
LINE
  5
199F
102
{ACAD_REACTORS
330
1992
102
}
330
18
100
AcDbEntity
  8
ROGO
 62
     4
100
AcDbLine
 10
349.1675800760671
 20
285.4559625259105
 30
0.0
 11
349.5794697015718
 21
285.4559625259105
 31
0.0
  0
LINE
  5
19A0
102
{ACAD_REACTORS
330
196E
102
}
330
18
100
AcDbEntity
  8
ROGO
 62
     4
100
AcDbLine
 10
350.4555333393428
 20
285.4559625259105
 30
0.0
 11
351.274054283532
 21
285.4559625259105
 31
0.0
  0
LINE
  5
19A1
102
{ACAD_REACTORS
330
1974
102
}
330
18
100
AcDbEntity
  8
ROGO
 62
     4
100
AcDbLine
 10
346.2255527751952
 20
286.0572634450226
 30
0.0
 11
346.0600348006171
 21
285.8277342344694
 31
0.0
  0
LINE
  5
19A2
102
{ACAD_REACTORS
330
1974
102
}
330
18
100
AcDbEntity
  8
ROGO
 62
     4
100
AcDbLine
 10
346.0600348006171
 20
285.8277342344695
 30
0.0
 11
346.3910707497732
 21
285.8277342344695
 31
0.0
  0
LINE
  5
19A3
102
{ACAD_REACTORS
330
1974
102
}
330
18
100
AcDbEntity
  8
ROGO
 62
     4
100
AcDbLine
 10
346.2255527751952
 20
286.0572634450226
 30
0.0
 11
346.3910707497732
 21
285.8277342344694
 31
0.0
  0
SPLINE
  5
19A4
102
{ACAD_REACTORS
330
1993
102
}
330
18
100
AcDbEntity
  8
ROGO
 62
     4
100
AcDbSpline
210
0.0
220
0.0
230
1.0
 70
     8
 71
     3
 72
    16
 73
    12
 74
    10
 42
0.0000000001
 43
0.0000000001
 44
0.0000000001
 40
0.0
 40
0.0
 40
0.0
 40
0.0
 40
0.0908894635587698
 40
0.1352824120537892
 40
0.1571739758861179
 40
0.1802441192684364
 40
0.2132804986121064
 40
0.2433617673669269
 40
0.2747358298621628
 40
0.3273367126566702
 40
0.3794005943324437
 40
0.3794005943324437
 40
0.3794005943324437
 40
0.3794005943324437
 10
347.9148903236225
 20
286.0527002810126
 30
0.0
 10
347.884111029283
 20
286.0480077699426
 30
0.0
 10
347.8382982692939
 20
286.0410233056134
 30
0.0
 10
347.796869759629
 20
286.0082289531645
 30
0.0
 10
347.773506956623
 20
285.9887184963659
 30
0.0
 10
347.7655588269558
 20
285.9628811132397
 30
0.0
 10
347.7442126466237
 20
285.9430419692109
 30
0.0
 10
347.7266173222513
 20
285.9157765992841
 30
0.0
 10
347.7224159576407
 20
285.878327172057
 30
0.0
 10
347.7254998554558
 20
285.8257726082655
 30
0.0
 10
347.7623480677751
 20
285.8149313239092
 30
0.0
 10
347.7806776457935
 20
285.8095384932963
 30
0.0
 11
347.9148903236225
 21
286.0527002810126
 31
0.0
 11
347.827136006007
 21
286.0290343915124
 31
0.0
 11
347.7910018577638
 21
286.0032456884272
 31
0.0
 11
347.7755158366347
 21
285.9877723656872
 31
0.0
 11
347.7651916246645
 21
285.9671412687005
 31
0.0
 11
347.7445434975503
 21
285.9413525656153
 31
0.0
 11
347.7290574764212
 21
285.915563694382
 31
0.0
 11
347.7238953704361
 21
285.8846172170501
 31
0.0
 11
347.7342195824064
 21
285.8330394745835
 31
0.0
 11
347.7806776457935
 21
285.8095384932963
 31
0.0
  0
LINE
  5
19A5
102
{ACAD_REACTORS
330
1993
102
}
330
18
100
AcDbEntity
  8
ROGO
 62
     4
100
AcDbLine
 10
348.6859058557947
 20
286.4062799927109
 30
0.0
 11
348.5095995919802
 21
286.0527002810126
 31
0.0
  0
LINE
  5
19A6
102
{ACAD_REACTORS
330
1993
102
}
330
18
100
AcDbEntity
  8
ROGO
 62
     4
100
AcDbLine
 10
347.9148903236225
 20
286.0527002810126
 30
0.0
 11
348.5095995919802
 21
286.0527002810126
 31
0.0
  0
LINE
  5
19A7
102
{ACAD_REACTORS
330
1993
102
}
330
18
100
AcDbEntity
  8
ROGO
 62
     4
100
AcDbLine
 10
347.7806776457935
 20
285.8095384932963
 30
0.0
 11
348.3883512712302
 21
285.8095384932963
 31
0.0
  0
LINE
  5
19A8
102
{ACAD_REACTORS
330
1993
102
}
330
18
100
AcDbEntity
  8
ROGO
 62
     4
100
AcDbLine
 10
347.7342195824066
 20
286.406279992711
 30
0.0
 11
348.6859058557947
 21
286.406279992711
 31
0.0
  0
LINE
  5
19A9
102
{ACAD_REACTORS
330
1992
102
}
330
18
100
AcDbEntity
  8
ROGO
 62
     4
100
AcDbLine
 10
349.3763167089251
 20
286.0221478269597
 30
0.0
 11
349.4107555971532
 21
286.0173341999944
 31
0.0
  0
LINE
  5
19AA
102
{ACAD_REACTORS
330
1992
102
}
330
18
100
AcDbEntity
  8
ROGO
 62
     4
100
AcDbLine
 10
349.4934272654879
 20
285.9256167742443
 30
0.0
 11
349.4807805370393
 21
285.8351362965008
 31
0.0
  0
LINE
  5
19AB
102
{ACAD_REACTORS
330
1992
102
}
330
18
100
AcDbEntity
  8
ROGO
 62
     4
100
AcDbLine
 10
349.2544300184968
 20
285.8685799742072
 30
0.0
 11
349.2670767469455
 21
285.9590604519507
 31
0.0
  0
LINE
  5
19AC
102
{ACAD_REACTORS
330
1992
102
}
330
18
100
AcDbEntity
  8
ROGO
 62
     4
100
AcDbLine
 10
349.3434738346134
 20
285.7871748874951
 30
0.0
 11
349.3779127228415
 21
285.7823612605298
 31
0.0
  0
ARC
  5
19AD
102
{ACAD_REACTORS
330
1992
102
}
330
18
100
AcDbEntity
  8
ROGO
 62
     4
100
AcDbCircle
 10
349.3937708897344
 20
285.9189068892583
 30
0.0
 40
0.0998820093152177
100
AcDbArc
 50
3.851923331663601
 51
80.20940670206341
  0
ARC
  5
19AE
102
{ACAD_REACTORS
330
1992
102
}
330
18
100
AcDbEntity
  8
ROGO
 62
     4
100
AcDbCircle
 10
349.3629135271086
 20
285.9192345258998
 30
0.0
 40
0.1037824301982561
100
AcDbArc
 50
82.57970078354313
 51
157.4341870372611
  0
ARC
  5
19AF
102
{ACAD_REACTORS
330
1992
102
}
330
18
100
AcDbEntity
  8
ROGO
 62
     4
100
AcDbCircle
 10
349.3492016380816
 20
285.8828423753502
 30
0.0
 40
0.0958388019806556
100
AcDbArc
 50
188.5583509056651
 51
266.5736774635929
  0
ARC
  5
19B0
102
{ACAD_REACTORS
330
1992
102
}
330
18
100
AcDbEntity
  8
ROGO
 62
     4
100
AcDbCircle
 10
349.3985263061818
 20
285.8688230026174
 30
0.0
 40
0.0888850530907803
100
AcDbArc
 50
256.5902863289752
 51
337.7287536965499
  0
LINE
  5
19B1
330
18
100
AcDbEntity
  8
ROGO
 62
     4
100
AcDbLine
 10
349.1675800760672
 20
286.4062799927109
 30
0.0
 11
349.4368934852137
 21
286.4062799927109
 31
0.0
  0
LINE
  5
19B2
102
{ACAD_REACTORS
330
1992
102
}
330
18
100
AcDbEntity
  8
ROGO
 62
     4
100
AcDbLine
 10
349.1675800760671
 20
286.4062799927109
 30
0.0
 11
349.5518540758449
 21
286.4062799927109
 31
0.0
  0
SPLINE
  5
19B3
102
{ACAD_REACTORS
330
196E
102
}
330
18
100
AcDbEntity
  8
ROGO
 62
     4
100
AcDbSpline
210
0.0
220
0.0
230
1.0
 70
     8
 71
     3
 72
    16
 73
    12
 74
    10
 42
0.0000000001
 43
0.0000000001
 44
0.0000000001
 40
0.0
 40
0.0
 40
0.0
 40
0.0
 40
0.0908894635588099
 40
0.1352824120538293
 40
0.1571739758861982
 40
0.1802441192684659
 40
0.2132804986121358
 40
0.2433617673669563
 40
0.2747358298622484
 40
0.3273367126567001
 40
0.3794005943324992
 40
0.3794005943324992
 40
0.3794005943324992
 40
0.3794005943324992
 10
350.9768977327036
 20
286.0527002810126
 30
0.0
 10
350.9461184383641
 20
286.0480077699427
 30
0.0
 10
350.900305678375
 20
286.0410233056134
 30
0.0
 10
350.85887716871
 20
286.0082289531644
 30
0.0
 10
350.8355143657041
 20
285.9887184963659
 30
0.0
 10
350.8275662360369
 20
285.9628811132397
 30
0.0
 10
350.8062200557048
 20
285.9430419692109
 30
0.0
 10
350.7886247313322
 20
285.9157765992839
 30
0.0
 10
350.7844233667218
 20
285.8783271720572
 30
0.0
 10
350.7875072645369
 20
285.8257726082653
 30
0.0
 10
350.8243554768561
 20
285.8149313239092
 30
0.0
 10
350.8426850548746
 20
285.8095384932962
 30
0.0
 11
350.9768977327036
 21
286.0527002810126
 31
0.0
 11
350.889143415088
 21
286.0290343915124
 31
0.0
 11
350.8530092668448
 21
286.0032456884272
 31
0.0
 11
350.8375232457158
 21
285.9877723656871
 31
0.0
 11
350.8271990337455
 21
285.9671412687005
 31
0.0
 11
350.8065509066313
 21
285.9413525656153
 31
0.0
 11
350.7910648855022
 21
285.915563694382
 31
0.0
 11
350.7859027795171
 21
285.8846172170501
 31
0.0
 11
350.7962269914874
 21
285.8330394745835
 31
0.0
 11
350.8426850548746
 21
285.8095384932962
 31
0.0
  0
LINE
  5
19B4
102
{ACAD_REACTORS
330
196E
102
}
330
18
100
AcDbEntity
  8
ROGO
 62
     4
100
AcDbLine
 10
350.8426850548746
 20
285.8095384932963
 30
0.0
 11
351.4503586803113
 21
285.8095384932963
 31
0.0
  0
LINE
  5
19B5
102
{ACAD_REACTORS
330
196E
102
}
330
18
100
AcDbEntity
  8
ROGO
 62
     4
100
AcDbLine
 10
350.9768977327035
 20
286.0527002810126
 30
0.0
 11
351.5716070010613
 21
286.0527002810126
 31
0.0
  0
LINE
  5
19B6
102
{ACAD_REACTORS
330
196D
102
}
330
18
100
AcDbEntity
  8
ROGO
 62
     4
100
AcDbLine
 10
352.3171558077602
 20
285.6638119666471
 30
0.0
 11
352.6873743450406
 21
284.9213439405833
 31
0.0
  0
LINE
  5
19B7
102
{ACAD_REACTORS
330
196D
102
}
330
18
100
AcDbEntity
  8
ROGO
 62
     4
100
AcDbLine
 10
351.9469492422205
 20
285.3089290393949
 30
0.0
 11
352.1402116903213
 21
284.9213439405833
 31
0.0
  0
LINE
  5
19B8
102
{ACAD_REACTORS
330
196D
102
}
330
18
100
AcDbEntity
  8
ROGO
 62
     4
100
AcDbLine
 10
351.9469492422205
 20
285.3089290393949
 30
0.0
 11
351.7536867941196
 21
284.9213439405833
 31
0.0
  0
LINE
  5
19B9
102
{ACAD_REACTORS
330
196D
102
}
330
18
100
AcDbEntity
  8
ROGO
 62
     4
100
AcDbLine
 10
352.1402116903213
 20
284.9213439405833
 30
0.0
 11
352.6873743450406
 21
284.9213439405833
 31
0.0
  0
LINE
  5
19BA
102
{ACAD_REACTORS
330
196D
102
}
330
18
100
AcDbEntity
  8
ROGO
 62
     4
100
AcDbLine
 10
352.3171558077602
 20
285.6638119666471
 30
0.0
 11
353.2166436425309
 21
286.4062799927109
 31
0.0
  0
LINE
  5
19BB
102
{ACAD_REACTORS
330
196D
102
}
330
18
100
AcDbEntity
  8
ROGO
 62
     4
100
AcDbLine
 10
352.6694809878117
 20
286.4062799927109
 30
0.0
 11
353.2166436425309
 21
286.4062799927109
 31
0.0
  0
LINE
  5
19BC
102
{ACAD_REACTORS
330
196D
102
}
330
18
100
AcDbEntity
  8
ROGO
 62
     4
100
AcDbLine
 10
351.9469492422205
 20
286.4062799927109
 30
0.0
 11
352.4941238686805
 21
286.4062799927109
 31
0.0
  0
LINE
  5
19BD
102
{ACAD_REACTORS
330
196D
102
}
330
18
100
AcDbEntity
  8
ROGO
 62
     4
100
AcDbLine
 10
352.4941238686805
 20
286.4062799927109
 30
0.0
 11
352.4132832075843
 21
286.2441551933676
 31
0.0
  0
LINE
  5
19BE
102
{ACAD_REACTORS
330
196D
102
}
330
18
100
AcDbEntity
  8
ROGO
 62
     4
100
AcDbLine
 10
352.4132832075843
 20
286.2441551933676
 30
0.0
 11
352.6694809878117
 21
286.4062799927109
 31
0.0
  0
LINE
  5
19BF
330
18
100
AcDbEntity
  8
0
  6
ByBlock
 62
     2
100
AcDbLine
 10
369.2558387104564
 20
279.9213439405833
 30
0.0
 11
376.1523852431258
 21
279.9213439405833
 31
0.0
  0
LINE
  5
19C0
330
18
100
AcDbEntity
  8
0
  6
ByBlock
 62
     2
100
AcDbLine
 10
369.4622456578603
 20
221.0213439405833
 30
0.0
 11
376.1523852431258
 21
221.0213439405833
 31
0.0
  0
LINE
  5
19C1
330
18
100
AcDbEntity
  8
0
  6
ByBlock
 62
     2
100
AcDbLine
 10
374.9023852431258
 20
277.4213439405833
 30
0.0
 11
374.9023852431258
 21
223.5213439405833
 31
0.0
  0
INSERT
  5
19C2
330
18
100
AcDbEntity
  8
0
  6
ByBlock
 62
     2
100
AcDbBlockReference
  2
_OPEN
 10
374.9023852431258
 20
279.9213439405833
 30
0.0
 41
2.5
 42
2.5
 43
2.5
 50
90.0
  0
INSERT
  5
19C3
330
18
100
AcDbEntity
  8
0
  6
ByBlock
 62
     2
100
AcDbBlockReference
  2
_OPEN
 10
374.9023852431258
 20
221.0213439405833
 30
0.0
 41
2.5
 42
2.5
 43
2.5
 50
270.0
  0
MTEXT
  5
19C4
330
18
100
AcDbEntity
  8
0
  6
ByBlock
 62
     6
100
AcDbMText
 10
373.0273852431258
 20
250.4713439405833
 30
0.0
 40
2.5
 41
0.0
 71
     5
 72
     1
  1
\A1;58.9
  7
STYLE3
 11
0.0000000000000001
 21
1.0
 31
0.0
 73
     1
 44
1.0
  0
POINT
  5
19C5
330
18
100
AcDbEntity
  8
DEFPOINTS
  6
ByBlock
 62
     0
100
AcDbPoint
 10
369.2558387104564
 20
279.9213439405833
 30
0.0
  0
POINT
  5
19C6
330
18
100
AcDbEntity
  8
DEFPOINTS
  6
ByBlock
 62
     0
100
AcDbPoint
 10
369.4622456578603
 20
221.0213439405833
 30
0.0
  0
POINT
  5
19C7
330
18
100
AcDbEntity
  8
DEFPOINTS
  6
ByBlock
 62
     0
100
AcDbPoint
 10
374.9023852431258
 20
221.0213439405833
 30
0.0
  0
LINE
  5
19C8
330
18
100
AcDbEntity
  8
0
  6
ByBlock
 62
     2
100
AcDbLine
 10
415.1845126464323
 20
238.9213439405832
 30
0.0
 11
402.8171666040331
 21
238.9213439405832
 31
0.0
  0
LINE
  5
19C9
330
18
100
AcDbEntity
  8
0
  6
ByBlock
 62
     2
100
AcDbLine
 10
415.3619628912423
 20
221.0213439405832
 30
0.0
 11
402.8171666040331
 21
221.0213439405832
 31
0.0
  0
LINE
  5
19CA
330
18
100
AcDbEntity
  8
0
  6
ByBlock
 62
     2
100
AcDbLine
 10
404.0671666040331
 20
236.4213439405832
 30
0.0
 11
404.0671666040331
 21
223.5213439405832
 31
0.0
  0
INSERT
  5
19CB
330
18
100
AcDbEntity
  8
0
  6
ByBlock
 62
     2
100
AcDbBlockReference
  2
_OPEN
 10
404.0671666040331
 20
238.9213439405832
 30
0.0
 41
2.5
 42
2.5
 43
2.5
 50
90.0
  0
INSERT
  5
19CC
330
18
100
AcDbEntity
  8
0
  6
ByBlock
 62
     2
100
AcDbBlockReference
  2
_OPEN
 10
404.0671666040331
 20
221.0213439405832
 30
0.0
 41
2.5
 42
2.5
 43
2.5
 50
270.0
  0
MTEXT
  5
19CD
330
18
100
AcDbEntity
  8
0
  6
ByBlock
 62
     6
100
AcDbMText
 10
402.1921666040332
 20
229.9713439405832
 30
0.0
 40
2.5
 41
0.0
 71
     5
 72
     1
  1
\A1;17.9
  7
STYLE3
 11
0.0000000000000001
 21
1.0
 31
0.0
 73
     1
 44
1.0
  0
POINT
  5
19CE
330
18
100
AcDbEntity
  8
DEFPOINTS
  6
ByBlock
 62
     0
100
AcDbPoint
 10
415.1845126464323
 20
238.9213439405832
 30
0.0
  0
POINT
  5
19CF
330
18
100
AcDbEntity
  8
DEFPOINTS
  6
ByBlock
 62
     0
100
AcDbPoint
 10
414.98590783011
 20
221.0213439405832
 30
0.0
  0
POINT
  5
19D0
330
18
100
AcDbEntity
  8
DEFPOINTS
  6
ByBlock
 62
     0
100
AcDbPoint
 10
404.0671666040331
 20
221.0213439405832
 30
0.0
  0
LINE
  5
19D1
330
18
100
AcDbEntity
  8
寸法線
 62
     2
100
AcDbLine
 10
354.07378561389
 20
253.3907208904463
 30
0.0
 11
360.8559361302166
 21
263.5477361800712
 31
0.0
1001
ACAD
1000
DSTYLE
1002
{
1070
   271
1070
     2
1002
}
  0
LINE
  5
19D2
330
18
100
AcDbEntity
  8
寸法線
 62
     2
100
AcDbLine
 10
360.8559361302166
 20
263.5477361800712
 30
0.0
 11
365.8856980349785
 21
263.5477361800712
 31
0.0
1001
ACAD
1000
DSTYLE
1002
{
1070
   271
1070
     2
1002
}
  0
LINE
  5
19D3
330
18
100
AcDbEntity
  8
0
  6
ByBlock
 62
     2
100
AcDbLine
 10
340.3067945684834
 20
304.0713439405832
 30
0.0
 11
340.3067945684834
 21
312.0515162944195
 31
0.0
  0
LINE
  5
19D4
330
18
100
AcDbEntity
  8
0
  6
ByBlock
 62
     2
100
AcDbLine
 10
354.3067945684835
 20
304.0713439405832
 30
0.0
 11
354.3067945684835
 21
312.0515162944195
 31
0.0
  0
LINE
  5
19D5
330
18
100
AcDbEntity
  8
0
  6
ByBlock
 62
     2
100
AcDbLine
 10
342.8067945684834
 20
310.8015162944195
 30
0.0
 11
351.8067945684834
 21
310.8015162944195
 31
0.0
  0
INSERT
  5
19D6
330
18
100
AcDbEntity
  8
0
  6
ByBlock
 62
     2
100
AcDbBlockReference
  2
_OPEN
 10
340.3067945684834
 20
310.8015162944195
 30
0.0
 41
2.5
 42
2.5
 43
2.5
 50
180.0
  0
INSERT
  5
19D7
330
18
100
AcDbEntity
  8
0
  6
ByBlock
 62
     2
100
AcDbBlockReference
  2
_OPEN
 10
354.3067945684835
 20
310.8015162944195
 30
0.0
 41
2.5
 42
2.5
 43
2.5
  0
MTEXT
  5
19D8
330
18
100
AcDbEntity
  8
0
  6
ByBlock
 62
     6
100
AcDbMText
 10
347.3067945684834
 20
312.6765162944195
 30
0.0
 40
2.5
 41
0.0
 71
     5
 72
     1
  1
\A1;14
  7
STYLE3
 73
     1
 44
1.0
  0
POINT
  5
19D9
330
18
100
AcDbEntity
  8
DEFPOINTS
  6
ByBlock
 62
     0
100
AcDbPoint
 10
340.3067945684834
 20
304.0713439405832
 30
0.0
  0
POINT
  5
19DA
330
18
100
AcDbEntity
  8
DEFPOINTS
  6
ByBlock
 62
     0
100
AcDbPoint
 10
354.3067945684835
 20
304.0713439405832
 30
0.0
  0
POINT
  5
19DB
330
18
100
AcDbEntity
  8
DEFPOINTS
  6
ByBlock
 62
     0
100
AcDbPoint
 10
354.3067945684835
 20
310.8015162944195
 30
0.0
  0
LINE
  5
19DC
330
18
100
AcDbEntity
  8
寸法線
 62
     2
100
AcDbLine
 10
342.0562808114789
 20
303.0153036931006
 30
0.0
 11
337.5335292838956
 21
310.8575047115956
 31
0.0
1001
ACAD
1000
DSTYLE
1002
{
1070
   271
1070
     2
1002
}
  0
LINE
  5
19DD
330
18
100
AcDbEntity
  8
寸法線
 62
     2
100
AcDbLine
 10
337.5335292838956
 20
310.8575047115956
 30
0.0
 11
332.7418626172289
 21
310.8575047115956
 31
0.0
1001
ACAD
1000
DSTYLE
1002
{
1070
   271
1070
     2
1002
}
  0
TEXT
  5
19DE
330
18
100
AcDbEntity
  8
外形線
 62
     6
100
AcDbText
 10
333.7830295244686
 20
311.4825047115955
 30
0.0
 40
2.5
  1
A
  7
STYLE3
100
AcDbText
  0
LINE
  5
19DF
330
18
100
AcDbEntity
  8
0
  6
ByBlock
 62
     2
100
AcDbLine
 10
354.3067945684835
 20
304.0713439405832
 30
0.0
 11
369.4622456578603
 21
304.0713439405832
 31
0.0
  0
LINE
  5
19E0
330
18
100
AcDbEntity
  8
0
  6
ByBlock
 62
     2
100
AcDbLine
 10
366.7051129424466
 20
320.0713439405832
 30
0.0
 11
369.4622456578603
 21
320.0713439405832
 31
0.0
  0
LINE
  5
19E1
330
18
100
AcDbEntity
  8
0
  6
ByBlock
 62
     2
100
AcDbLine
 10
368.2122456578603
 20
306.5713439405832
 30
0.0
 11
368.2122456578603
 21
317.5713439405833
 31
0.0
  0
INSERT
  5
19E2
330
18
100
AcDbEntity
  8
0
  6
ByBlock
 62
     2
100
AcDbBlockReference
  2
_OPEN
 10
368.2122456578603
 20
304.0713439405832
 30
0.0
 41
2.5
 42
2.5
 43
2.5
 50
270.0
  0
INSERT
  5
19E3
330
18
100
AcDbEntity
  8
0
  6
ByBlock
 62
     2
100
AcDbBlockReference
  2
_OPEN
 10
368.2122456578603
 20
320.0713439405832
 30
0.0
 41
2.5
 42
2.5
 43
2.5
 50
90.0
  0
MTEXT
  5
19E4
330
18
100
AcDbEntity
  8
0
  6
ByBlock
 62
     6
100
AcDbMText
 10
366.3372456578603
 20
312.0713439405832
 30
0.0
 40
2.5
 41
0.0
 71
     5
 72
     1
  1
\A1;16
  7
STYLE3
 11
0.0000000000000001
 21
1.0
 31
0.0
 73
     1
 44
1.0
  0
POINT
  5
19E5
330
18
100
AcDbEntity
  8
DEFPOINTS
  6
ByBlock
 62
     0
100
AcDbPoint
 10
354.3067945684835
 20
304.0713439405832
 30
0.0
  0
POINT
  5
19E6
330
18
100
AcDbEntity
  8
DEFPOINTS
  6
ByBlock
 62
     0
100
AcDbPoint
 10
366.7051129424466
 20
320.0713439405832
 30
0.0
  0
POINT
  5
19E7
330
18
100
AcDbEntity
  8
DEFPOINTS
  6
ByBlock
 62
     0
100
AcDbPoint
 10
368.2122456578603
 20
320.0713439405832
 30
0.0
  0
LINE
  5
19E8
330
18
100
AcDbEntity
  8
0
  6
ByBlock
 62
     2
100
AcDbLine
 10
415.1845126464322
 20
302.4213439405833
 30
0.0
 11
415.1845126464322
 21
331.9143024816749
 31
0.0
  0
LINE
  5
19E9
330
18
100
AcDbEntity
  8
0
  6
ByBlock
 62
     2
100
AcDbLine
 10
422.2845126464322
 20
302.4213439405833
 30
0.0
 11
422.2845126464322
 21
331.9143024816749
 31
0.0
  0
LINE
  5
19EA
330
18
100
AcDbEntity
  8
0
  6
ByBlock
 62
     2
100
AcDbLine
 10
417.6845126464321
 20
330.6643024816749
 30
0.0
 11
419.7845126464322
 21
330.6643024816749
 31
0.0
  0
INSERT
  5
19EB
330
18
100
AcDbEntity
  8
0
  6
ByBlock
 62
     2
100
AcDbBlockReference
  2
_OPEN
 10
415.1845126464322
 20
330.6643024816749
 30
0.0
 41
2.5
 42
2.5
 43
2.5
 50
180.0
  0
INSERT
  5
19EC
330
18
100
AcDbEntity
  8
0
  6
ByBlock
 62
     2
100
AcDbBlockReference
  2
_OPEN
 10
422.2845126464322
 20
330.6643024816749
 30
0.0
 41
2.5
 42
2.5
 43
2.5
  0
MTEXT
  5
19ED
330
18
100
AcDbEntity
  8
0
  6
ByBlock
 62
     6
100
AcDbMText
 10
418.7345126464322
 20
332.5393024816749
 30
0.0
 40
2.5
 41
0.0
 71
     5
 72
     1
  1
\A1;7.1
  7
STYLE3
 73
     1
 44
1.0
  0
POINT
  5
19EE
330
18
100
AcDbEntity
  8
DEFPOINTS
  6
ByBlock
 62
     0
100
AcDbPoint
 10
415.1845126464322
 20
302.4213439405833
 30
0.0
  0
POINT
  5
19EF
330
18
100
AcDbEntity
  8
DEFPOINTS
  6
ByBlock
 62
     0
100
AcDbPoint
 10
422.2845126464322
 20
302.4213439405833
 30
0.0
  0
POINT
  5
19F0
330
18
100
AcDbEntity
  8
DEFPOINTS
  6
ByBlock
 62
     0
100
AcDbPoint
 10
422.2845126464322
 20
330.6643024816749
 30
0.0
  0
INSERT
  5
20B6
330
18
100
AcDbEntity
  8
外形線
100
AcDbBlockReference
  2
PC_PCN針
 10
347.3067945684835
 20
279.9213439405833
 30
0.0
 50
306.0
  0
LINE
  5
212B
330
18
100
AcDbEntity
  8
外形線
100
AcDbLine
 10
318.7363970024716
 20
357.3226531661766
 30
0.0
 11
419.7363970024715
 21
357.3226531661766
 31
0.0
  0
LINE
  5
212C
330
18
100
AcDbEntity
  8
外形線
100
AcDbLine
 10
318.7363970024716
 20
356.3226531661766
 30
0.0
 11
419.7363970024715
 21
356.3226531661766
 31
0.0
  0
TEXT
  5
212D
330
18
100
AcDbEntity
  8
文字
100
AcDbText
 10
319.3581080024715
 20
358.7410461661767
 30
0.0
 40
4.0
  1
Model No.PC-3 Pic Test Indicator
  7
STYLE3
100
AcDbText
  0
LINE
  5
2130
330
18
100
AcDbEntity
  8
外形線
100
AcDbLine
 10
350.7689650024716
 20
192.6559121661766
 30
0.0
 11
491.5603830024715
 21
192.6559121661766
 31
0.0
  0
LINE
  5
2131
330
18
100
AcDbEntity
  8
外形線
100
AcDbLine
 10
350.7689650024716
 20
181.8757061661766
 30
0.0
 11
491.5603830024715
 21
181.8757061661766
 31
0.0
  0
TEXT
  5
2132
330
18
100
AcDbEntity
  8
0
  6
Continuous
100
AcDbText
 10
352.2264320024716
 20
183.7736961661766
 30
0.0
 40
2.1
  1
Design and specifications are subject to change without notice for future improvement.
  7
STYLE3
100
AcDbText
  0
TEXT
  5
2133
330
18
100
AcDbEntity
  8
0
  6
Continuous
100
AcDbText
 10
352.5179260024716
 20
187.7028441661766
 30
0.0
 40
3.5
  1
仕様及び外観は予告なく変更される場合がございますのでご了承下さい。
  7
STYLE3
100
AcDbText
  0
TEXT
  5
2134
330
18
100
AcDbEntity
  8
0
  6
Continuous
100
AcDbText
 10
351.9349410024716
 20
174.0090681661766
 30
0.0
 40
2.1
  1
3RD Angle Projection
  7
STYLE3
100
AcDbText
  0
TEXT
  5
2135
330
18
100
AcDbEntity
  8
0
  6
Continuous
100
AcDbText
 10
354.5583840024716
 20
177.5053511661766
 30
0.0
 40
3.0
  1
三　　角　　法
  7
STYLE3
100
AcDbText
  0
LINE
  5
2136
330
18
100
AcDbEntity
  8
外形線
100
AcDbLine
 10
350.7689650024716
 20
172.2609281661766
 30
0.0
 11
350.7689650024716
 21
192.6559121661766
 31
0.0
  0
LINE
  5
2137
330
18
100
AcDbEntity
  8
外形線
100
AcDbLine
 10
452.7917320024715
 20
181.8757061661766
 30
0.0
 11
452.7917320024715
 21
172.2609281661766
 31
0.0
  0
LINE
  5
2138
330
18
100
AcDbEntity
  8
外形線
100
AcDbLine
 10
423.0593820024715
 20
181.8757061661766
 30
0.0
 11
423.0593820024715
 21
172.2609281661766
 31
0.0
  0
LINE
  5
2139
330
18
100
AcDbEntity
  8
外形線
100
AcDbLine
 10
403.5293100024715
 20
181.8757061661766
 30
0.0
 11
403.5293100024715
 21
172.2609281661766
 31
0.0
  0
LINE
  5
213A
330
18
100
AcDbEntity
  8
外形線
100
AcDbLine
 10
386.0396930024716
 20
181.8757061661766
 30
0.0
 11
386.0396930024716
 21
172.2609281661766
 31
0.0
  0
TEXT
  5
213B
330
18
100
AcDbEntity
  8
0
  6
Continuous
100
AcDbText
 10
387.4971620024716
 20
177.5113061661766
 30
0.0
 40
3.0
  1
単位
  7
STYLE3
100
AcDbText
  0
TEXT
  5
213C
330
18
100
AcDbEntity
  8
0
  6
Continuous
100
AcDbText
 10
387.6688830024716
 20
174.0090691661766
 30
0.0
 40
2.1
  1
Unit
  7
STYLE3
100
AcDbText
  0
TEXT
  5
213D
330
18
100
AcDbEntity
  8
0
  6
Continuous
100
AcDbText
 10
404.8150580024715
 20
177.2199481661766
 30
0.0
 40
3.0
  1
尺 度
  7
STYLE3
100
AcDbText
  0
TEXT
  5
213E
330
18
100
AcDbEntity
  8
0
  6
Continuous
100
AcDbText
 10
395.5392100024716
 20
175.7572121661766
 30
0.0
 40
2.399999999999999
  1
mm
  7
STYLE3
100
AcDbText
  0
TEXT
  5
213F
330
18
100
AcDbEntity
  8
0
  6
Continuous
100
AcDbText
 10
405.2782730024715
 20
174.3004261661766
 30
0.0
 40
2.1
  1
Scale
  7
STYLE3
100
AcDbText
  0
TEXT
  5
2140
330
18
100
AcDbEntity
  8
0
  6
Continuous
100
AcDbText
 10
414.8975620024716
 20
176.0485691661766
 30
0.0
 40
2.399999999999999
  1
1/1
  7
STYLE3
100
AcDbText
  0
TEXT
  5
2141
330
18
100
AcDbEntity
  8
0
  6
Continuous
100
AcDbText
 10
424.9913330024716
 20
174.0090701661766
 30
0.0
 40
2.1
  1
Date
  7
STYLE3
100
AcDbText
  0
TEXT
  5
2142
330
18
100
AcDbEntity
  8
0
  6
Continuous
100
AcDbText
 10
424.6079720024715
 20
177.3421531661766
 30
0.0
 40
3.0
  1
日 付
  7
STYLE3
100
AcDbText
  0
TEXT
  5
2143
330
18
100
AcDbEntity
  8
0
  6
Continuous
100
AcDbText
 10
433.7361410024715
 20
175.7572111661766
 30
0.0
 40
2.1
  1
2010.06.15
  7
STYLE3
100
AcDbText
  0
TEXT
  5
2144
330
18
100
AcDbEntity
  8
0
  6
Continuous
100
AcDbText
 10
454.1406950024716
 20
177.7967081661766
 30
0.0
 40
3.0
  1
株式会社　尾崎製作所
  7
STYLE3
100
AcDbText
  0
TEXT
  5
2145
330
18
100
AcDbEntity
  8
0
  6
Continuous
100
AcDbText
 10
455.0151740024715
 20
174.0090691661766
 30
0.0
 40
2.1
  1
OZAKI MFG. CO., LTD.
  7
STYLE3
100
AcDbText
  0
ENDSEC
  0
SECTION
  2
OBJECTS
  0
DICTIONARY
  5
C
330
0
100
AcDbDictionary
281
     1
  3
ACAD_COLOR
350
19FB
  3
ACAD_GROUP
350
D
  3
ACAD_IMAGE_DICT
350
B2C
  3
ACAD_LAYOUT
350
19FE
  3
ACAD_MATERIAL
350
19FA
  3
ACAD_MLINESTYLE
350
1B
  3
ACAD_PLOTSETTINGS
350
19FF
  3
ACAD_PLOTSTYLENAME
350
19F8
  3
ACAD_TABLESTYLE
350
19FC
  3
ACDBVARIABLEDICTIONARY
350
1297
  0
DICTIONARY
  5
1A07
330
1A06
100
AcDbDictionary
280
     1
281
     1
  3
ACAD_SORTENTS
360
20B5
  0
DICTIONARY
  5
19FB
102
{ACAD_REACTORS
330
C
102
}
330
C
100
AcDbDictionary
281
     1
  0
DICTIONARY
  5
D
102
{ACAD_REACTORS
330
C
102
}
330
C
100
AcDbDictionary
281
     1
  0
DICTIONARY
  5
B2C
102
{ACAD_REACTORS
330
C
102
}
330
C
100
AcDbDictionary
281
     1
  3
ROGO01
350
B2D
  0
DICTIONARY
  5
19FE
102
{ACAD_REACTORS
330
C
102
}
330
C
100
AcDbDictionary
281
     1
  3
Model
350
1A00
  3
レイアウト1
350
1A01
  0
DICTIONARY
  5
19FA
102
{ACAD_REACTORS
330
C
102
}
330
C
100
AcDbDictionary
281
     1
  0
DICTIONARY
  5
1B
102
{ACAD_REACTORS
330
C
102
}
330
C
100
AcDbDictionary
281
     1
  3
STANDARD
350
1C
  0
DICTIONARY
  5
19FF
102
{ACAD_REACTORS
330
C
102
}
330
C
100
AcDbDictionary
281
     1
  0
ACDBDICTIONARYWDFLT
  5
19F8
102
{ACAD_REACTORS
330
C
102
}
330
C
100
AcDbDictionary
281
     1
  3
Normal
350
19F9
100
AcDbDictionaryWithDefault
340
19F9
  0
DICTIONARY
  5
19FC
102
{ACAD_REACTORS
330
C
102
}
330
C
100
AcDbDictionary
281
     1
  3
Standard
350
19FD
  0
DICTIONARY
  5
1297
102
{ACAD_REACTORS
330
C
102
}
330
C
100
AcDbDictionary
281
     1
  3
CTABLESTYLE
350
20C3
  3
SORTENTS
350
1298
  0
SORTENTSTABLE
  5
20B5
102
{ACAD_REACTORS
330
1A07
102
}
330
1A07
100
AcDbSortentsTable
330
1A06
  0
IMAGEDEF
  5
B2D
102
{ACAD_REACTORS
330
B2C
102
}
330
B2C
100
AcDbRasterImageDef
 90
        0
  1
D:\ﾃｽﾄ\rogo01.TIF
 10
3388.0
 20
4668.0
 11
0.0635
 21
0.0635
280
     1
281
     5
  0
LAYOUT
  5
1A00
102
{ACAD_REACTORS
330
19FE
102
}
330
19FE
100
AcDbPlotSettings
  1

  2
A4 EPSON LP-6100.pc3
  4
A4
  6

 40
5.873749732971191
 41
5.873747825622558
 42
5.873748779296875
 43
5.873748779296875
 44
209.9733276367187
 45
297.0106506347656
 46
0.9
 47
25.0
 48
0.0
 49
0.0
140
0.0
141
0.0
142
1.0
143
1.0
 70
 28336
 72
     1
 73
     1
 74
     1
  7
AutoCAD LT 98.ctb
 75
    16
147
1.0
 76
     1
 77
     2
 78
   300
148
-236.4547188150987
149
-171.62613327917
100
AcDbLayout
  1
Model
 70
     1
 71
     0
 10
0.0
 20
0.0
 11
12.0
 21
9.0
 12
0.0
 22
0.0
 32
0.0
 14
0.0
 24
0.0
 34
0.0
 15
0.0
 25
0.0
 35
0.0
146
0.0
 13
0.0
 23
0.0
 33
0.0
 16
1.0
 26
0.0
 36
0.0
 17
0.0
 27
1.0
 37
0.0
 76
     0
330
18
1001
ACAD_PSEXT
1000
A4 EPSON LP-6100.pc3
1000
EPSON LP-6100
1000
\\SATO-MATE2
1000

1070
     0
  0
LAYOUT
  5
1A01
102
{ACAD_REACTORS
330
19FE
102
}
330
19FE
100
AcDbPlotSettings
  1

  2
WIDR Printer
  4

  6

 40
0.0
 41
0.0
 42
0.0
 43
0.0
 44
0.0
 45
0.0
 46
0.0
 47
0.0
 48
0.0
 49
0.0
140
0.0
141
0.0
142
1.0
143
1.0
 70
   688
 72
     0
 73
     0
 74
     5
  7
AutoCad LT 98.ctb
 75
    16
147
1.0
 76
     0
 77
     2
 78
   300
148
0.0
149
0.0
100
AcDbLayout
  1
レイアウト1
 70
     1
 71
     1
 10
0.0
 20
0.0
 11
420.0
 21
297.0
 12
0.0
 22
0.0
 32
0.0
 14
1.000000000000000E+20
 24
1.000000000000000E+20
 34
1.000000000000000E+20
 15
-1.000000000000000E+20
 25
-1.000000000000000E+20
 35
-1.000000000000000E+20
146
0.0
 13
0.0
 23
0.0
 33
0.0
 16
1.0
 26
0.0
 36
0.0
 17
0.0
 27
1.0
 37
0.0
 76
     0
330
15
  0
MLINESTYLE
  5
1C
102
{ACAD_REACTORS
330
1B
102
}
330
1B
100
AcDbMlineStyle
  2
STANDARD
 70
     0
  3

 62
   256
 51
90.0
 52
90.0
 71
     2
 49
0.5
 62
   256
  6
BYLAYER
 49
-0.5
 62
   256
  6
BYLAYER
  0
ACDBPLACEHOLDER
  5
19F9
102
{ACAD_REACTORS
330
19F8
102
}
330
19F8
  0
ACAD_PROXY_OBJECT
  5
19FD
102
{ACAD_REACTORS
330
19FC
102
}
330
19FC
100
AcDbProxyObject
 90
      499
 91
      505
 95
  2555929
 70
     0
 93
     1849
310
4214DD185B99185C992420000000000000F83F0000000000003E0FC00000000000004901028000000C1008070000C3001FDFF8000000C1003FBFF000000182007F7FE00000030400FEFFC00000060801FDFF8000000C1003FBFF000000182000000000000000C2020B0000001820100E000186003FBFF000000182007F7FE0
310
0000030400FEFFC00000060801FDFF8000000C1003FBFF000000182007F7FE0000003040000000000000012404160000003040201C00030C007F7FE00000030400FEFFC00000060801FDFF8000000C1003FBFF000000182007F7FE00000030400FEFFC000000608065
340
F
340
F
340
F
 94
        0
  0
DICTIONARYVAR
  5
20C3
102
{ACAD_REACTORS
330
1297
102
}
330
1297
100
DictionaryVariables
280
     0
  1
STANDARD
  0
DICTIONARYVAR
  5
1298
102
{ACAD_REACTORS
330
1297
102
}
330
1297
100
DictionaryVariables
280
     0
  1
96
  0
ENDSEC
  0
EOF
