  0
SECTION
  2
HEADER
  9
$ACADVER
  1
AC1018
  9
$ACADMAINTVER
 70
     0
  9
$DWGCODEPAGE
  3
ANSI_932
  9
$INSBASE
 10
0.0
 20
0.0
 30
0.0
  9
$EXTMIN
 10
236.4547188150987
 20
171.62613327917
 30
-0.0000305122223523
  9
$EXTMAX
 10
491.9140813472958
 20
367.0669803848941
 30
0.0000457828865983
  9
$LIMMIN
 10
0.0
 20
0.0
  9
$LIMMAX
 10
420.0
 20
297.0
  9
$ORTHOMODE
 70
     0
  9
$REGENMODE
 70
     1
  9
$FILLMODE
 70
     1
  9
$QTEXTMODE
 70
     0
  9
$MIRRTEXT
 70
     1
  9
$LTSCALE
 40
1.0
  9
$ATTMODE
 70
     1
  9
$TEXTSIZE
 40
1.5
  9
$TRACEWID
 40
1.0
  9
$TEXTSTYLE
  7
STYLE3
  9
$CLAYER
  8
針
  9
$CELTYPE
  6
BYLAYER
  9
$CECOLOR
 62
   256
  9
$CELTSCALE
 40
1.0
  9
$DISPSILH
 70
     0
  9
$DIMSCALE
 40
1.0
  9
$DIMASZ
 40
2.5
  9
$DIMEXO
 40
0.0
  9
$DIMDLI
 40
3.75
  9
$DIMRND
 40
0.0
  9
$DIMDLE
 40
0.0
  9
$DIMEXE
 40
1.25
  9
$DIMTP
 40
0.0
  9
$DIMTM
 40
0.0
  9
$DIMTXT
 40
2.5
  9
$DIMCEN
 40
2.5
  9
$DIMTSZ
 40
0.0
  9
$DIMTOL
 70
     0
  9
$DIMLIM
 70
     0
  9
$DIMTIH
 70
     0
  9
$DIMTOH
 70
     0
  9
$DIMSE1
 70
     0
  9
$DIMSE2
 70
     0
  9
$DIMTAD
 70
     1
  9
$DIMZIN
 70
     8
  9
$DIMBLK
  1

  9
$DIMASO
 70
     1
  9
$DIMSHO
 70
     1
  9
$DIMPOST
  1

  9
$DIMAPOST
  1

  9
$DIMALT
 70
     0
  9
$DIMALTD
 70
     4
  9
$DIMALTF
 40
0.0394
  9
$DIMLFAC
 40
1.0
  9
$DIMTOFL
 70
     1
  9
$DIMTVP
 40
0.0
  9
$DIMTIX
 70
     0
  9
$DIMSOXD
 70
     0
  9
$DIMSAH
 70
     1
  9
$DIMBLK1
  1
OPEN
  9
$DIMBLK2
  1
OPEN
  9
$DIMSTYLE
  2
STYLE3
  9
$DIMCLRD
 70
     2
  9
$DIMCLRE
 70
     2
  9
$DIMCLRT
 70
     6
  9
$DIMTFAC
 40
1.0
  9
$DIMGAP
 40
0.625
  9
$DIMJUST
 70
     0
  9
$DIMSD1
 70
     0
  9
$DIMSD2
 70
     0
  9
$DIMTOLJ
 70
     1
  9
$DIMTZIN
 70
     0
  9
$DIMALTZ
 70
     0
  9
$DIMALTTZ
 70
     0
  9
$DIMUPT
 70
     0
  9
$DIMDEC
 70
     2
  9
$DIMTDEC
 70
     4
  9
$DIMALTU
 70
     8
  9
$DIMALTTD
 70
     4
  9
$DIMTXSTY
  7
STYLE3
  9
$DIMAUNIT
 70
     0
  9
$DIMADEC
 70
     0
  9
$DIMALTRND
 40
0.0
  9
$DIMAZIN
 70
     0
  9
$DIMDSEP
 70
    46
  9
$DIMATFIT
 70
     3
  9
$DIMFRAC
 70
     0
  9
$DIMLDRBLK
  1

  9
$DIMLUNIT
 70
     2
  9
$DIMLWD
 70
    -2
  9
$DIMLWE
 70
    -2
  9
$DIMTMOVE
 70
     0
  9
$LUNITS
 70
     2
  9
$LUPREC
 70
     4
  9
$SKETCHINC
 40
1.0
  9
$FILLETRAD
 40
0.0
  9
$AUNITS
 70
     0
  9
$AUPREC
 70
     0
  9
$MENU
  1
.
  9
$ELEVATION
 40
0.0
  9
$PELEVATION
 40
0.0
  9
$THICKNESS
 40
0.0
  9
$LIMCHECK
 70
     0
  9
$CHAMFERA
 40
0.1
  9
$CHAMFERB
 40
0.1
  9
$CHAMFERC
 40
20.0
  9
$CHAMFERD
 40
0.0
  9
$SKPOLY
 70
     0
  9
$TDCREATE
 40
2451066.662483449
  9
$TDUCREATE
 40
2451066.287483449
  9
$TDUPDATE
 40
2455358.700056053
  9
$TDUUPDATE
 40
2455358.325056053
  9
$TDINDWG
 40
0.8400655903
  9
$TDUSRTIMER
 40
0.8400655903
  9
$USRTIMER
 70
     1
  9
$ANGBASE
 50
0.0
  9
$ANGDIR
 70
     0
  9
$PDMODE
 70
     0
  9
$PDSIZE
 40
0.0
  9
$PLINEWID
 40
0.0
  9
$SPLFRAME
 70
     0
  9
$SPLINETYPE
 70
     6
  9
$SPLINESEGS
 70
     8
  9
$HANDSEED
  5
23ED
  9
$SURFTAB1
 70
     6
  9
$SURFTAB2
 70
     6
  9
$SURFTYPE
 70
     6
  9
$SURFU
 70
     6
  9
$SURFV
 70
     6
  9
$UCSBASE
  2

  9
$UCSNAME
  2

  9
$UCSORG
 10
0.0
 20
0.0
 30
0.0
  9
$UCSXDIR
 10
1.0
 20
0.0
 30
0.0
  9
$UCSYDIR
 10
0.0
 20
1.0
 30
0.0
  9
$UCSORTHOREF
  2

  9
$UCSORTHOVIEW
 70
     0
  9
$UCSORGTOP
 10
0.0
 20
0.0
 30
0.0
  9
$UCSORGBOTTOM
 10
0.0
 20
0.0
 30
0.0
  9
$UCSORGLEFT
 10
0.0
 20
0.0
 30
0.0
  9
$UCSORGRIGHT
 10
0.0
 20
0.0
 30
0.0
  9
$UCSORGFRONT
 10
0.0
 20
0.0
 30
0.0
  9
$UCSORGBACK
 10
0.0
 20
0.0
 30
0.0
  9
$PUCSBASE
  2

  9
$PUCSNAME
  2

  9
$PUCSORG
 10
0.0
 20
0.0
 30
0.0
  9
$PUCSXDIR
 10
1.0
 20
0.0
 30
0.0
  9
$PUCSYDIR
 10
0.0
 20
1.0
 30
0.0
  9
$PUCSORTHOREF
  2

  9
$PUCSORTHOVIEW
 70
     0
  9
$PUCSORGTOP
 10
0.0
 20
0.0
 30
0.0
  9
$PUCSORGBOTTOM
 10
0.0
 20
0.0
 30
0.0
  9
$PUCSORGLEFT
 10
0.0
 20
0.0
 30
0.0
  9
$PUCSORGRIGHT
 10
0.0
 20
0.0
 30
0.0
  9
$PUCSORGFRONT
 10
0.0
 20
0.0
 30
0.0
  9
$PUCSORGBACK
 10
0.0
 20
0.0
 30
0.0
  9
$USERI1
 70
     0
  9
$USERI2
 70
     0
  9
$USERI3
 70
     0
  9
$USERI4
 70
     0
  9
$USERI5
 70
     0
  9
$USERR1
 40
0.0
  9
$USERR2
 40
0.0
  9
$USERR3
 40
0.0
  9
$USERR4
 40
0.0
  9
$USERR5
 40
0.0
  9
$WORLDVIEW
 70
     1
  9
$SHADEDGE
 70
     3
  9
$SHADEDIF
 70
    70
  9
$TILEMODE
 70
     1
  9
$MAXACTVP
 70
    48
  9
$PINSBASE
 10
0.0
 20
0.0
 30
0.0
  9
$PLIMCHECK
 70
     0
  9
$PEXTMIN
 10
1.000000000000000E+20
 20
1.000000000000000E+20
 30
1.000000000000000E+20
  9
$PEXTMAX
 10
-1.000000000000000E+20
 20
-1.000000000000000E+20
 30
-1.000000000000000E+20
  9
$PLIMMIN
 10
0.0
 20
0.0
  9
$PLIMMAX
 10
420.0
 20
297.0
  9
$UNITMODE
 70
     0
  9
$VISRETAIN
 70
     1
  9
$PLINEGEN
 70
     0
  9
$PSLTSCALE
 70
     1
  9
$TREEDEPTH
 70
  3020
  9
$CMLSTYLE
  2
STANDARD
  9
$CMLJUST
 70
     0
  9
$CMLSCALE
 40
20.0
  9
$PROXYGRAPHICS
 70
     1
  9
$MEASUREMENT
 70
     1
  9
$CELWEIGHT
370
    -1
  9
$ENDCAPS
280
     0
  9
$JOINSTYLE
280
     0
  9
$LWDISPLAY
290
     0
  9
$INSUNITS
 70
     0
  9
$HYPERLINKBASE
  1

  9
$STYLESHEET
  1
AutoCAD LT 98.ctb
  9
$XEDIT
290
     1
  9
$CEPSNTYPE
380
     0
  9
$PSTYLEMODE
290
     1
  9
$FINGERPRINTGUID
  2
{19F32A7D-C866-4A08-AA38-83CA91E9419C}
  9
$VERSIONGUID
  2
{FDEDD74B-FD51-4D52-B598-A8CED76ED0C1}
  9
$EXTNAMES
290
     1
  9
$PSVPSCALE
 40
0.0
  9
$OLESTARTUP
290
     0
  9
$SORTENTS
280
    96
  9
$INDEXCTL
280
     0
  9
$HIDETEXT
280
     0
  9
$XCLIPFRAME
290
     0
  9
$HALOGAP
280
     0
  9
$OBSCOLOR
 70
   257
  9
$OBSLTYPE
280
     0
  9
$INTERSECTIONDISPLAY
280
     0
  9
$INTERSECTIONCOLOR
 70
   257
  9
$DIMASSOC
280
     1
  9
$PROJECTNAME
  1

  0
ENDSEC
  0
SECTION
  2
CLASSES
  0
CLASS
  1
HATCH
  2
AcDbHatch
  3
ObjectDBX Classes
 90
        0
 91
       23
280
     0
281
     1
  0
CLASS
  1
LWPOLYLINE
  2
AcDbPolyline
  3
ObjectDBX Classes
 90
        0
 91
        1
280
     0
281
     1
  0
CLASS
  1
IMAGEDEF
  2
AcDbRasterImageDef
  3
ISM
 90
        0
 91
        1
280
     0
281
     0
  0
CLASS
  1
DICTIONARYVAR
  2
AcDbDictionaryVar
  3
ObjectDBX Classes
 90
        0
 91
        2
280
     0
281
     0
  0
CLASS
  1
ACDBDICTIONARYWDFLT
  2
AcDbDictionaryWithDefault
  3
ObjectDBX Classes
 90
        0
 91
        1
280
     0
281
     0
  0
CLASS
  1
TABLESTYLE
  2
AcDbTableStyle
  3
ObjectDBX Classes
 90
     2047
 91
        1
280
     0
281
     0
  0
CLASS
  1
SORTENTSTABLE
  2
AcDbSortentsTable
  3
ObjectDBX Classes
 90
        0
 91
        0
280
     0
281
     0
  0
ENDSEC
  0
SECTION
  2
TABLES
  0
TABLE
  2
VPORT
  5
8
330
0
100
AcDbSymbolTable
 70
     2
  0
VPORT
  5
23EC
330
8
100
AcDbSymbolTableRecord
100
AcDbViewportTableRecord
  2
*Active
 70
     0
 10
0.0
 20
0.0
 11
1.0
 21
1.0
 12
364.1844000811973
 22
269.3465568320321
 13
0.0
 23
0.0
 14
10.0
 24
10.0
 15
10.0
 25
10.0
 16
0.0
 26
0.0
 36
1.0
 17
0.0
 27
0.0
 37
0.0
 40
196.9270892890375
 41
1.530456852791878
 42
50.0
 43
0.0
 44
0.0
 50
0.0
 51
0.0
 71
     0
 72
   100
 73
     1
 74
     1
 75
     0
 76
     0
 77
     0
 78
     0
281
     0
 65
     1
110
0.0
120
0.0
130
0.0
111
1.0
121
0.0
131
0.0
112
0.0
122
1.0
132
0.0
 79
     0
146
0.0
  0
ENDTAB
  0
TABLE
  2
LTYPE
  5
5
330
0
100
AcDbSymbolTable
 70
     3
  0
LTYPE
  5
12
330
5
100
AcDbSymbolTableRecord
100
AcDbLinetypeTableRecord
  2
BYBLOCK
 70
     0
  3

 72
    65
 73
     0
 40
0.0
  0
LTYPE
  5
13
330
5
100
AcDbSymbolTableRecord
100
AcDbLinetypeTableRecord
  2
BYLAYER
 70
     0
  3

 72
    65
 73
     0
 40
0.0
  0
LTYPE
  5
14
330
5
100
AcDbSymbolTableRecord
100
AcDbLinetypeTableRecord
  2
CONTINUOUS
 70
     0
  3
Solid line
 72
    65
 73
     0
 40
0.0
  0
LTYPE
  5
22
330
5
100
AcDbSymbolTableRecord
100
AcDbLinetypeTableRecord
  2
CENTER2
 70
     0
  3
Center (.5x) ___ _ ___ _ ___ _ ___ _ ___ _ ___
 72
    65
 73
     4
 40
28.575
 49
19.05
 74
     0
 49
-3.174999999999999
 74
     0
 49
3.174999999999999
 74
     0
 49
-3.174999999999999
 74
     0
  0
LTYPE
  5
23
330
5
100
AcDbSymbolTableRecord
100
AcDbLinetypeTableRecord
  2
HIDDEN2
 70
     0
  3
Hidden (.5x) _ _ _ _ _ _ _ _ _ _ _ _ _ _ _ _ _
 72
    65
 73
     2
 40
4.762499999999999
 49
3.174999999999999
 74
     0
 49
-1.587499999999999
 74
     0
  0
ENDTAB
  0
TABLE
  2
LAYER
  5
2
330
0
100
AcDbSymbolTable
 70
    12
  0
LAYER
  5
E
330
2
100
AcDbSymbolTableRecord
100
AcDbLayerTableRecord
  2
0
 70
     0
 62
     7
  6
CONTINUOUS
370
    -3
390
215C
  0
LAYER
  5
25
330
2
100
AcDbSymbolTableRecord
100
AcDbLayerTableRecord
  2
外形線
 70
     0
 62
     7
  6
CONTINUOUS
370
    -3
390
215C
  0
LAYER
  5
26
330
2
100
AcDbSymbolTableRecord
100
AcDbLayerTableRecord
  2
寸法線
 70
     0
 62
     2
  6
CONTINUOUS
370
    -3
390
215C
  0
LAYER
  5
27
330
2
100
AcDbSymbolTableRecord
100
AcDbLayerTableRecord
  2
中心線
 70
     0
 62
     4
  6
CENTER2
370
    -3
390
215C
  0
LAYER
  5
28
330
2
100
AcDbSymbolTableRecord
100
AcDbLayerTableRecord
  2
隠れ線
 70
     0
 62
     6
  6
HIDDEN2
370
    -3
390
215C
  0
LAYER
  5
2B
330
2
100
AcDbSymbolTableRecord
100
AcDbLayerTableRecord
  2
文字
 70
     0
 62
     6
  6
CONTINUOUS
370
    -3
390
215C
  0
LAYER
  5
2C
330
2
100
AcDbSymbolTableRecord
100
AcDbLayerTableRecord
  2
目盛
 70
     0
 62
    70
  6
CONTINUOUS
370
    -3
390
215C
  0
LAYER
  5
2D
330
2
100
AcDbSymbolTableRecord
100
AcDbLayerTableRecord
  2
針
 70
     0
 62
     5
  6
CONTINUOUS
370
    -3
390
215C
  0
LAYER
  5
53
330
2
100
AcDbSymbolTableRecord
100
AcDbLayerTableRecord
  2
DEFPOINTS
 70
     0
 62
     7
  6
CONTINUOUS
290
     0
370
    -3
390
215C
  0
LAYER
  5
A5
330
2
100
AcDbSymbolTableRecord
100
AcDbLayerTableRecord
  2
C
 70
     0
 62
     7
  6
CONTINUOUS
370
    -3
390
215C
  0
LAYER
  5
AD4
330
2
100
AcDbSymbolTableRecord
100
AcDbLayerTableRecord
  2
ROGO
 70
     0
 62
     6
  6
CONTINUOUS
370
    -3
390
215C
  0
LAYER
  5
1822
330
2
100
AcDbSymbolTableRecord
100
AcDbLayerTableRecord
  2
ASHADE
 70
     0
 62
     7
  6
CONTINUOUS
370
    -3
390
215C
  0
ENDTAB
  0
TABLE
  2
STYLE
  5
3
330
0
100
AcDbSymbolTable
 70
     3
  0
STYLE
  5
F
330
3
100
AcDbSymbolTableRecord
100
AcDbTextStyleTableRecord
  2
STANDARD
 70
     0
 40
0.0
 41
1.0
 50
0.0
 71
     0
 42
2.5
  3
txt
  4

  0
STYLE
  5
3F
330
3
100
AcDbSymbolTableRecord
100
AcDbTextStyleTableRecord
  2
STYLE3
 70
     0
 40
0.0
 41
1.0
 50
0.0
 71
     0
 42
1.5
  3
romans.shx
  4
bigfont.shx
  0
ENDTAB
  0
TABLE
  2
VIEW
  5
6
330
0
100
AcDbSymbolTable
 70
     0
  0
ENDTAB
  0
TABLE
  2
UCS
  5
7
330
0
100
AcDbSymbolTable
 70
     0
  0
ENDTAB
  0
TABLE
  2
APPID
  5
9
330
0
100
AcDbSymbolTable
 70
     7
  0
APPID
  5
10
330
9
100
AcDbSymbolTableRecord
100
AcDbRegAppTableRecord
  2
ACAD
 70
     0
  0
APPID
  5
1820
330
9
100
AcDbSymbolTableRecord
100
AcDbRegAppTableRecord
  2
AVE_RENDER
 70
     0
  0
APPID
  5
1821
330
9
100
AcDbSymbolTableRecord
100
AcDbRegAppTableRecord
  2
AVE_ENTITY_MATERIAL
 70
     0
  0
APPID
  5
182E
330
9
100
AcDbSymbolTableRecord
100
AcDbRegAppTableRecord
  2
AVE_FINISH
 70
     0
  0
APPID
  5
182F
330
9
100
AcDbSymbolTableRecord
100
AcDbRegAppTableRecord
  2
AVE_MATERIAL
 70
     0
  0
APPID
  5
1830
330
9
100
AcDbSymbolTableRecord
100
AcDbRegAppTableRecord
  2
AVE_GLOBAL
 70
     0
  0
APPID
  5
2169
330
9
100
AcDbSymbolTableRecord
100
AcDbRegAppTableRecord
  2
ACAD_PSEXT
 70
     0
  0
ENDTAB
  0
TABLE
  2
DIMSTYLE
  5
A
330
0
100
AcDbSymbolTable
 70
     2
100
AcDbDimStyleTable
 71
     1
340
8F
  0
DIMSTYLE
105
1D
330
A
100
AcDbSymbolTableRecord
100
AcDbDimStyleTableRecord
  2
STANDARD
 70
     0
 41
2.5
 42
0.625
 43
3.75
 44
1.25
 73
     0
 74
     0
 77
     1
 78
     8
140
2.5
141
2.5
143
0.0394
147
0.625
171
     4
172
     1
273
     8
274
     4
277
     6
340
F
  0
DIMSTYLE
105
8F
330
A
100
AcDbSymbolTableRecord
100
AcDbDimStyleTableRecord
  2
STYLE3
 70
     0
 41
2.5
 42
0.0
 43
3.75
 44
1.25
 73
     0
 74
     0
 77
     1
 78
     8
140
2.5
141
2.5
143
0.0394
147
0.625
171
     4
172
     1
173
     1
176
     2
177
     2
178
     6
271
     1
273
     8
274
     4
340
3F
341
45
343
45
344
45
  0
ENDTAB
  0
TABLE
  2
BLOCK_RECORD
  5
1
330
0
100
AcDbSymbolTable
 70
     7
  0
BLOCK_RECORD
  5
18
330
1
100
AcDbSymbolTableRecord
100
AcDbBlockTableRecord
  2
*MODEL_SPACE
340
2163
  0
BLOCK_RECORD
  5
15
330
1
100
AcDbSymbolTableRecord
100
AcDbBlockTableRecord
  2
*PAPER_SPACE
340
2164
  0
BLOCK_RECORD
  5
45
330
1
100
AcDbSymbolTableRecord
100
AcDbBlockTableRecord
  2
_OPEN
340
0
102
{BLKREFS
331
1637
331
1638
331
1654
331
1669
331
166A
331
168B
331
168C
331
198B
331
198C
331
1B41
331
1B42
331
1B4A
331
1B4B
331
1B55
331
1B56
331
1B5E
331
1B5F
331
1B67
331
1B68
331
1B71
331
1B72
331
1B7A
331
1B7B
331
1B83
331
1B84
331
1B8C
331
1B8D
331
1B96
331
1B97
331
1C43
331
1C44
331
1C4F
331
1C50
331
1C58
331
1C59
102
}
  0
BLOCK_RECORD
  5
ADD
330
1
100
AcDbSymbolTableRecord
100
AcDbBlockTableRecord
  2
ROGO1
340
0
102
{BLKREFS
331
B43
331
B44
331
FCB
331
FCC
331
1FDE
102
}
  0
BLOCK_RECORD
  5
1823
330
1
100
AcDbSymbolTableRecord
100
AcDbBlockTableRecord
  2
AVE_RENDER
340
0
102
{BLKREFS
331
1826
331
1827
331
1828
331
1829
331
182A
331
182B
331
182C
331
182D
331
1C6C
102
}
  0
BLOCK_RECORD
  5
1831
330
1
100
AcDbSymbolTableRecord
100
AcDbBlockTableRecord
  2
AVE_GLOBAL
340
0
102
{BLKREFS
331
1834
102
}
  0
ENDTAB
  0
ENDSEC
  0
SECTION
  2
BLOCKS
  0
BLOCK
  5
19
330
18
100
AcDbEntity
  8
0
100
AcDbBlockBegin
  2
*MODEL_SPACE
 70
     0
 10
0.0
 20
0.0
 30
0.0
  3
*MODEL_SPACE
  1

  0
ENDBLK
  5
1A
330
18
100
AcDbEntity
  8
0
100
AcDbBlockEnd
  0
BLOCK
  5
16
330
15
100
AcDbEntity
 67
     1
  8
0
100
AcDbBlockBegin
  2
*PAPER_SPACE
 70
     0
 10
0.0
 20
0.0
 30
0.0
  3
*PAPER_SPACE
  1

  0
ENDBLK
  5
17
330
15
100
AcDbEntity
 67
     1
  8
0
100
AcDbBlockEnd
  0
BLOCK
  5
46
330
45
100
AcDbEntity
  8
0
100
AcDbBlockBegin
  2
_OPEN
 70
     0
 10
0.0
 20
0.0
 30
0.0
  3
_OPEN
  1

  0
LINE
  5
47
330
45
100
AcDbEntity
  8
0
  6
ByBlock
 62
     0
100
AcDbLine
 10
-1.0
 20
0.1666666666666666
 30
0.0
 11
0.0
 21
0.0
 31
0.0
  0
LINE
  5
48
330
45
100
AcDbEntity
  8
0
  6
ByBlock
 62
     0
100
AcDbLine
 10
0.0
 20
0.0
 30
0.0
 11
-1.0
 21
-0.1666666666666666
 31
0.0
  0
LINE
  5
49
330
45
100
AcDbEntity
  8
0
  6
ByBlock
 62
     0
100
AcDbLine
 10
0.0
 20
0.0
 30
0.0
 11
-1.0
 21
0.0
 31
0.0
  0
ENDBLK
  5
4A
330
45
100
AcDbEntity
  8
0
100
AcDbBlockEnd
  0
BLOCK
  5
B2A
330
ADD
100
AcDbEntity
  8
0
100
AcDbBlockBegin
  2
ROGO1
 70
     0
 10
0.0
 20
0.0
 30
0.0
  3
ROGO1
  1

  0
MTEXT
  5
B42
330
ADD
100
AcDbEntity
  8
DEFPOINTS
  6
Continuous
100
AcDbMText
 10
1039.786461861274
 20
160.9640365185991
 30
0.0
 40
1.0
 41
0.0
 71
     4
 72
     1
  1
\A1;
 73
     1
 44
1.0
  0
ENDBLK
  5
B2B
330
ADD
100
AcDbEntity
  8
0
100
AcDbBlockEnd
  0
BLOCK
  5
1824
330
1823
100
AcDbEntity
  8
ASHADE
100
AcDbBlockBegin
  2
AVE_RENDER
 70
     0
 10
0.0
 20
0.0
 30
0.0
  3
AVE_RENDER
  1
AVE_RENDER
  0
ENDBLK
  5
1825
330
1823
100
AcDbEntity
  8
0
100
AcDbBlockEnd
  0
BLOCK
  5
1832
330
1831
100
AcDbEntity
  8
ASHADE
100
AcDbBlockBegin
  2
AVE_GLOBAL
 70
     0
 10
0.0
 20
0.0
 30
0.0
  3
AVE_GLOBAL
  1
AVE_GLOBAL
  0
ENDBLK
  5
1833
330
1831
100
AcDbEntity
  8
0
100
AcDbBlockEnd
  0
ENDSEC
  0
SECTION
  2
ENTITIES
  0
LWPOLYLINE
  5
10B
330
18
100
AcDbEntity
  8
C
100
AcDbPolyline
 90
        5
 70
     0
 43
0.4
 10
236.6915604445414
 20
366.8501752555372
 10
491.6915604445414
 20
366.8501752555372
 10
491.6915604445414
 20
171.8501752555372
 10
236.6915604445414
 20
171.8501752555372
 10
236.6915604445414
 20
366.8501752555372
  0
LINE
  5
16C
330
18
100
AcDbEntity
  8
外形線
100
AcDbLine
 10
292.5891924217104
 20
314.7388639344983
 30
0.0
 11
298.5891924217104
 21
314.7388639344983
 31
0.0
  0
LINE
  5
16E
330
18
100
AcDbEntity
  8
外形線
100
AcDbLine
 10
298.5891924217104
 20
314.7388639344983
 30
0.0
 11
298.5891924217104
 21
299.7836511613584
 31
0.0
  0
LINE
  5
16F
330
18
100
AcDbEntity
  8
外形線
100
AcDbLine
 10
292.5891924217104
 20
314.7388639344983
 30
0.0
 11
292.5891924217104
 21
299.7836511613584
 31
0.0
  0
ARC
  5
170
330
18
100
AcDbEntity
  8
外形線
100
AcDbCircle
 10
295.5891924217104
 20
309.5427115117917
 30
0.0
 40
6.0
100
AcDbArc
 50
60.0
 51
120.0
  0
CIRCLE
  5
172
330
18
100
AcDbEntity
  8
外形線
100
AcDbCircle
 10
295.5891924217104
 20
282.5427115117917
 30
0.0
 40
17.5
  0
CIRCLE
  5
307
330
18
100
AcDbEntity
  8
外形線
100
AcDbCircle
 10
295.5891924217104
 20
282.5427115117917
 30
0.0
 40
15.0
  0
LINE
  5
30A
330
18
100
AcDbEntity
  8
目盛
100
AcDbLine
 10
295.5891924217104
 20
297.5427115117917
 30
0.0
 11
295.5891924217104
 21
295.0427115117917
 31
0.0
  0
LINE
  5
30B
330
18
100
AcDbEntity
  8
目盛
100
AcDbLine
 10
297.4691909251749
 20
297.4244320315089
 30
0.0
 11
297.2811910748285
 21
295.9362599795372
 31
0.0
  0
LINE
  5
30C
330
18
100
AcDbEntity
  8
目盛
100
AcDbLine
 10
299.3195407291832
 20
297.0714589287212
 30
0.0
 11
298.9465058984359
 21
295.6185841870282
 31
0.0
  0
LINE
  5
30D
330
18
100
AcDbEntity
  8
目盛
100
AcDbLine
 10
301.1110607119805
 20
296.4893588001155
 30
0.0
 11
300.5588738829536
 21
295.0946940712831
 31
0.0
  0
LINE
  5
30E
330
18
100
AcDbEntity
  8
目盛
100
AcDbLine
 10
302.8154975332361
 20
295.6873117124497
 30
0.0
 11
302.0928670220835
 21
294.3728516923838
 31
0.0
  0
LINE
  5
322
330
18
100
AcDbEntity
  8
目盛
100
AcDbLine
 10
288.3628873101847
 20
295.6873117124496
 30
0.0
 11
289.0855178213373
 21
294.3728516923838
 31
0.0
  0
LINE
  5
323
330
18
100
AcDbEntity
  8
目盛
100
AcDbLine
 10
290.0673241314402
 20
296.4893588001154
 30
0.0
 11
290.6195109604673
 21
295.0946940712831
 31
0.0
  0
LINE
  5
324
330
18
100
AcDbEntity
  8
目盛
100
AcDbLine
 10
291.8588441142376
 20
297.0714589287211
 30
0.0
 11
292.2318789449849
 21
295.6185841870282
 31
0.0
  0
LINE
  5
325
330
18
100
AcDbEntity
  8
目盛
100
AcDbLine
 10
286.7724136373233
 20
294.6779664274158
 30
0.0
 11
288.2418767680545
 21
292.6554239414785
 31
0.0
  0
LINE
  5
326
330
18
100
AcDbEntity
  8
目盛
100
AcDbLine
 10
293.7091939182458
 20
297.4244320315088
 30
0.0
 11
293.8971937685923
 21
295.9362599795371
 31
0.0
  0
LINE
  5
327
330
18
100
AcDbEntity
  8
目盛
100
AcDbLine
 10
282.0167866347201
 20
288.9294008852678
 30
0.0
 11
283.3740272134191
 21
288.2907319479202
 31
0.0
  0
LINE
  5
328
330
18
100
AcDbEntity
  8
目盛
100
AcDbLine
 10
282.9242735391801
 20
290.5801134364767
 30
0.0
 11
284.1907654274332
 21
289.7763732440081
 31
0.0
  0
LINE
  5
329
330
18
100
AcDbEntity
  8
目盛
100
AcDbLine
 10
284.0314937800735
 20
292.1040713580221
 30
0.0
 11
285.1872636442372
 21
291.147935373399
 31
0.0
  0
LINE
  5
32A
330
18
100
AcDbEntity
  8
目盛
100
AcDbLine
 10
281.3233446772831
 20
287.1779664274159
 30
0.0
 11
283.700985968021
 21
286.4054239414786
 31
0.0
  0
LINE
  5
32B
330
18
100
AcDbEntity
  8
目盛
100
AcDbLine
 10
285.3209858327801
 20
293.4772409231129
 30
0.0
 11
286.3478064916731
 21
292.3837879819807
 31
0.0
  0
LINE
  5
32C
330
18
100
AcDbEntity
  8
目盛
100
AcDbLine
 10
280.85488366078
 20
279.7319917930058
 30
0.0
 11
282.328314536873
 21
280.0130637648845
 31
0.0
  0
LINE
  5
32D
330
18
100
AcDbEntity
  8
目盛
100
AcDbLine
 10
280.6187914952863
 20
281.600853718852
 30
0.0
 11
282.1158315879287
 21
281.695039498146
 31
0.0
  0
LINE
  5
32E
330
18
100
AcDbEntity
  8
目盛
100
AcDbLine
 10
280.6187914952863
 20
283.4845693047314
 30
0.0
 11
282.1158315879288
 21
283.3903835254375
 31
0.0
  0
LINE
  5
32F
330
18
100
AcDbEntity
  8
目盛
100
AcDbLine
 10
281.323344677283
 20
277.9074565961675
 30
0.0
 11
283.7009859680209
 21
278.6799990821049
 31
0.0
  0
LINE
  5
330
330
18
100
AcDbEntity
  8
目盛
100
AcDbLine
 10
280.85488366078
 20
285.3534312305776
 30
0.0
 11
282.328314536873
 21
285.0723592586989
 31
0.0
  0
LINE
  5
331
330
18
100
AcDbEntity
  8
目盛
100
AcDbLine
 10
285.3209858327801
 20
271.6081821004706
 30
0.0
 11
286.347806491673
 21
272.7016350416027
 31
0.0
  0
LINE
  5
332
330
18
100
AcDbEntity
  8
目盛
100
AcDbLine
 10
284.0314937800735
 20
272.9813516655614
 30
0.0
 11
285.1872636442372
 21
273.9374876501845
 31
0.0
  0
LINE
  5
333
330
18
100
AcDbEntity
  8
目盛
100
AcDbLine
 10
282.9242735391801
 20
274.5053095871067
 30
0.0
 11
284.1907654274332
 21
275.3090497795753
 31
0.0
  0
LINE
  5
334
330
18
100
AcDbEntity
  8
目盛
100
AcDbLine
 10
286.7724136373233
 20
270.4074565961676
 30
0.0
 11
288.2418767680544
 21
272.4299990821049
 31
0.0
  0
LINE
  5
335
330
18
100
AcDbEntity
  8
目盛
100
AcDbLine
 10
282.0167866347201
 20
276.1560221383156
 30
0.0
 11
283.3740272134191
 21
276.7946910756633
 31
0.0
  0
LINE
  5
336
330
18
100
AcDbEntity
  8
目盛
100
AcDbLine
 10
293.7091939182458
 20
267.6609909920746
 30
0.0
 11
293.8971937685922
 21
269.1491630440463
 31
0.0
  0
LINE
  5
337
330
18
100
AcDbEntity
  8
目盛
100
AcDbLine
 10
291.8588441142375
 20
268.0139640948623
 30
0.0
 11
292.2318789449848
 21
269.4668388365553
 31
0.0
  0
LINE
  5
338
330
18
100
AcDbEntity
  8
目盛
100
AcDbLine
 10
290.0673241314402
 20
268.596064223468
 30
0.0
 11
290.6195109604671
 21
269.9907289523004
 31
0.0
  0
LINE
  5
339
330
18
100
AcDbEntity
  8
目盛
100
AcDbLine
 10
295.5891924217103
 20
267.5427115117918
 30
0.0
 11
295.5891924217103
 21
270.0427115117918
 31
0.0
  0
LINE
  5
33A
330
18
100
AcDbEntity
  8
目盛
100
AcDbLine
 10
288.3628873101846
 20
269.3981113111338
 30
0.0
 11
289.0855178213372
 21
270.7125713311996
 31
0.0
  0
LINE
  5
33B
330
18
100
AcDbEntity
  8
目盛
100
AcDbLine
 10
302.8154975332362
 20
269.3981113111338
 30
0.0
 11
302.0928670220835
 21
270.7125713311996
 31
0.0
  0
LINE
  5
33C
330
18
100
AcDbEntity
  8
目盛
100
AcDbLine
 10
301.1110607119805
 20
268.596064223468
 30
0.0
 11
300.5588738829535
 21
269.9907289523003
 31
0.0
  0
LINE
  5
33D
330
18
100
AcDbEntity
  8
目盛
100
AcDbLine
 10
299.3195407291832
 20
268.0139640948623
 30
0.0
 11
298.9465058984359
 21
269.4668388365552
 31
0.0
  0
LINE
  5
33E
330
18
100
AcDbEntity
  8
目盛
100
AcDbLine
 10
304.4059712060975
 20
270.4074565961676
 30
0.0
 11
302.9365080753663
 21
272.4299990821049
 31
0.0
  0
LINE
  5
33F
330
18
100
AcDbEntity
  8
目盛
100
AcDbLine
 10
297.4691909251749
 20
267.6609909920746
 30
0.0
 11
297.2811910748285
 21
269.1491630440463
 31
0.0
  0
LINE
  5
340
330
18
100
AcDbEntity
  8
目盛
100
AcDbLine
 10
309.1615982087006
 20
276.1560221383156
 30
0.0
 11
307.8043576300016
 21
276.7946910756632
 31
0.0
  0
LINE
  5
341
330
18
100
AcDbEntity
  8
目盛
100
AcDbLine
 10
308.2541113042406
 20
274.5053095871068
 30
0.0
 11
306.9876194159875
 21
275.3090497795753
 31
0.0
  0
LINE
  5
342
330
18
100
AcDbEntity
  8
目盛
100
AcDbLine
 10
307.1468910633472
 20
272.9813516655614
 30
0.0
 11
305.9911211991835
 21
273.9374876501845
 31
0.0
  0
LINE
  5
343
330
18
100
AcDbEntity
  8
目盛
100
AcDbLine
 10
309.8550401661376
 20
277.9074565961675
 30
0.0
 11
307.4773988753998
 21
278.6799990821049
 31
0.0
  0
LINE
  5
344
330
18
100
AcDbEntity
  8
目盛
100
AcDbLine
 10
305.8573990106407
 20
271.6081821004706
 30
0.0
 11
304.8305783517476
 21
272.7016350416027
 31
0.0
  0
LINE
  5
345
330
18
100
AcDbEntity
  8
目盛
100
AcDbLine
 10
310.3235011826407
 20
285.3534312305776
 30
0.0
 11
308.8500703065477
 21
285.0723592586989
 31
0.0
  0
LINE
  5
346
330
18
100
AcDbEntity
  8
目盛
100
AcDbLine
 10
310.5595933481345
 20
283.4845693047314
 30
0.0
 11
309.062553255492
 21
283.3903835254374
 31
0.0
  0
LINE
  5
347
330
18
100
AcDbEntity
  8
目盛
100
AcDbLine
 10
310.5595933481345
 20
281.6008537188519
 30
0.0
 11
309.062553255492
 21
281.6950394981459
 31
0.0
  0
LINE
  5
348
330
18
100
AcDbEntity
  8
目盛
100
AcDbLine
 10
309.8550401661377
 20
287.1779664274159
 30
0.0
 11
307.4773988753999
 21
286.4054239414786
 31
0.0
  0
LINE
  5
349
330
18
100
AcDbEntity
  8
目盛
100
AcDbLine
 10
310.3235011826407
 20
279.7319917930058
 30
0.0
 11
308.8500703065477
 21
280.0130637648845
 31
0.0
  0
LINE
  5
34A
330
18
100
AcDbEntity
  8
目盛
100
AcDbLine
 10
305.8573990106407
 20
293.4772409231129
 30
0.0
 11
304.8305783517477
 21
292.3837879819807
 31
0.0
  0
LINE
  5
34B
330
18
100
AcDbEntity
  8
目盛
100
AcDbLine
 10
307.1468910633472
 20
292.1040713580221
 30
0.0
 11
305.9911211991836
 21
291.147935373399
 31
0.0
  0
LINE
  5
34C
330
18
100
AcDbEntity
  8
目盛
100
AcDbLine
 10
308.2541113042406
 20
290.5801134364767
 30
0.0
 11
306.9876194159876
 21
289.7763732440081
 31
0.0
  0
LINE
  5
34D
330
18
100
AcDbEntity
  8
目盛
100
AcDbLine
 10
304.4059712060974
 20
294.677966427416
 30
0.0
 11
302.9365080753663
 21
292.6554239414786
 31
0.0
  0
LINE
  5
34E
330
18
100
AcDbEntity
  8
目盛
100
AcDbLine
 10
309.1615982087007
 20
288.9294008852678
 30
0.0
 11
307.8043576300016
 21
288.2907319479202
 31
0.0
  0
TEXT
  5
351
330
18
100
AcDbEntity
  8
文字
100
AcDbText
 10
294.7887834084392
 20
292.8147827469119
 30
0.0
 40
1.8
  1
0
  7
STYLE3
100
AcDbText
  0
TEXT
  5
352
330
18
100
AcDbEntity
  8
文字
100
AcDbText
 10
301.3286891057887
 20
290.502704079748
 30
0.0
 40
1.8
  1
5
  7
STYLE3
100
AcDbText
  0
TEXT
  5
353
330
18
100
AcDbEntity
  8
文字
100
AcDbText
 10
303.9184810187777
 20
284.9100960250276
 30
0.0
 40
1.8
  1
10
  7
STYLE3
100
AcDbText
  0
TEXT
  5
354
330
18
100
AcDbEntity
  8
文字
100
AcDbText
 10
303.8270060679444
 20
278.1975662929152
 30
0.0
 40
1.8
  1
15
  7
STYLE3
100
AcDbText
  0
TEXT
  5
355
330
18
100
AcDbEntity
  8
文字
100
AcDbText
 10
300.463087874034
 20
273.2581160327199
 30
0.0
 40
1.8
  1
20
  7
STYLE3
100
AcDbText
  0
TEXT
  5
356
330
18
100
AcDbEntity
  8
文字
100
AcDbText
 10
293.89063251722
 20
270.5177855464033
 30
0.0
 40
1.8
  1
25
  7
STYLE3
100
AcDbText
  0
TEXT
  5
357
330
18
100
AcDbEntity
  8
文字
100
AcDbText
 10
287.732394707628
 20
273.1727053371173
 30
0.0
 40
1.8
  1
20
  7
STYLE3
100
AcDbText
  0
TEXT
  5
358
330
18
100
AcDbEntity
  8
文字
100
AcDbText
 10
283.4066065124859
 20
278.2444640149014
 30
0.0
 40
1.8
  1
15
  7
STYLE3
100
AcDbText
  0
TEXT
  5
359
330
18
100
AcDbEntity
  8
文字
100
AcDbText
 10
283.6786344556642
 20
285.3768608177966
 30
0.0
 40
1.8
  1
10
  7
STYLE3
100
AcDbText
  0
TEXT
  5
35A
330
18
100
AcDbEntity
  8
文字
100
AcDbText
 10
288.3764988890409
 20
290.7096426721921
 30
0.0
 40
1.8
  1
5
  7
STYLE3
100
AcDbText
  0
TEXT
  5
35E
330
18
100
AcDbEntity
  8
文字
100
AcDbText
 10
299.2439910653591
 20
282.1333717272166
 30
0.0
 40
0.8
  1
0.01mm
  7
STYLE3
100
AcDbText
  0
TEXT
  5
35F
330
18
100
AcDbEntity
  8
文字
100
AcDbText
 10
288.648757936968
 20
282.1686604625423
 30
0.0
 40
0.8
  1
Jeweled
  7
STYLE3
100
AcDbText
  0
TEXT
  5
363
330
18
100
AcDbEntity
  8
文字
100
AcDbText
 10
292.545825447168
 20
275.561115303184
 30
0.0
 40
1.0
  1
PCN-1A
  7
STYLE3
100
AcDbText
  0
TEXT
  5
368
330
18
100
AcDbEntity
  8
文字
100
AcDbText
 10
291.2692391721046
 20
285.556343567627
 30
0.0
 40
0.8
  1
MADE IN JAPAN
  7
STYLE3
100
AcDbText
  0
INSERT
  5
B43
330
18
100
AcDbEntity
  8
文字
100
AcDbBlockReference
  2
ROGO1
 10
301.1334577592202
 20
275.1168679656769
 30
0.0
  0
INSERT
  5
B44
330
18
100
AcDbEntity
  8
文字
100
AcDbBlockReference
  2
ROGO1
 10
301.1095809474122
 20
275.1436630917189
 30
0.0
  0
LINE
  5
BFE
330
18
100
AcDbEntity
  8
外形線
 62
     4
100
AcDbLine
 10
377.939473821029
 20
238.7827115117917
 30
0.0
 11
376.4787043055701
 21
238.7827115117917
 31
0.0
  0
LINE
  5
BFF
330
18
100
AcDbEntity
  8
外形線
100
AcDbLine
 10
378.4590890632995
 20
238.4827115117917
 30
0.0
 11
375.9590890632995
 21
238.4827115117917
 31
0.0
  0
LINE
  5
C00
330
18
100
AcDbEntity
  8
外形線
100
AcDbLine
 10
378.4590890632995
 20
239.0827115117917
 30
0.0
 11
375.9590890632995
 21
239.0827115117917
 31
0.0
  0
LINE
  5
C06
330
18
100
AcDbEntity
  8
外形線
100
AcDbLine
 10
378.4590890632995
 20
240.4827115117917
 30
0.0
 11
378.4590890632995
 21
239.0827115117916
 31
0.0
  0
LINE
  5
C07
330
18
100
AcDbEntity
  8
外形線
100
AcDbLine
 10
375.9590890632995
 20
240.4827115117917
 30
0.0
 11
375.9590890632995
 21
239.0827115117917
 31
0.0
  0
LINE
  5
C0B
330
18
100
AcDbEntity
  8
外形線
100
AcDbLine
 10
375.9590890632995
 20
238.4827115117917
 30
0.0
 11
375.9590890632995
 21
236.3427115117917
 31
0.0
  0
LINE
  5
C0C
330
18
100
AcDbEntity
  8
外形線
100
AcDbLine
 10
378.4590890632995
 20
238.4827115117917
 30
0.0
 11
378.4590890632995
 21
236.3427115117918
 31
0.0
  0
LINE
  5
C0D
330
18
100
AcDbEntity
  8
外形線
100
AcDbLine
 10
375.9590890632995
 20
239.0827115117917
 30
0.0
 11
376.4787043055702
 21
238.7827115117918
 31
0.0
  0
LINE
  5
C0E
330
18
100
AcDbEntity
  8
外形線
100
AcDbLine
 10
375.9590890632995
 20
238.4827115117917
 30
0.0
 11
376.4787043055701
 21
238.7827115117918
 31
0.0
  0
LINE
  5
C0F
330
18
100
AcDbEntity
  8
外形線
100
AcDbLine
 10
378.4590890632995
 20
238.4827115117917
 30
0.0
 11
377.9394738210288
 21
238.7827115117918
 31
0.0
  0
LINE
  5
C10
330
18
100
AcDbEntity
  8
外形線
100
AcDbLine
 10
378.4590890632995
 20
239.0827115117917
 30
0.0
 11
377.9394738210287
 21
238.7827115117918
 31
0.0
  0
LINE
  5
C12
330
18
100
AcDbEntity
  8
外形線
100
AcDbLine
 10
375.9590890632995
 20
236.3427115117917
 30
0.0
 11
376.6090890632995
 21
223.8427115117917
 31
0.0
  0
LINE
  5
C13
330
18
100
AcDbEntity
  8
外形線
100
AcDbLine
 10
378.4590890632995
 20
236.3427115117918
 30
0.0
 11
377.8090890632995
 21
223.8427115117917
 31
0.0
  0
ARC
  5
C14
330
18
100
AcDbEntity
  8
外形線
100
AcDbCircle
 10
377.2090890632995
 20
223.0427115117917
 30
0.0
 40
1.0
100
AcDbArc
 50
126.869897645842
 51
53.13010235415791
  0
LINE
  5
C24
330
18
100
AcDbEntity
  8
隠れ線
 62
     4
 48
0.3
100
AcDbLine
 10
377.2090890632995
 20
224.0423333415695
 30
0.0
 11
377.8090890632995
 21
223.8427115117917
 31
0.0
  0
LINE
  5
C25
330
18
100
AcDbEntity
  8
隠れ線
 62
     4
 48
0.3
100
AcDbLine
 10
377.2090890632995
 20
224.0423333415695
 30
0.0
 11
376.6090890632995
 21
223.8427115117917
 31
0.0
  0
LINE
  5
CBB
330
18
100
AcDbEntity
  8
外形線
100
AcDbLine
 10
290.5891924217104
 20
246.3427115117917
 30
0.0
 11
290.5891924217104
 21
242.3427115117917
 31
0.0
  0
LINE
  5
CBC
330
18
100
AcDbEntity
  8
外形線
100
AcDbLine
 10
291.0891924217103
 20
247.3427115117917
 30
0.0
 11
291.0891924217103
 21
241.3427115117917
 31
0.0
  0
LINE
  5
CBD
330
18
100
AcDbEntity
  8
外形線
100
AcDbLine
 10
291.0891924217103
 20
242.3427115117917
 30
0.0
 11
290.5891924217104
 21
242.3427115117917
 31
0.0
  0
LINE
  5
CBE
330
18
100
AcDbEntity
  8
外形線
100
AcDbLine
 10
291.5891924217104
 20
241.3427115117917
 30
0.0
 11
291.0891924217103
 21
241.3427115117917
 31
0.0
  0
LINE
  5
CBF
330
18
100
AcDbEntity
  8
外形線
100
AcDbLine
 10
291.0891924217103
 20
246.3427115117917
 30
0.0
 11
290.5891924217104
 21
246.3427115117917
 31
0.0
  0
LINE
  5
CC0
330
18
100
AcDbEntity
  8
外形線
100
AcDbLine
 10
291.5891924217104
 20
247.3427115117917
 30
0.0
 11
291.0891924217103
 21
247.3427115117917
 31
0.0
  0
INSERT
  5
FCB
330
18
100
AcDbEntity
  8
文字
100
AcDbBlockReference
  2
ROGO1
 10
579.0605083803766
 20
282.754069537204
 30
0.0
  0
INSERT
  5
FCC
330
18
100
AcDbEntity
  8
文字
100
AcDbBlockReference
  2
ROGO1
 10
579.0366315685687
 20
282.780864663246
 30
0.0
  0
ARC
  5
1204
330
18
100
AcDbEntity
  8
外形線
100
AcDbCircle
 10
377.2090890632995
 20
244.3427115117916
 30
0.0
 40
3.0
100
AcDbArc
 50
54.59406822686052
 51
215.4059317731395
  0
ARC
  5
1205
330
18
100
AcDbEntity
  8
外形線
100
AcDbCircle
 10
377.2090890632995
 20
244.3427115117916
 30
0.0
 40
3.0
100
AcDbArc
 50
234.5940682268605
 51
35.4059317731395
  0
LINE
  5
1206
330
18
100
AcDbEntity
  8
外形線
100
AcDbLine
 10
379.330409406859
 20
245.7569250741647
 30
0.0
 11
379.6542925202279
 21
246.0808081875336
 31
0.0
  0
LINE
  5
1208
330
18
100
AcDbEntity
  8
外形線
100
AcDbLine
 10
375.7948755009264
 20
242.221391168232
 30
0.0
 11
375.0877687197398
 21
242.9284979494186
 31
0.0
  0
LINE
  5
1209
330
18
100
AcDbEntity
  8
外形線
100
AcDbLine
 10
375.7948755009264
 20
242.221391168232
 30
0.0
 11
375.4709923875576
 21
241.8975080548632
 31
0.0
  0
LINE
  5
120A
330
18
100
AcDbEntity
  8
外形線
100
AcDbLine
 10
375.0877687197398
 20
242.9284979494186
 30
0.0
 11
374.7638856063709
 21
242.6046148360498
 31
0.0
  0
LINE
  5
120B
330
18
100
AcDbEntity
  8
外形線
100
AcDbLine
 10
379.330409406859
 20
245.7569250741647
 30
0.0
 11
378.6233026256726
 21
246.4640318553513
 31
0.0
  0
LINE
  5
120C
330
18
100
AcDbEntity
  8
外形線
100
AcDbLine
 10
378.6233026256726
 20
246.4640318553513
 30
0.0
 11
378.9471857390414
 21
246.7879149687202
 31
0.0
  0
LINE
  5
120D
330
18
100
AcDbEntity
  8
外形線
100
AcDbLine
 10
375.7948755009264
 20
242.9284979494186
 30
0.0
 11
378.6233026256726
 21
245.7569250741648
 31
0.0
  0
CIRCLE
  5
1210
330
18
100
AcDbEntity
  8
外形線
100
AcDbCircle
 10
377.2090890632995
 20
244.3427115117917
 30
0.0
 40
2.0
  0
LINE
  5
121E
330
18
100
AcDbEntity
  8
外形線
100
AcDbLine
 10
372.1992803318489
 20
293.74893662681
 30
0.0
 11
371.11889779475
 21
295.0364863967737
 31
0.0
  0
LINE
  5
121F
330
18
100
AcDbEntity
  8
外形線
100
AcDbLine
 10
371.0153141783176
 20
293.8525202432424
 30
0.0
 11
372.3028639482813
 21
294.9329027803413
 31
0.0
  0
CIRCLE
  5
1221
330
18
100
AcDbEntity
  8
外形線
100
AcDbCircle
 10
371.6590890632994
 20
294.3927115117918
 30
0.0
 40
1.5
  0
LINE
  5
1249
330
18
100
AcDbEntity
  8
外形線
100
AcDbLine
 10
380.2090890632995
 20
314.5388639344984
 30
0.0
 11
380.2090890632995
 21
299.3427115117918
 31
0.0
  0
LINE
  5
124A
330
18
100
AcDbEntity
  8
外形線
100
AcDbLine
 10
374.2090890632995
 20
314.5388639344984
 30
0.0
 11
374.2090890632995
 21
299.3427115117918
 31
0.0
  0
LINE
  5
1253
330
18
100
AcDbEntity
  8
外形線
100
AcDbLine
 10
374.2090890632995
 20
299.3427115117918
 30
0.0
 11
380.2090890632995
 21
299.3427115117918
 31
0.0
  0
LINE
  5
1259
330
18
100
AcDbEntity
  8
外形線
100
AcDbLine
 10
374.2090890632995
 20
314.5388639344984
 30
0.0
 11
380.2090890632995
 21
314.5388639344984
 31
0.0
  0
ARC
  5
125A
330
18
100
AcDbEntity
  8
外形線
100
AcDbCircle
 10
377.2090890632995
 20
309.3427115117918
 30
0.0
 40
6.0
100
AcDbArc
 50
60.0
 51
120.0
  0
CIRCLE
  5
1284
330
18
100
AcDbEntity
  8
外形線
100
AcDbCircle
 10
295.5891924217104
 20
282.5427115117917
 30
0.0
 40
1.5
  0
POINT
  5
1285
330
18
100
AcDbEntity
  8
DEFPOINTS
  6
ByBlock
 62
     0
100
AcDbPoint
 10
295.5891924217104
 20
282.5427115117917
 30
0.0
  0
POINT
  5
1286
330
18
100
AcDbEntity
  8
DEFPOINTS
  6
ByBlock
 62
     0
100
AcDbPoint
 10
295.5891924217104
 20
282.5427115117917
 30
0.0
  0
POINT
  5
1287
330
18
100
AcDbEntity
  8
DEFPOINTS
  6
ByBlock
 62
     0
100
AcDbPoint
 10
295.5891924217104
 20
282.5427115117917
 30
0.0
  0
POINT
  5
1288
330
18
100
AcDbEntity
  8
DEFPOINTS
  6
ByBlock
 62
     0
100
AcDbPoint
 10
295.5891924217104
 20
282.5427115117917
 30
0.0
  0
CIRCLE
  5
1289
330
18
100
AcDbEntity
  8
外形線
 62
     4
100
AcDbCircle
 10
295.5891924217104
 20
282.5427115117917
 30
0.0
 40
0.25
  0
LINE
  5
1294
330
18
100
AcDbEntity
  8
針
100
AcDbLine
 10
287.186010649551
 20
293.9896078642555
 30
0.0
 11
287.2992730287635
 21
294.0718977995764
 31
0.0
  0
LINE
  5
12CA
330
18
100
AcDbEntity
  8
外形線
100
AcDbLine
 10
363.7728310318922
 20
300.0427115117917
 30
0.0
 11
366.9228310318922
 21
300.0427115117917
 31
0.0
  0
LINE
  5
12CC
330
18
100
AcDbEntity
  8
外形線
100
AcDbLine
 10
363.5728310318923
 20
299.8427115117917
 30
0.0
 11
363.5728310318921
 21
265.2427115117919
 31
0.0
  0
LINE
  5
12CD
330
18
100
AcDbEntity
  8
外形線
100
AcDbLine
 10
367.2728310318923
 20
299.6927115117916
 30
0.0
 11
367.2728310318922
 21
265.3927115117918
 31
0.0
  0
LINE
  5
12CE
330
18
100
AcDbEntity
  8
外形線
100
AcDbLine
 10
368.2728310318922
 20
299.6927115117917
 30
0.0
 11
368.2728310318922
 21
265.3927115117917
 31
0.0
  0
LINE
  5
12CF
330
18
100
AcDbEntity
  8
外形線
 48
0.5
100
AcDbLine
 10
363.5728310318922
 20
299.8427115117917
 30
0.0
 11
363.7728310318922
 21
300.0427115117917
 31
0.0
  0
LINE
  5
12D0
330
18
100
AcDbEntity
  8
外形線
100
AcDbLine
 10
366.9228310318922
 20
300.0427115117917
 30
0.0
 11
367.2728310318922
 21
299.6927115117917
 31
0.0
  0
LINE
  5
12EF
330
18
100
AcDbEntity
  8
外形線
100
AcDbLine
 10
366.9228310318922
 20
265.0427115117917
 30
0.0
 11
367.2728310318922
 21
265.3927115117917
 31
0.0
  0
LINE
  5
12F0
330
18
100
AcDbEntity
  8
外形線
 48
0.5
100
AcDbLine
 10
363.5728310318922
 20
265.2427115117917
 30
0.0
 11
363.7728310318922
 21
265.0427115117917
 31
0.0
  0
LINE
  5
12F1
330
18
100
AcDbEntity
  8
外形線
100
AcDbLine
 10
363.7728310318922
 20
265.0427115117917
 30
0.0
 11
366.9228310318922
 21
265.0427115117917
 31
0.0
  0
LINE
  5
12F5
330
18
100
AcDbEntity
  8
外形線
100
AcDbLine
 10
363.0728310318922
 20
299.0427115117917
 30
0.0
 11
363.0728310318922
 21
266.0427115117918
 31
0.0
  0
LINE
  5
12FF
330
18
100
AcDbEntity
  8
外形線
100
AcDbLine
 10
367.2728310318922
 20
299.6927115117916
 30
0.0
 11
368.2728310318922
 21
299.6927115117917
 31
0.0
  0
LINE
  5
1300
330
18
100
AcDbEntity
  8
外形線
100
AcDbLine
 10
367.2728310318922
 20
265.3927115117917
 30
0.0
 11
368.2728310318922
 21
265.3927115117917
 31
0.0
  0
LINE
  5
1308
330
18
100
AcDbEntity
  8
外形線
100
AcDbLine
 10
363.0728310318922
 20
299.0427115117917
 30
0.0
 11
363.5728310318923
 21
299.5427115117917
 31
0.0
  0
LINE
  5
1309
330
18
100
AcDbEntity
  8
外形線
100
AcDbLine
 10
363.0728310318922
 20
266.0427115117917
 30
0.0
 11
363.5728310318923
 21
265.5427115117917
 31
0.0
  0
LINE
  5
1312
330
18
100
AcDbEntity
  8
外形線
100
AcDbLine
 10
363.5728310318924
 20
299.3427115117917
 30
0.0
 11
367.2728310318922
 21
299.3427115117917
 31
0.0
  0
LINE
  5
1313
330
18
100
AcDbEntity
  8
外形線
100
AcDbLine
 10
363.5728310318924
 20
298.6427115117917
 30
0.0
 11
367.2728310318922
 21
298.6427115117917
 31
0.0
  0
LINE
  5
1314
330
18
100
AcDbEntity
  8
外形線
100
AcDbLine
 10
363.5728310318924
 20
297.8427115117917
 30
0.0
 11
367.2728310318922
 21
297.8427115117916
 31
0.0
  0
LINE
  5
1315
330
18
100
AcDbEntity
  8
外形線
100
AcDbLine
 10
363.5728310318924
 20
297.0427115117917
 30
0.0
 11
367.2728310318922
 21
297.0427115117917
 31
0.0
  0
LINE
  5
1316
330
18
100
AcDbEntity
  8
外形線
100
AcDbLine
 10
363.5728310318924
 20
296.1427115117917
 30
0.0
 11
367.2728310318922
 21
296.1427115117917
 31
0.0
  0
LINE
  5
1328
330
18
100
AcDbEntity
  8
外形線
100
AcDbLine
 10
363.5728310318922
 20
283.2427115117917
 30
0.0
 11
367.2728310318922
 21
283.2427115117917
 31
0.0
  0
LINE
  5
1329
330
18
100
AcDbEntity
  8
外形線
100
AcDbLine
 10
363.5728310318922
 20
281.8427115117917
 30
0.0
 11
367.2728310318922
 21
281.8427115117917
 31
0.0
  0
LINE
  5
132A
330
18
100
AcDbEntity
  8
外形線
100
AcDbLine
 10
363.5728310318922
 20
284.0427115117917
 30
0.0
 11
367.2728310318922
 21
284.0427115117917
 31
0.0
  0
LINE
  5
132B
330
18
100
AcDbEntity
  8
外形線
100
AcDbLine
 10
363.5728310318922
 20
281.0427115117917
 30
0.0
 11
367.2728310318922
 21
281.0427115117917
 31
0.0
  0
LINE
  5
132C
330
18
100
AcDbEntity
  8
外形線
100
AcDbLine
 10
363.5728310318922
 20
282.5427115117917
 30
0.0
 11
367.2728310318922
 21
282.5427115117917
 31
0.0
  0
LINE
  5
132D
330
18
100
AcDbEntity
  8
外形線
100
AcDbLine
 10
363.5728310318924
 20
268.9427115117917
 30
0.0
 11
367.2728310318922
 21
268.9427115117917
 31
0.0
  0
LINE
  5
132E
330
18
100
AcDbEntity
  8
外形線
100
AcDbLine
 10
363.5728310318924
 20
268.0427115117917
 30
0.0
 11
367.2728310318922
 21
268.0427115117917
 31
0.0
  0
LINE
  5
132F
330
18
100
AcDbEntity
  8
外形線
100
AcDbLine
 10
363.5728310318924
 20
267.2427115117917
 30
0.0
 11
367.2728310318922
 21
267.2427115117918
 31
0.0
  0
LINE
  5
1330
330
18
100
AcDbEntity
  8
外形線
100
AcDbLine
 10
363.5728310318924
 20
266.4427115117917
 30
0.0
 11
367.2728310318922
 21
266.4427115117917
 31
0.0
  0
LINE
  5
1331
330
18
100
AcDbEntity
  8
外形線
100
AcDbLine
 10
363.5728310318924
 20
265.7427115117917
 30
0.0
 11
367.2728310318922
 21
265.7427115117917
 31
0.0
  0
LINE
  5
1336
330
18
100
AcDbEntity
  8
外形線
100
AcDbLine
 10
368.2728310318922
 20
297.5427115117917
 30
0.0
 11
368.7728310318923
 21
297.5427115117917
 31
0.0
  0
ARC
  5
1337
330
18
100
AcDbEntity
  8
外形線
100
AcDbCircle
 10
368.7728310318923
 20
296.5427115117917
 30
0.0
 40
1.0
100
AcDbArc
 50
64.13462858156407
 51
90.0
  0
ARC
  5
1338
330
18
100
AcDbEntity
  8
外形線
100
AcDbCircle
 10
368.7728310318923
 20
268.5427115117917
 30
0.0
 40
1.0
100
AcDbArc
 50
270.0
 51
295.8653714184359
  0
LINE
  5
1339
330
18
100
AcDbEntity
  8
外形線
100
AcDbLine
 10
368.2728310318922
 20
267.5427115117917
 30
0.0
 11
368.7728310318923
 21
267.5427115117917
 31
0.0
  0
ARC
  5
133C
330
18
100
AcDbEntity
  8
外形線
100
AcDbCircle
 10
423.0881206478764
 20
282.5427115117916
 30
0.0
 40
62.37903158457702
100
AcDbArc
 50
166.4545064755762
 51
193.5454935244236
  0
LINE
  5
1343
330
18
100
AcDbEntity
  8
外形線
100
AcDbLine
 10
362.9303003940031
 20
297.5358551372345
 30
0.0
 11
363.0728310318922
 21
297.5358551372345
 31
0.0
  0
ARC
  5
1345
330
18
100
AcDbEntity
  8
外形線
100
AcDbCircle
 10
362.930300394003
 20
297.0358551372345
 30
0.0
 40
0.5
100
AcDbArc
 50
89.99999999999349
 51
166.4545064755751
  0
ARC
  5
1346
330
18
100
AcDbEntity
  8
外形線
100
AcDbCircle
 10
362.930300394003
 20
268.0495678863489
 30
0.0
 40
0.5
100
AcDbArc
 50
193.5454935244249
 51
270.0000000000065
  0
LINE
  5
1347
330
18
100
AcDbEntity
  8
外形線
100
AcDbLine
 10
362.9303003940031
 20
267.5495678863489
 30
0.0
 11
363.0728310318922
 21
267.5495678863489
 31
0.0
  0
LINE
  5
138E
330
18
100
AcDbEntity
  8
外形線
100
AcDbLine
 10
300.0891924217104
 20
247.3427115117917
 30
0.0
 11
300.0891924217104
 21
241.3427115117917
 31
0.0
  0
LINE
  5
138F
330
18
100
AcDbEntity
  8
外形線
100
AcDbLine
 10
300.5891924217104
 20
246.3427115117917
 30
0.0
 11
300.5891924217104
 21
242.3427115117917
 31
0.0
  0
LINE
  5
1390
330
18
100
AcDbEntity
  8
外形線
100
AcDbLine
 10
299.5891924217104
 20
241.3427115117917
 30
0.0
 11
300.0891924217104
 21
241.3427115117917
 31
0.0
  0
LINE
  5
1391
330
18
100
AcDbEntity
  8
外形線
100
AcDbLine
 10
300.0891924217104
 20
242.3427115117917
 30
0.0
 11
300.5891924217104
 21
242.3427115117917
 31
0.0
  0
LINE
  5
1392
330
18
100
AcDbEntity
  8
外形線
100
AcDbLine
 10
299.5891924217104
 20
247.3427115117917
 30
0.0
 11
300.0891924217104
 21
247.3427115117917
 31
0.0
  0
LINE
  5
1393
330
18
100
AcDbEntity
  8
外形線
100
AcDbLine
 10
300.0891924217104
 20
246.3427115117917
 30
0.0
 11
300.5891924217104
 21
246.3427115117917
 31
0.0
  0
POINT
  5
14D3
330
18
100
AcDbEntity
  8
DEFPOINTS
  6
ByBlock
 62
     0
100
AcDbPoint
 10
377.2090890632995
 20
244.3427115117917
 30
0.0
  0
POINT
  5
14D4
330
18
100
AcDbEntity
  8
DEFPOINTS
  6
ByBlock
 62
     0
100
AcDbPoint
 10
377.2090890632995
 20
244.3427115117917
 30
0.0
  0
CIRCLE
  5
14E2
102
{ACAD_REACTORS
330
14E5
102
}
330
18
100
AcDbEntity
  8
寸法線
100
AcDbCircle
 10
369.5659474736365
 20
255.6798995292721
 30
0.0
 40
0.222687898198611
  0
HATCH
  5
14E5
330
18
100
AcDbEntity
  8
寸法線
100
AcDbHatch
 10
0.0
 20
0.0
 30
0.0
210
0.0
220
0.0
230
1.0
  2
SOLID
 70
     1
 71
     1
 91
        1
 92
        7
 72
     1
 73
     1
 93
        2
 10
369.7886353718351
 20
255.6798995292721
 42
1.0
 10
369.3432595754379
 20
255.6798995292721
 42
1.0
 97
        1
330
14E2
 75
     0
 76
     1
 47
0.0124670341605454
 98
        1
 10
369.623924774983
 20
255.6567275891809
450
        0
451
        0
460
0.0
461
0.0
452
        0
462
0.0
453
        0
470

  0
TEXT
  5
14EC
330
18
100
AcDbEntity
  8
寸法線
 62
     6
100
AcDbText
 10
394.4106510677073
 20
280.2900421969041
 30
0.0
 40
2.5
  1
A
  7
STYLE3
100
AcDbText
  0
CIRCLE
  5
14EE
102
{ACAD_REACTORS
330
14F1
102
}
330
18
100
AcDbEntity
  8
寸法線
100
AcDbCircle
 10
385.7966106974347
 20
270.363772262046
 30
0.0
 40
0.222687898198611
  0
HATCH
  5
14F1
330
18
100
AcDbEntity
  8
寸法線
100
AcDbHatch
 10
0.0
 20
0.0
 30
0.0
210
0.0
220
0.0
230
1.0
  2
SOLID
 70
     1
 71
     1
 91
        1
 92
        7
 72
     1
 73
     1
 93
        2
 10
386.0192985956333
 20
270.363772262046
 42
1.0
 10
385.5739227992361
 20
270.363772262046
 42
1.0
 97
        1
330
14EE
 75
     0
 76
     1
 47
0.0200805185115556
 98
        1
 10
385.9211268008504
 20
270.2469858340678
450
        0
451
        0
460
0.0
461
0.0
452
        0
462
0.0
453
        0
470

  0
CIRCLE
  5
14F8
102
{ACAD_REACTORS
330
151F
102
}
330
18
100
AcDbEntity
  8
寸法線
100
AcDbCircle
 10
371.9786133637214
 20
298.596107008646
 30
0.0
 40
0.222687898198611
  0
HATCH
  5
151F
330
18
100
AcDbEntity
  8
寸法線
100
AcDbHatch
 10
0.0
 20
0.0
 30
0.0
210
0.0
220
0.0
230
1.0
  2
SOLID
 70
     1
 71
     1
 91
        1
 92
        7
 72
     1
 73
     1
 93
        2
 10
372.20130126192
 20
298.596107008646
 42
1.0
 10
371.7559254655228
 20
298.596107008646
 42
1.0
 97
        1
330
14F8
 75
     0
 76
     1
 47
0.0431140550968677
 98
        1
 10
372.0958634783066
 20
298.4867718378825
450
        0
451
        0
460
0.0
461
0.0
452
        0
462
0.0
453
        0
470

  0
LINE
  5
157C
330
18
100
AcDbEntity
  8
外形線
100
AcDbLine
 10
444.7250316252913
 20
270.0897174587739
 30
0.0
 11
457.6054249452031
 21
270.089717458774
 31
0.0
  0
LINE
  5
157F
330
18
100
AcDbEntity
  8
外形線
100
AcDbLine
 10
433.9302875136168
 20
273.389717458774
 30
0.0
 11
446.6302875136169
 21
273.3897174587739
 31
0.0
  0
LINE
  5
1584
330
18
100
AcDbEntity
  8
外形線
100
AcDbLine
 10
444.7250316252913
 20
270.0897174587739
 30
0.0
 11
446.6302875136169
 21
273.3897174587739
 31
0.0
  0
LINE
  5
1585
330
18
100
AcDbEntity
  8
外形線
100
AcDbLine
 10
435.8355434019427
 20
270.0897174587739
 30
0.0
 11
433.9302875136168
 21
273.389717458774
 31
0.0
  0
LINE
  5
1586
330
18
100
AcDbEntity
  8
外形線
100
AcDbLine
 10
435.8355434019427
 20
270.0897174587739
 30
0.0
 11
422.9551500820308
 21
270.0897174587739
 31
0.0
  0
CIRCLE
  5
1588
330
18
100
AcDbEntity
  8
外形線
100
AcDbCircle
 10
433.2402875136168
 20
271.5897174587739
 30
0.0
 40
1.5
  0
CIRCLE
  5
1589
330
18
100
AcDbEntity
  8
外形線
100
AcDbCircle
 10
447.320287513617
 20
271.5897174587739
 30
0.0
 40
1.5
  0
LINE
  5
158C
330
18
100
AcDbEntity
  8
中心線
100
AcDbLine
 10
430.3034820090678
 20
271.5897174587739
 30
0.0
 11
436.3805461895796
 21
271.5897174587739
 31
0.0
  0
LINE
  5
158D
330
18
100
AcDbEntity
  8
中心線
100
AcDbLine
 10
447.320287513617
 20
275.0061395729154
 30
0.0
 11
447.320287513617
 21
267.8654898890836
 31
0.0
  0
LINE
  5
158E
330
18
100
AcDbEntity
  8
中心線
100
AcDbLine
 10
433.2402875136168
 20
275.0061395729154
 30
0.0
 11
433.2402875136168
 21
267.8654898890836
 31
0.0
  0
LINE
  5
1591
330
18
100
AcDbEntity
  8
中心線
100
AcDbLine
 10
444.4118092315104
 20
271.589717458774
 30
0.0
 11
450.6450291737953
 21
271.5897174587739
 31
0.0
  0
LINE
  5
15A3
330
18
100
AcDbEntity
  8
寸法線
100
AcDbLine
 10
422.9551500820308
 20
267.9209613245325
 30
0.0
 11
425.1239062162722
 21
270.0897174587739
 31
0.0
  0
LINE
  5
15A4
330
18
100
AcDbEntity
  8
寸法線
100
AcDbLine
 10
422.9551500820308
 20
263.4308332639978
 30
0.0
 11
429.6140342768069
 21
270.0897174587739
 31
0.0
  0
LINE
  5
15A5
330
18
100
AcDbEntity
  8
寸法線
100
AcDbLine
 10
426.0098354151449
 20
261.9953905365774
 30
0.0
 11
434.1041623373415
 21
270.089717458774
 31
0.0
  0
LINE
  5
15A6
330
18
100
AcDbEntity
  8
寸法線
100
AcDbLine
 10
435.2018139486673
 20
271.1873690700998
 30
0.0
 11
437.4041623373415
 21
273.389717458774
 31
0.0
  0
LINE
  5
15A7
330
18
100
AcDbEntity
  8
寸法線
100
AcDbLine
 10
430.4999634756795
 20
261.9953905365774
 30
0.0
 11
441.8942903978762
 21
273.389717458774
 31
0.0
  0
LINE
  5
15A8
330
18
100
AcDbEntity
  8
寸法線
100
AcDbLine
 10
434.990091536214
 20
261.9953905365774
 30
0.0
 11
446.3844184584107
 21
273.389717458774
 31
0.0
  0
LINE
  5
15A9
330
18
100
AcDbEntity
  8
寸法線
100
AcDbLine
 10
439.4802195967486
 20
261.9953905365774
 30
0.0
 11
447.5745465189453
 21
270.0897174587741
 31
0.0
  0
LINE
  5
15AA
330
18
100
AcDbEntity
  8
寸法線
100
AcDbLine
 10
443.9703476572833
 20
261.9953905365774
 30
0.0
 11
452.0646745794798
 21
270.089717458774
 31
0.0
  0
LINE
  5
15AB
330
18
100
AcDbEntity
  8
寸法線
100
AcDbLine
 10
448.4604757178177
 20
261.9953905365774
 30
0.0
 11
456.5548026400144
 21
270.089717458774
 31
0.0
  0
LINE
  5
15AC
330
18
100
AcDbEntity
  8
寸法線
100
AcDbLine
 10
452.9506037783525
 20
261.9953905365775
 30
0.0
 11
457.6054249452031
 21
266.6502117034281
 31
0.0
  0
LINE
  5
1634
330
18
100
AcDbEntity
  8
0
  6
ByBlock
 62
     2
100
AcDbLine
 10
446.6302875136169
 20
273.3897174587739
 30
0.0
 11
458.2501812226191
 21
293.5159637413166
 31
0.0
  0
LINE
  5
1635
330
18
100
AcDbEntity
  8
0
  6
ByBlock
 62
     2
100
AcDbLine
 10
433.9302875136168
 20
273.389717458774
 30
0.0
 11
422.3103938046145
 21
293.5159637413164
 31
0.0
  0
ARC
  5
1636
330
18
100
AcDbEntity
  8
0
  6
ByBlock
 62
     2
100
AcDbCircle
 10
440.280287513617
 20
262.3911948307111
 30
0.0
 40
34.6897874180055
100
AcDbArc
 50
64.13004734756665
 51
115.869952652434
  0
INSERT
  5
1637
330
18
100
AcDbEntity
  8
0
  6
ByBlock
 62
     2
100
AcDbBlockReference
  2
_OPEN
 10
457.6251812226192
 20
292.4334319865861
 30
0.0
 41
2.5
 42
2.5
 43
2.5
 50
332.0650236737839
  0
INSERT
  5
1638
330
18
100
AcDbEntity
  8
0
  6
ByBlock
 62
     2
100
AcDbBlockReference
  2
_OPEN
 10
422.9353938046146
 20
292.4334319865859
 30
0.0
 41
2.5
 42
2.5
 43
2.5
 50
207.9349763262168
  0
MTEXT
  5
1639
330
18
100
AcDbEntity
  8
0
  6
ByBlock
 62
     6
100
AcDbMText
 10
441.7747486118401
 20
298.9559822487166
 30
0.0
 40
2.5
 41
0.0
 71
     5
 72
     1
  1
\A1;60°
  7
STYLE3
 73
     1
 44
1.0
  0
POINT
  5
163A
330
18
100
AcDbEntity
  8
DEFPOINTS
  6
ByBlock
 62
     0
100
AcDbPoint
 10
446.3041058824065
 20
296.5539664303083
 30
0.0
  0
POINT
  5
163B
330
18
100
AcDbEntity
  8
DEFPOINTS
  6
ByBlock
 62
     0
100
AcDbPoint
 10
435.8355434019427
 20
270.0897174587739
 30
0.0
  0
POINT
  5
163C
330
18
100
AcDbEntity
  8
DEFPOINTS
  6
ByBlock
 62
     0
100
AcDbPoint
 10
444.7250316252913
 20
270.0897174587739
 30
0.0
  0
POINT
  5
163D
330
18
100
AcDbEntity
  8
DEFPOINTS
  6
ByBlock
 62
     0
100
AcDbPoint
 10
446.6302875136169
 20
273.3897174587739
 30
0.0
  0
POINT
  5
163E
330
18
100
AcDbEntity
  8
DEFPOINTS
  6
ByBlock
 62
     0
100
AcDbPoint
 10
433.9302875136168
 20
273.389717458774
 30
0.0
  0
LINE
  5
164E
330
18
100
AcDbEntity
  8
0
  6
ByBlock
 62
     2
100
AcDbLine
 10
431.0078925633296
 20
278.4514539924546
 30
0.0
 11
422.3103938046146
 21
293.5159637413164
 31
0.0
  0
LINE
  5
164F
330
18
100
AcDbEntity
  8
0
  6
ByBlock
 62
     2
100
AcDbLine
 10
431.9412494079401
 20
270.8397174587739
 30
0.0
 11
419.7144328355317
 21
292.0171849770107
 31
0.0
  0
LINE
  5
1651
330
18
100
AcDbEntity
  8
0
  6
ByBlock
 62
     2
100
AcDbLine
 10
418.1743693260706
 20
289.6846532222802
 30
0.0
 11
416.0093058166095
 21
288.4346532222803
 31
0.0
  0
LINE
  5
1652
330
18
100
AcDbEntity
  8
0
  6
ByBlock
 62
     2
100
AcDbLine
 10
422.9353938046146
 20
292.4334319865859
 30
0.0
 11
420.3394328355317
 21
290.9346532222802
 31
0.0
  0
INSERT
  5
1654
330
18
100
AcDbEntity
  8
0
  6
ByBlock
 62
     2
100
AcDbBlockReference
  2
_OPEN
 10
420.3394328355317
 20
290.9346532222802
 30
0.0
 41
2.5
 42
2.5
 43
2.5
 50
29.99999999999951
  0
MTEXT
  5
1655
330
18
100
AcDbEntity
  8
0
  6
ByBlock
 62
     6
100
AcDbMText
 10
418.3911614114403
 20
293.3078402365288
 30
0.0
 40
2.5
 41
0.0
 71
     5
 72
     1
  1
φ1.5
  7
STYLE3
 11
0.8660254037844429
 21
0.4999999999999926
 31
0.0
 73
     1
 44
1.0
  0
POINT
  5
1656
330
18
100
AcDbEntity
  8
DEFPOINTS
  6
ByBlock
 62
     0
100
AcDbPoint
 10
431.0078925633296
 20
278.4514539924546
 30
0.0
 50
60.00000000000049
  0
POINT
  5
1657
330
18
100
AcDbEntity
  8
DEFPOINTS
  6
ByBlock
 62
     0
100
AcDbPoint
 10
431.9412494079401
 20
270.8397174587739
 30
0.0
 50
60.00000000000049
  0
POINT
  5
1658
330
18
100
AcDbEntity
  8
DEFPOINTS
  6
ByBlock
 62
     0
100
AcDbPoint
 10
420.3394328355317
 20
290.9346532222802
 30
0.0
 50
60.00000000000049
  0
LINE
  5
1664
330
18
100
AcDbEntity
  8
0
  6
ByBlock
 62
     2
100
AcDbLine
 10
446.6302875136169
 20
273.3897174587739
 30
0.0
 11
464.386437267343
 21
273.3897174587739
 31
0.0
  0
LINE
  5
1665
330
18
100
AcDbEntity
  8
0
  6
ByBlock
 62
     2
100
AcDbLine
 10
457.6054249452031
 20
270.089717458774
 30
0.0
 11
464.386437267343
 21
270.089717458774
 31
0.0
  0
LINE
  5
1666
330
18
100
AcDbEntity
  8
0
  6
ByBlock
 62
     2
100
AcDbLine
 10
463.136437267343
 20
275.8897174587739
 30
0.0
 11
463.136437267343
 21
278.3897174587739
 31
0.0
  0
LINE
  5
1667
330
18
100
AcDbEntity
  8
0
  6
ByBlock
 62
     2
100
AcDbLine
 10
463.136437267343
 20
267.589717458774
 30
0.0
 11
463.136437267343
 21
259.2167854167783
 31
0.0
  0
LINE
  5
1668
330
18
100
AcDbEntity
  8
0
  6
ByBlock
 62
     2
100
AcDbLine
 10
463.136437267343
 20
273.3897174587739
 30
0.0
 11
463.136437267343
 21
270.089717458774
 31
0.0
  0
INSERT
  5
1669
330
18
100
AcDbEntity
  8
0
  6
ByBlock
 62
     2
100
AcDbBlockReference
  2
_OPEN
 10
463.136437267343
 20
273.3897174587739
 30
0.0
 41
2.5
 42
2.5
 43
2.5
 50
270.0
  0
INSERT
  5
166A
330
18
100
AcDbEntity
  8
0
  6
ByBlock
 62
     2
100
AcDbBlockReference
  2
_OPEN
 10
463.136437267343
 20
270.089717458774
 30
0.0
 41
2.5
 42
2.5
 43
2.5
 50
90.0
  0
MTEXT
  5
166B
330
18
100
AcDbEntity
  8
0
  6
ByBlock
 62
     6
100
AcDbMText
 10
461.261437267343
 20
263.0768921399953
 30
0.0
 40
2.5
 41
0.0
 71
     5
 72
     1
  1
\A1;1.65
  7
STYLE3
 11
0.0000000000000001
 21
1.0
 31
0.0
 73
     1
 44
1.0
  0
POINT
  5
166C
330
18
100
AcDbEntity
  8
DEFPOINTS
  6
ByBlock
 62
     0
100
AcDbPoint
 10
446.6302875136169
 20
273.3897174587739
 30
0.0
  0
POINT
  5
166D
330
18
100
AcDbEntity
  8
DEFPOINTS
  6
ByBlock
 62
     0
100
AcDbPoint
 10
457.6054249452031
 20
270.089717458774
 30
0.0
  0
POINT
  5
166E
330
18
100
AcDbEntity
  8
DEFPOINTS
  6
ByBlock
 62
     0
100
AcDbPoint
 10
463.136437267343
 20
270.089717458774
 30
0.0
  0
TEXT
  5
166F
330
18
100
AcDbEntity
  8
文字
100
AcDbText
 10
418.4041280249004
 20
248.5239367981112
 30
0.0
 40
4.0
  1
A.B.C 断面図 
  7
STYLE3
100
AcDbText
  0
TEXT
  5
1670
330
18
100
AcDbEntity
  8
文字
100
AcDbText
 10
452.5468749278299
 20
248.6361611739901
 30
0.0
 40
3.0
  1
S=2／1
  7
STYLE3
100
AcDbText
  0
LINE
  5
1671
330
18
100
AcDbEntity
  8
外形線
100
AcDbLine
 10
418.0671926876717
 20
247.8505905428376
 30
0.0
 11
467.9335732594394
 21
247.8505905428376
 31
0.0
  0
LINE
  5
1686
330
18
100
AcDbEntity
  8
0
  6
ByBlock
 62
     2
100
AcDbLine
 10
292.5891924217104
 20
314.7388639344983
 30
0.0
 11
292.5891924217104
 21
326.245800050055
 31
0.0
  0
LINE
  5
1687
330
18
100
AcDbEntity
  8
0
  6
ByBlock
 62
     2
100
AcDbLine
 10
298.5891924217104
 20
314.7388639344983
 30
0.0
 11
298.5891924217104
 21
326.245800050055
 31
0.0
  0
LINE
  5
1688
330
18
100
AcDbEntity
  8
0
  6
ByBlock
 62
     2
100
AcDbLine
 10
290.0891924217104
 20
324.995800050055
 30
0.0
 11
287.5891924217104
 21
324.995800050055
 31
0.0
  0
LINE
  5
1689
330
18
100
AcDbEntity
  8
0
  6
ByBlock
 62
     2
100
AcDbLine
 10
301.0891924217104
 20
324.995800050055
 30
0.0
 11
303.5891924217104
 21
324.995800050055
 31
0.0
  0
LINE
  5
168A
330
18
100
AcDbEntity
  8
0
  6
ByBlock
 62
     2
100
AcDbLine
 10
292.5891924217104
 20
324.995800050055
 30
0.0
 11
298.5891924217104
 21
324.995800050055
 31
0.0
  0
INSERT
  5
168B
330
18
100
AcDbEntity
  8
0
  6
ByBlock
 62
     2
100
AcDbBlockReference
  2
_OPEN
 10
292.5891924217104
 20
324.995800050055
 30
0.0
 41
2.5
 42
2.5
 43
2.5
  0
INSERT
  5
168C
330
18
100
AcDbEntity
  8
0
  6
ByBlock
 62
     2
100
AcDbBlockReference
  2
_OPEN
 10
298.5891924217104
 20
324.995800050055
 30
0.0
 41
2.5
 42
2.5
 43
2.5
 50
180.0
  0
MTEXT
  5
168D
330
18
100
AcDbEntity
  8
0
  6
ByBlock
 62
     6
100
AcDbMText
 10
295.0643932791203
 20
327.8149096825423
 30
0.0
 40
2.5
 41
0.0
 71
     5
 72
     1
  1
\A1;φ6.0
  7
STYLE3
 73
     1
 44
1.0
  0
POINT
  5
168E
330
18
100
AcDbEntity
  8
DEFPOINTS
  6
ByBlock
 62
     0
100
AcDbPoint
 10
292.5891924217104
 20
314.7388639344983
 30
0.0
  0
POINT
  5
168F
330
18
100
AcDbEntity
  8
DEFPOINTS
  6
ByBlock
 62
     0
100
AcDbPoint
 10
298.5891924217104
 20
314.7388639344983
 30
0.0
  0
POINT
  5
1690
330
18
100
AcDbEntity
  8
DEFPOINTS
  6
ByBlock
 62
     0
100
AcDbPoint
 10
298.5891924217104
 20
324.995800050055
 30
0.0
  0
TEXT
  5
1691
330
18
100
AcDbEntity
  8
文字
100
AcDbText
 10
300.602662987587
 20
330.3998021790117
 30
0.0
 40
1.0
  1
0
  7
STYLE3
100
AcDbText
  0
TEXT
  5
1692
330
18
100
AcDbEntity
  8
文字
100
AcDbText
 10
299.3929805943318
 20
329.1712613528931
 30
0.0
 40
1.0
  1
-0.03
  7
STYLE3
100
AcDbText
  0
LINE
  5
16EE
330
18
100
AcDbEntity
  8
中心線
 48
0.5
100
AcDbLine
 10
295.5891924217104
 20
317.1863633995374
 30
0.0
 11
295.5891924217104
 21
220.3391263699495
 31
0.0
  0
LINE
  5
16EF
330
18
100
AcDbEntity
  8
外形線
100
AcDbLine
 10
297.9391924217104
 20
240.3427115117918
 30
0.0
 11
299.5891924217104
 21
240.3427115117917
 31
0.0
  0
LINE
  5
16F2
330
18
100
AcDbEntity
  8
外形線
100
AcDbLine
 10
291.5891924217104
 20
265.5059864743909
 30
0.0
 11
291.5891924217104
 21
240.3427115117917
 31
0.0
  0
LINE
  5
16F3
330
18
100
AcDbEntity
  8
外形線
100
AcDbLine
 10
298.7891924217104
 20
265.3377703610641
 30
0.0
 11
298.7891924217104
 21
250.2427115117917
 31
0.0
  0
LINE
  5
16F9
330
18
100
AcDbEntity
  8
中心線
 48
0.5
100
AcDbLine
 10
287.4611467022825
 20
244.3427115117917
 30
0.0
 11
303.6776685335004
 21
244.3427115117917
 31
0.0
  0
LINE
  5
16FD
330
18
100
AcDbEntity
  8
外形線
100
AcDbLine
 10
297.9391924217104
 20
240.3427115117918
 30
0.0
 11
297.8508187288657
 21
247.8544754035921
 31
0.0
  0
ARC
  5
16FE
330
18
100
AcDbEntity
  8
外形線
100
AcDbCircle
 10
296.8508879258349
 20
247.8427115117917
 30
0.0
 40
1.0
100
AcDbArc
 50
0.674036897984668
 51
90.0
  0
LINE
  5
16FF
330
18
100
AcDbEntity
  8
外形線
100
AcDbLine
 10
293.2391924217104
 20
240.3427115117918
 30
0.0
 11
293.327566114555
 21
247.8544754035921
 31
0.0
  0
LINE
  5
1700
330
18
100
AcDbEntity
  8
外形線
100
AcDbLine
 10
293.2391924217104
 20
240.3427115117918
 30
0.0
 11
291.5891924217104
 21
240.3427115117917
 31
0.0
  0
ARC
  5
1701
330
18
100
AcDbEntity
  8
外形線
100
AcDbCircle
 10
294.3274969175858
 20
247.8427115117917
 30
0.0
 40
1.0
100
AcDbArc
 50
90.0
 51
179.3259631020153
  0
LINE
  5
1702
330
18
100
AcDbEntity
  8
外形線
100
AcDbLine
 10
299.5891924217104
 20
265.5059864743909
 30
0.0
 11
299.5891924217104
 21
240.3427115117917
 31
0.0
  0
LINE
  5
1703
330
18
100
AcDbEntity
  8
外形線
100
AcDbLine
 10
298.7891924217104
 20
250.2427115117917
 30
0.0
 11
299.5891924217104
 21
250.2427115117917
 31
0.0
  0
LINE
  5
1704
330
18
100
AcDbEntity
  8
外形線
100
AcDbLine
 10
292.5891924217104
 20
261.3427115117917
 30
0.0
 11
298.5891924217104
 21
261.3427115117917
 31
0.0
  0
LINE
  5
1707
330
18
100
AcDbEntity
  8
中心線
 48
0.5
100
AcDbLine
 10
274.162561542082
 20
282.5427115117917
 30
0.0
 11
316.5416473114241
 21
282.5427115117917
 31
0.0
  0
INSERT
  5
1826
330
18
100
AcDbEntity
  8
ASHADE
 62
     1
100
AcDbBlockReference
  2
AVE_RENDER
 10
0.0
 20
0.0
 30
0.0
1001
AVE_RENDER
1002
{
1070
     7
1000
Pref
1070
    30
1070
    20
1070
     1
1070
     0
1000

1070
    10
1070
     1
1070
    10
1040
1.0
1070
     1
1040
0.3
1040
0.7
1040
0.0
1040
10.0
1010
-1.0
1020
-1.0
1030
-1.0
1040
0.3
1070
    49
1070
     0
1070
     0
1010
1.0
1020
1.0
1030
1.0
1040
45.0
1070
     1
1070
     0
1000
WCS
1040
0.0
1070
     0
1040
10.0
1002
}
  0
INSERT
  5
1827
330
18
100
AcDbEntity
  8
ASHADE
 62
     3
100
AcDbBlockReference
  2
AVE_RENDER
 10
0.0
 20
0.0
 30
0.0
1001
AVE_RENDER
1002
{
1070
     0
1000
Full Opt
1070
     0
1070
     1
1070
     1
1070
     1
1070
     0
1070
     0
1070
     0
1070
     1
1070
     1
1040
0.0001
1040
0.0001
1002
}
  0
INSERT
  5
1828
330
18
100
AcDbEntity
  8
ASHADE
 62
     4
100
AcDbBlockReference
  2
AVE_RENDER
 10
0.0
 20
0.0
 30
0.0
1001
AVE_RENDER
1002
{
1070
     0
1000
Quick Opt
1070
     0
1070
     1
1070
     1
1070
     1
1070
     0
1070
     0
1070
     1
1002
}
  0
INSERT
  5
1829
330
18
100
AcDbEntity
  8
ASHADE
 62
     5
100
AcDbBlockReference
  2
AVE_RENDER
 10
0.0
 20
0.0
 30
0.0
1001
AVE_RENDER
1002
{
1070
     1
1000
Scanl Opt
1070
     2
1070
     0
1070
     2
1040
2.0
1040
4.0
1070
     0
1070
     1
1070
     0
1040
0.03
1002
}
  0
INSERT
  5
182A
330
18
100
AcDbEntity
  8
ASHADE
 62
     6
100
AcDbBlockReference
  2
AVE_RENDER
 10
0.0
 20
0.0
 30
0.0
1001
AVE_RENDER
1002
{
1070
     2
1000
Raytr Opt
1070
     2
1070
     0
1070
     2
1040
2.0
1040
4.0
1070
     0
1070
     1
1070
     1
1040
0.03
1070
     3
1040
0.03
1002
}
  0
INSERT
  5
182B
330
18
100
AcDbEntity
  8
ASHADE
 62
     7
100
AcDbBlockReference
  2
AVE_RENDER
 10
0.0
 20
0.0
 30
0.0
1001
AVE_RENDER
1002
{
1070
     0
1000
RFile Opt
1070
     1
1070
   640
1070
   480
1070
 10000
1070
     1
1070
     8
1070
     8
1070
     0
1070
     0
1070
     0
1070
     0
1070
     0
1070
     0
1070
     0
1002
}
  0
INSERT
  5
182C
330
18
100
AcDbEntity
  8
ASHADE
 62
     8
100
AcDbBlockReference
  2
AVE_RENDER
 10
0.0
 20
0.0
 30
0.0
1001
AVE_RENDER
1002
{
1070
     0
1000
Fog Opt
1070
     0
1070
     0
1040
0.0
1040
1.0
1040
0.0
1040
1.0
1010
0.5
1020
0.5
1030
0.5
1002
}
  0
INSERT
  5
182D
330
18
100
AcDbEntity
  8
ASHADE
 62
     9
100
AcDbBlockReference
  2
AVE_RENDER
 10
0.0
 20
0.0
 30
0.0
1001
AVE_RENDER
1002
{
1070
     0
1000
BG Opt
1070
     0
1070
     1
1010
0.0
1020
0.0
1030
0.0
1010
1.0
1020
0.0
1030
0.0
1010
0.0
1020
1.0
1030
0.0
1010
0.0
1020
0.0
1030
1.0
1040
0.5
1040
0.33
1040
0.0
1000

1070
     1
1000

1070
     1
1070
     1
1040
1.0
1040
1.0
1040
0.0
1040
0.0
1070
     0
1002
}
  0
INSERT
  5
1834
330
18
100
AcDbEntity
  8
ASHADE
 62
     1
100
AcDbBlockReference
  2
AVE_GLOBAL
 10
0.0
 20
0.0
 30
0.0
1001
AVE_MATERIAL
1002
{
1000
*GLOBAL*
1000
1
1000
Global finish.
1002
{
1002
}
1002
{
1070
    63
1002
{
1002
{
1010
-1.0
1020
-1.0
1030
-1.0
1002
}
1040
0.1000000014901161
1000

1040
0.0
1002
{
1002
}
1040
0.0
1002
{
1002
}
1040
0.0
1002
}
1002
{
1002
{
1010
-1.0
1020
-1.0
1030
-1.0
1002
}
1040
0.6999999880790711
1000

1040
0.0
1002
{
1002
}
1040
0.0
1002
{
1002
}
1040
0.0
1002
}
1002
{
1002
{
1010
-1.0
1020
-1.0
1030
-1.0
1002
}
1040
0.2000000029802322
1000

1040
0.0
1002
{
1002
}
1040
0.0
1002
{
1002
}
1040
0.0
1002
}
1002
{
1070
     0
1002
{
1070
     1
1002
{
1040
1.0
1040
1.0
1000

1040
0.0
1002
{
1002
}
1040
0.0
1002
{
1002
}
1040
0.0
1002
}
1002
}
1040
1.0
1040
0.0
1040
0.0
1002
}
1002
{
1040
1.0
1040
1.0
1000

1040
0.0
1002
{
1002
}
1040
0.0
1002
{
1002
}
1040
0.0
1002
}
1002
{
1040
0.5
1040
1.0
1000

1040
0.0
1002
{
1002
}
1040
0.0
1002
{
1002
}
1040
0.0
1002
}
1002
{
1070
     0
1040
0.0
1002
{
1002
}
1040
1.0
1002
{
1002
}
1040
0.0
1002
}
1002
{
1040
0.0
1002
{
1002
{
1010
0.0
1020
0.0
1030
0.0
1002
}
1040
1.0
1000

1040
0.0
1002
{
1002
}
1040
0.0
1002
{
1002
}
1040
0.0
1002
}
1002
}
1002
{
1002
{
1070
     1
1002
{
1040
0.0
1040
1.0
1000

1040
0.0
1002
{
1002
}
1040
0.0
1002
{
1002
}
1040
0.0
1002
}
1002
}
1040
0.0
1002
{
1002
}
1010
1.0
1020
0.0
1030
0.0
1010
0.0
1020
1.0
1030
0.0
1010
0.0
1020
0.0
1030
1.0
1070
     0
1002
}
1002
{
1002
{
1040
1.0
1040
1.0
1002
{
1070
     1
1002
{
1040
1.0
1040
1.0
1000

1040
0.0
1002
{
1002
}
1040
0.0
1002
{
1002
}
1040
0.0
1002
}
1002
}
1002
}
1070
     0
1040
0.0
1002
{
1002
}
1002
}
1002
{
1002
}
1002
}
1002
{
1071
        3
1070
     3
1070
     0
1002
{
1070
     2
1070
     0
1070
     0
1040
0.0
1002
}
1070
     0
1070
     2
1002
{
1002
}
1002
}
1002
{
1040
8030.0
1040
190.3000030517578
1040
0.3050000071525574
1040
228.0
1040
545.0
1040
14.0
1040
17.39999961853027
1040
0.4560000002384186
1002
}
1002
}
  0
ARC
  5
1837
330
18
100
AcDbEntity
  8
外形線
100
AcDbCircle
 10
377.2090890632995
 20
244.3427115117916
 30
0.0
 40
4.0
100
AcDbArc
 50
199.9281732991189
 51
341.6307198030625
  0
LINE
  5
1838
330
18
100
AcDbEntity
  8
中心線
 48
0.5
100
AcDbLine
 10
369.2501119294764
 20
244.3427115117917
 30
0.0
 11
385.4666337606943
 21
244.3427115117917
 31
0.0
  0
LINE
  5
183A
330
18
100
AcDbEntity
  8
中心線
 48
0.5
100
AcDbLine
 10
377.2090890632995
 20
317.5573270448639
 30
0.0
 11
377.2090890632995
 21
219.846413990827
 31
0.0
  0
LINE
  5
183F
330
18
100
AcDbEntity
  8
外形線
100
AcDbLine
 10
369.2090890632995
 20
297.6927115117917
 30
0.0
 11
385.0590890632995
 21
297.6927115117918
 31
0.0
  0
LINE
  5
1852
330
18
100
AcDbEntity
  8
外形線
100
AcDbLine
 10
369.2090890632995
 20
299.3427115117917
 30
0.0
 11
384.7090890632994
 21
299.3427115117918
 31
0.0
  0
LINE
  5
1854
330
18
100
AcDbEntity
  8
外形線
100
AcDbLine
 10
385.0590890632995
 20
297.3427115117918
 30
0.0
 11
386.7090890632995
 21
297.3427115117917
 31
0.0
  0
LINE
  5
1855
330
18
100
AcDbEntity
  8
外形線
100
AcDbLine
 10
386.7090890632995
 20
297.3427115117917
 30
0.0
 11
386.7090890632995
 21
259.7927115117918
 31
0.0
  0
LINE
  5
1858
330
18
100
AcDbEntity
  8
外形線
100
AcDbLine
 10
385.0590890632995
 20
258.1427115117918
 30
0.0
 11
386.7090890632995
 21
259.7927115117918
 31
0.0
  0
LINE
  5
187E
330
18
100
AcDbEntity
  8
外形線
100
AcDbLine
 10
369.2090890632995
 20
299.3427115117917
 30
0.0
 11
369.2090890632995
 21
261.3427115117919
 31
0.0
  0
LINE
  5
187F
330
18
100
AcDbEntity
  8
外形線
100
AcDbLine
 10
385.0590890632995
 20
297.6927115117918
 30
0.0
 11
385.0590890632995
 21
253.6427115117917
 31
0.0
  0
LINE
  5
1882
330
18
100
AcDbEntity
  8
外形線
100
AcDbLine
 10
384.7090890632995
 20
297.6927115117918
 30
0.0
 11
384.7090890632994
 21
299.3427115117918
 31
0.0
  0
LINE
  5
1886
330
18
100
AcDbEntity
  8
外形線
100
AcDbLine
 10
385.0590890632995
 20
253.6427115117917
 30
0.0
 11
381.0052695200076
 21
243.0821505493201
 31
0.0
  0
LINE
  5
1889
330
18
100
AcDbEntity
  8
外形線
100
AcDbLine
 10
369.2090890632995
 20
261.3427115117919
 30
0.0
 11
373.4486064913415
 21
242.9793440536203
 31
0.0
  0
LINE
  5
188A
330
18
100
AcDbEntity
  8
外形線
100
AcDbLine
 10
367.6013784564038
 20
260.9715422721245
 30
0.0
 11
370.4015396745099
 21
248.8427115117917
 31
0.0
  0
LINE
  5
188B
330
18
100
AcDbEntity
  8
外形線
100
AcDbLine
 10
369.2090890632995
 20
261.3427115117919
 30
0.0
 11
367.6013784564038
 21
260.9715422721245
 31
0.0
  0
LINE
  5
188C
330
18
100
AcDbEntity
  8
外形線
100
AcDbLine
 10
370.4015396745099
 20
248.8427115117917
 30
0.0
 11
372.094941452369
 21
248.8427115117918
 31
0.0
  0
LINE
  5
188D
330
18
100
AcDbEntity
  8
外形線
100
AcDbLine
 10
298.5891924217104
 20
248.8427115117918
 30
0.0
 11
292.5891924217103
 21
248.8427115117917
 31
0.0
  0
LINE
  5
188E
330
18
100
AcDbEntity
  8
外形線
100
AcDbLine
 10
298.5891924217105
 20
260.9715422721245
 30
0.0
 11
292.5891924217103
 21
260.9715422721245
 31
0.0
  0
LINE
  5
188F
330
18
100
AcDbEntity
  8
外形線
100
AcDbLine
 10
298.5891924217104
 20
261.3427115117917
 30
0.0
 11
298.5891924217104
 21
248.8427115117918
 31
0.0
  0
LINE
  5
1890
330
18
100
AcDbEntity
  8
外形線
100
AcDbLine
 10
292.5891924217104
 20
261.3427115117917
 30
0.0
 11
292.5891924217103
 21
248.8427115117917
 31
0.0
  0
LINE
  5
1891
330
18
100
AcDbEntity
  8
中心線
 48
0.5
100
AcDbLine
 10
295.110600272143
 20
250.3427115117917
 30
0.0
 11
299.0489795361678
 21
250.3427115117917
 31
0.0
  0
LINE
  5
1892
330
18
100
AcDbEntity
  8
中心線
 48
0.5
100
AcDbLine
 10
296.7891924217104
 20
252.530817325899
 30
0.0
 11
296.7891924217104
 21
247.793245020548
 31
0.0
  0
CIRCLE
  5
1897
330
18
100
AcDbEntity
  8
外形線
100
AcDbCircle
 10
296.7891924217104
 20
250.3427115117917
 30
0.0
 40
1.0
  0
CIRCLE
  5
1898
330
18
100
AcDbEntity
  8
外形線
100
AcDbCircle
 10
296.7891924217104
 20
250.3427115117917
 30
0.0
 40
0.675
  0
LINE
  5
18A8
330
18
100
AcDbEntity
  8
中心線
 48
0.5
100
AcDbLine
 10
371.6590890632994
 20
297.0719346677415
 30
0.0
 11
371.6590890632994
 21
291.7918156546958
 31
0.0
  0
LINE
  5
18B7
330
18
100
AcDbEntity
  8
外形線
100
AcDbLine
 10
371.760182575237
 20
250.2927115117917
 30
0.0
 11
383.7731445459308
 21
250.2927115117918
 31
0.0
  0
LINE
  5
18B9
330
18
100
AcDbEntity
  8
中心線
 48
0.5
100
AcDbLine
 10
368.6746077571825
 20
294.3927115117918
 30
0.0
 11
374.5133791915973
 21
294.3927115117919
 31
0.0
  0
LINE
  5
18BD
330
18
100
AcDbEntity
  8
中心線
 48
0.5
100
AcDbLine
 10
370.1746077571825
 20
252.5927115117918
 30
0.0
 11
376.0133791915973
 21
252.5927115117919
 31
0.0
  0
LINE
  5
18BE
330
18
100
AcDbEntity
  8
外形線
100
AcDbLine
 10
373.6992803318488
 20
251.94893662681
 30
0.0
 11
372.6188977947499
 21
253.2364863967737
 31
0.0
  0
LINE
  5
18BF
330
18
100
AcDbEntity
  8
外形線
100
AcDbLine
 10
372.5153141783176
 20
252.0525202432424
 30
0.0
 11
373.8028639482812
 21
253.1329027803413
 31
0.0
  0
CIRCLE
  5
18C0
330
18
100
AcDbEntity
  8
外形線
100
AcDbCircle
 10
373.1590890632995
 20
252.5927115117918
 30
0.0
 40
1.5
  0
LINE
  5
18C1
330
18
100
AcDbEntity
  8
中心線
 48
0.5
100
AcDbLine
 10
373.1590890632995
 20
255.2719346677414
 30
0.0
 11
373.1590890632994
 21
249.9918156546958
 31
0.0
  0
LINE
  5
18C2
330
18
100
AcDbEntity
  8
中心線
 48
0.5
100
AcDbLine
 10
379.5746077571825
 20
252.5927115117919
 30
0.0
 11
385.4133791915973
 21
252.5927115117919
 31
0.0
  0
LINE
  5
18C3
330
18
100
AcDbEntity
  8
外形線
100
AcDbLine
 10
383.0992803318488
 20
251.94893662681
 30
0.0
 11
382.0188977947499
 21
253.2364863967737
 31
0.0
  0
LINE
  5
18C4
330
18
100
AcDbEntity
  8
外形線
100
AcDbLine
 10
381.9153141783175
 20
252.0525202432424
 30
0.0
 11
383.2028639482812
 21
253.1329027803413
 31
0.0
  0
CIRCLE
  5
18C5
330
18
100
AcDbEntity
  8
外形線
100
AcDbCircle
 10
382.5590890632994
 20
252.5927115117919
 30
0.0
 40
1.5
  0
LINE
  5
18C6
330
18
100
AcDbEntity
  8
中心線
 48
0.5
100
AcDbLine
 10
382.5590890632994
 20
255.2719346677415
 30
0.0
 11
382.5590890632994
 21
249.9918156546959
 31
0.0
  0
LINE
  5
18C7
330
18
100
AcDbEntity
  8
中心線
 48
0.5
100
AcDbLine
 10
382.5590890632994
 20
297.0719346677413
 30
0.0
 11
382.5590890632994
 21
291.7918156546957
 31
0.0
  0
LINE
  5
18C9
330
18
100
AcDbEntity
  8
中心線
 48
0.5
100
AcDbLine
 10
379.5746077571824
 20
294.3927115117919
 30
0.0
 11
385.4133791915972
 21
294.3927115117919
 31
0.0
  0
LINE
  5
18CA
330
18
100
AcDbEntity
  8
外形線
100
AcDbLine
 10
383.0992803318488
 20
293.7489366268101
 30
0.0
 11
382.0188977947499
 21
295.0364863967737
 31
0.0
  0
LINE
  5
18CB
330
18
100
AcDbEntity
  8
外形線
100
AcDbLine
 10
381.9153141783175
 20
293.8525202432424
 30
0.0
 11
383.2028639482812
 21
294.9329027803413
 31
0.0
  0
CIRCLE
  5
18CC
330
18
100
AcDbEntity
  8
外形線
100
AcDbCircle
 10
382.5590890632994
 20
294.3927115117919
 30
0.0
 40
1.5
  0
LINE
  5
18CF
330
18
100
AcDbEntity
  8
中心線
 48
0.5
100
AcDbLine
 10
357.3468165148672
 20
282.5427115117917
 30
0.0
 11
391.0105159916386
 21
282.5427115117917
 31
0.0
  0
LINE
  5
1903
330
18
100
AcDbEntity
  8
外形線
100
AcDbLine
 10
378.4590890632995
 20
236.3427115117918
 30
0.0
 11
375.9590890632995
 21
236.3427115117917
 31
0.0
  0
LINE
  5
1908
330
18
100
AcDbEntity
  8
外形線
100
AcDbLine
 10
376.6090890632995
 20
223.8427115117917
 30
0.0
 11
377.8090890632995
 21
223.8427115117917
 31
0.0
  0
LINE
  5
1927
330
18
100
AcDbEntity
  8
中心線
 48
0.5
100
AcDbLine
 10
374.8256868183148
 20
223.0427115117917
 30
0.0
 11
380.1698370285468
 21
223.0427115117917
 31
0.0
  0
LINE
  5
1928
330
18
100
AcDbEntity
  8
外形線
100
AcDbLine
 10
375.9590890632995
 20
240.4827115117917
 30
0.0
 11
376.1600895399436
 21
240.4827115117917
 31
0.0
  0
LINE
  5
192A
330
18
100
AcDbEntity
  8
外形線
100
AcDbLine
 10
375.9590890632995
 20
240.4827115117917
 30
0.0
 11
376.0047116504737
 21
240.5283340989659
 31
0.0
  0
LINE
  5
192B
330
18
100
AcDbEntity
  8
外形線
100
AcDbLine
 10
378.4134664761252
 20
240.5283340989659
 30
0.0
 11
378.4590890632995
 21
240.4827115117917
 31
0.0
  0
LINE
  5
192C
330
18
100
AcDbEntity
  8
外形線
100
AcDbLine
 10
378.2580885866553
 20
240.4827115117917
 30
0.0
 11
378.4590890632995
 21
240.4827115117917
 31
0.0
  0
LINE
  5
192E
330
18
100
AcDbEntity
  8
外形線
100
AcDbLine
 10
294.3391924217104
 20
236.3427115117917
 30
0.0
 11
294.9891924217104
 21
223.8427115117917
 31
0.0
  0
LINE
  5
192F
330
18
100
AcDbEntity
  8
外形線
100
AcDbLine
 10
296.8391924217104
 20
236.3427115117918
 30
0.0
 11
296.1891924217103
 21
223.8427115117917
 31
0.0
  0
LINE
  5
1930
330
18
100
AcDbEntity
  8
中心線
 48
0.5
100
AcDbLine
 10
293.2057901767257
 20
223.0427115117917
 30
0.0
 11
298.5499403869577
 21
223.0427115117917
 31
0.0
  0
LINE
  5
1931
330
18
100
AcDbEntity
  8
隠れ線
 62
     4
 48
0.3
100
AcDbLine
 10
295.5891924217104
 20
224.0423333415695
 30
0.0
 11
294.9891924217104
 21
223.8427115117917
 31
0.0
  0
LINE
  5
1932
330
18
100
AcDbEntity
  8
外形線
100
AcDbLine
 10
294.9891924217104
 20
223.8427115117917
 30
0.0
 11
296.1891924217103
 21
223.8427115117917
 31
0.0
  0
ARC
  5
1933
330
18
100
AcDbEntity
  8
外形線
100
AcDbCircle
 10
295.5891924217104
 20
223.0427115117917
 30
0.0
 40
1.0
100
AcDbArc
 50
126.869897645842
 51
53.13010235415791
  0
LINE
  5
1934
330
18
100
AcDbEntity
  8
隠れ線
 62
     4
 48
0.3
100
AcDbLine
 10
295.5891924217104
 20
224.0423333415695
 30
0.0
 11
296.1891924217103
 21
223.8427115117917
 31
0.0
  0
LINE
  5
1935
330
18
100
AcDbEntity
  8
外形線
100
AcDbLine
 10
296.8391924217104
 20
239.0827115117917
 30
0.0
 11
294.3391924217104
 21
239.0827115117917
 31
0.0
  0
LINE
  5
1936
330
18
100
AcDbEntity
  8
外形線
 62
     4
100
AcDbLine
 10
296.3195771794399
 20
238.7827115117917
 30
0.0
 11
294.858807663981
 21
238.7827115117917
 31
0.0
  0
LINE
  5
1937
330
18
100
AcDbEntity
  8
外形線
100
AcDbLine
 10
296.8391924217104
 20
238.4827115117917
 30
0.0
 11
294.3391924217104
 21
238.4827115117917
 31
0.0
  0
LINE
  5
1938
330
18
100
AcDbEntity
  8
外形線
100
AcDbLine
 10
296.8391924217104
 20
236.3427115117918
 30
0.0
 11
294.3391924217104
 21
236.3427115117917
 31
0.0
  0
LINE
  5
193A
330
18
100
AcDbEntity
  8
外形線
100
AcDbLine
 10
294.3391924217104
 20
240.4827115117917
 30
0.0
 11
295.5891924217104
 21
240.4827115117917
 31
0.0
  0
LINE
  5
193B
330
18
100
AcDbEntity
  8
外形線
100
AcDbLine
 10
294.3391924217104
 20
240.4827115117917
 30
0.0
 11
294.3391924217104
 21
239.0827115117917
 31
0.0
  0
LINE
  5
193C
330
18
100
AcDbEntity
  8
外形線
100
AcDbLine
 10
294.3391924217104
 20
239.0827115117917
 30
0.0
 11
294.8588076639811
 21
238.7827115117918
 31
0.0
  0
LINE
  5
193D
330
18
100
AcDbEntity
  8
外形線
100
AcDbLine
 10
294.3391924217104
 20
238.4827115117917
 30
0.0
 11
294.858807663981
 21
238.7827115117918
 31
0.0
  0
LINE
  5
193E
330
18
100
AcDbEntity
  8
外形線
100
AcDbLine
 10
294.3391924217104
 20
238.4827115117917
 30
0.0
 11
294.3391924217104
 21
236.3427115117917
 31
0.0
  0
LINE
  5
193F
330
18
100
AcDbEntity
  8
外形線
100
AcDbLine
 10
296.7391924217102
 20
240.5827115117917
 30
0.0
 11
296.8391924217104
 21
240.4827115117917
 31
0.0
  0
LINE
  5
1940
330
18
100
AcDbEntity
  8
外形線
100
AcDbLine
 10
295.5891924217104
 20
240.4827115117917
 30
0.0
 11
296.8391924217104
 21
240.4827115117917
 31
0.0
  0
LINE
  5
1941
330
18
100
AcDbEntity
  8
外形線
100
AcDbLine
 10
296.8391924217104
 20
240.4827115117917
 30
0.0
 11
296.8391924217104
 21
239.0827115117916
 31
0.0
  0
LINE
  5
1942
330
18
100
AcDbEntity
  8
外形線
100
AcDbLine
 10
296.8391924217104
 20
239.0827115117917
 30
0.0
 11
296.3195771794397
 21
238.7827115117918
 31
0.0
  0
LINE
  5
1943
330
18
100
AcDbEntity
  8
外形線
100
AcDbLine
 10
296.8391924217104
 20
238.4827115117917
 30
0.0
 11
296.3195771794397
 21
238.7827115117918
 31
0.0
  0
LINE
  5
1944
330
18
100
AcDbEntity
  8
外形線
100
AcDbLine
 10
296.8391924217104
 20
238.4827115117917
 30
0.0
 11
296.8391924217104
 21
236.3427115117918
 31
0.0
  0
LINE
  5
1945
330
18
100
AcDbEntity
  8
外形線
100
AcDbLine
 10
295.5891924217104
 20
240.5827115117917
 30
0.0
 11
297.3891924217103
 21
240.5827115117917
 31
0.0
  0
LINE
  5
1946
330
18
100
AcDbEntity
  8
外形線
100
AcDbLine
 10
295.5891924217104
 20
240.5827115117917
 30
0.0
 11
294.0891924217103
 21
240.5827115117917
 31
0.0
  0
LINE
  5
1947
330
18
100
AcDbEntity
  8
外形線
100
AcDbLine
 10
294.4391924217106
 20
240.5827115117917
 30
0.0
 11
294.3391924217104
 21
240.4827115117917
 31
0.0
  0
LINE
  5
1948
330
18
100
AcDbEntity
  8
外形線
100
AcDbLine
 10
296.5891924217104
 20
248.8427115117918
 30
0.0
 11
296.5891924217103
 21
240.6827115117918
 31
0.0
  0
LINE
  5
1949
330
18
100
AcDbEntity
  8
外形線
100
AcDbLine
 10
293.9891924217104
 20
248.0827115117917
 30
0.0
 11
293.9891924217103
 21
240.6827115117918
 31
0.0
  0
LINE
  5
194A
330
18
100
AcDbEntity
  8
外形線
100
AcDbLine
 10
294.0891924217104
 20
248.1827115117917
 30
0.0
 11
296.4891924217104
 21
248.1827115117917
 31
0.0
  0
LINE
  5
194B
330
18
100
AcDbEntity
  8
外形線
100
AcDbLine
 10
293.9891924217104
 20
248.0827115117917
 30
0.0
 11
294.0891924217104
 21
248.1827115117917
 31
0.0
  0
LINE
  5
194C
330
18
100
AcDbEntity
  8
外形線
100
AcDbLine
 10
296.4891924217104
 20
248.1827115117917
 30
0.0
 11
296.5891924217104
 21
248.0827115117917
 31
0.0
  0
LINE
  5
194D
330
18
100
AcDbEntity
  8
外形線
100
AcDbLine
 10
293.9891924217103
 20
240.6827115117918
 30
0.0
 11
294.0891924217103
 21
240.5827115117917
 31
0.0
  0
LINE
  5
194E
330
18
100
AcDbEntity
  8
外形線
100
AcDbLine
 10
296.5891924217103
 20
240.6827115117918
 30
0.0
 11
296.4891924217103
 21
240.5827115117917
 31
0.0
  0
LINE
  5
194F
330
18
100
AcDbEntity
  8
外形線
100
AcDbLine
 10
297.3891924217104
 20
248.6854619313824
 30
0.0
 11
297.3891924217103
 21
240.5827115117917
 31
0.0
  0
LINE
  5
1952
330
18
100
AcDbEntity
  8
外形線
100
AcDbLine
 10
293.5862720057671
 20
246.3427115117917
 30
0.0
 11
293.5862720057671
 21
242.3427115117917
 31
0.0
  0
LINE
  5
1953
330
18
100
AcDbEntity
  8
外形線
100
AcDbLine
 10
293.5862720057671
 20
246.3427115117917
 30
0.0
 11
293.3097806570044
 21
246.3427115117917
 31
0.0
  0
LINE
  5
1954
330
18
100
AcDbEntity
  8
外形線
100
AcDbLine
 10
293.5862720057671
 20
242.3427115117917
 30
0.0
 11
293.262721833475
 21
242.3427115117917
 31
0.0
  0
LINE
  5
1955
330
18
100
AcDbEntity
  8
外形線
100
AcDbLine
 10
293.5862720057671
 20
244.9927115117917
 30
0.0
 11
293.9891924217103
 21
244.9927115117917
 31
0.0
  0
LINE
  5
1956
330
18
100
AcDbEntity
  8
外形線
100
AcDbLine
 10
293.5862720057671
 20
243.6927115117917
 30
0.0
 11
293.9891924217103
 21
243.6927115117917
 31
0.0
  0
LINE
  5
1957
330
18
100
AcDbEntity
  8
外形線
100
AcDbLine
 10
297.3891924217104
 20
244.9927115117917
 30
0.0
 11
297.8844865393575
 21
244.9927115117917
 31
0.0
  0
LINE
  5
1958
330
18
100
AcDbEntity
  8
外形線
100
AcDbLine
 10
297.3891924217104
 20
243.6927115117917
 30
0.0
 11
297.8997806570045
 21
243.6927115117917
 31
0.0
  0
LINE
  5
1985
330
18
100
AcDbEntity
  8
0
  6
ByBlock
 62
     2
100
AcDbLine
 10
386.7090890632995
 20
297.3427115117917
 30
0.0
 11
386.7090890632995
 21
326.245800050055
 31
0.0
  0
LINE
  5
1986
330
18
100
AcDbEntity
  8
0
  6
ByBlock
 62
     2
100
AcDbLine
 10
382.5590890632995
 20
324.995800050055
 30
0.0
 11
380.0590890632995
 21
324.995800050055
 31
0.0
  0
LINE
  5
1987
330
18
100
AcDbEntity
  8
0
  6
ByBlock
 62
     2
100
AcDbLine
 10
389.2090890632995
 20
324.995800050055
 30
0.0
 11
398.0457149946727
 21
324.995800050055
 31
0.0
  0
MTEXT
  5
1988
330
18
100
AcDbEntity
  8
0
  6
ByBlock
 62
     6
100
AcDbMText
 10
393.61224994064
 20
327.2296357443138
 30
0.0
 40
2.5
 41
0.0
 71
     5
 72
     1
  1
\A1;1.65
  7
STYLE3
 73
     1
 44
1.0
  0
LINE
  5
1989
330
18
100
AcDbEntity
  8
0
  6
ByBlock
 62
     2
100
AcDbLine
 10
385.0590890632995
 20
324.995800050055
 30
0.0
 11
386.7090890632995
 21
324.995800050055
 31
0.0
  0
LINE
  5
198A
330
18
100
AcDbEntity
  8
0
  6
ByBlock
 62
     2
100
AcDbLine
 10
385.0590890632995
 20
324.995800050055
 30
0.0
 11
386.7090890632995
 21
324.995800050055
 31
0.0
  0
INSERT
  5
198B
330
18
100
AcDbEntity
  8
0
  6
ByBlock
 62
     2
100
AcDbBlockReference
  2
_OPEN
 10
385.0590890632995
 20
324.995800050055
 30
0.0
 41
2.5
 42
2.5
 43
2.5
  0
INSERT
  5
198C
330
18
100
AcDbEntity
  8
0
  6
ByBlock
 62
     2
100
AcDbBlockReference
  2
_OPEN
 10
386.7090890632995
 20
324.995800050055
 30
0.0
 41
2.5
 42
2.5
 43
2.5
 50
180.0
  0
POINT
  5
198D
330
18
100
AcDbEntity
  8
DEFPOINTS
  6
ByBlock
 62
     0
100
AcDbPoint
 10
385.0590890632995
 20
297.6927115117918
 30
0.0
  0
POINT
  5
198E
330
18
100
AcDbEntity
  8
DEFPOINTS
  6
ByBlock
 62
     0
100
AcDbPoint
 10
386.7090890632995
 20
297.3427115117917
 30
0.0
  0
POINT
  5
198F
330
18
100
AcDbEntity
  8
DEFPOINTS
  6
ByBlock
 62
     0
100
AcDbPoint
 10
386.7090890632995
 20
324.995800050055
 30
0.0
  0
TEXT
  5
1AA1
330
18
100
AcDbEntity
  8
文字
100
AcDbText
 10
287.9647818648105
 20
287.0427115117917
 30
0.0
 40
1.5
  1
NEW PIC-TEST
  7
STYLE3
100
AcDbText
  0
LINE
  5
1B3E
330
18
100
AcDbEntity
  8
0
  6
ByBlock
 62
     2
100
AcDbLine
 10
377.2090890632995
 20
315.3427115117918
 30
0.0
 11
399.0153824647974
 21
315.3427115117918
 31
0.0
  0
LINE
  5
1B3F
330
18
100
AcDbEntity
  8
0
  6
ByBlock
 62
     2
100
AcDbLine
 10
384.7090890632994
 20
299.3427115117918
 30
0.0
 11
399.0153824647974
 21
299.3427115117918
 31
0.0
  0
LINE
  5
1B40
330
18
100
AcDbEntity
  8
0
  6
ByBlock
 62
     2
100
AcDbLine
 10
397.7653824647974
 20
312.8427115117918
 30
0.0
 11
397.7653824647974
 21
301.8427115117918
 31
0.0
  0
INSERT
  5
1B41
330
18
100
AcDbEntity
  8
0
  6
ByBlock
 62
     2
100
AcDbBlockReference
  2
_OPEN
 10
397.7653824647974
 20
315.3427115117918
 30
0.0
 41
2.5
 42
2.5
 43
2.5
 50
90.0
  0
INSERT
  5
1B42
330
18
100
AcDbEntity
  8
0
  6
ByBlock
 62
     2
100
AcDbBlockReference
  2
_OPEN
 10
397.7653824647974
 20
299.3427115117918
 30
0.0
 41
2.5
 42
2.5
 43
2.5
 50
270.0
  0
MTEXT
  5
1B43
330
18
100
AcDbEntity
  8
0
  6
ByBlock
 62
     6
100
AcDbMText
 10
395.8903824647974
 20
307.3427115117918
 30
0.0
 40
2.5
 41
0.0
 71
     5
 72
     1
  1
\A1;16
  7
STYLE3
 11
0.0000000000000001
 21
1.0
 31
0.0
 73
     1
 44
1.0
  0
POINT
  5
1B44
330
18
100
AcDbEntity
  8
DEFPOINTS
  6
ByBlock
 62
     0
100
AcDbPoint
 10
377.2090890632995
 20
315.3427115117918
 30
0.0
  0
POINT
  5
1B45
330
18
100
AcDbEntity
  8
DEFPOINTS
  6
ByBlock
 62
     0
100
AcDbPoint
 10
384.7090890632994
 20
299.3427115117918
 30
0.0
  0
POINT
  5
1B46
330
18
100
AcDbEntity
  8
DEFPOINTS
  6
ByBlock
 62
     0
100
AcDbPoint
 10
397.7653824647974
 20
299.3427115117918
 30
0.0
  0
LINE
  5
1B47
330
18
100
AcDbEntity
  8
0
  6
ByBlock
 62
     2
100
AcDbLine
 10
360.7090890632995
 20
282.5427115117916
 30
0.0
 11
360.7090890632995
 21
331.6454788629436
 31
0.0
  0
LINE
  5
1B48
330
18
100
AcDbEntity
  8
0
  6
ByBlock
 62
     2
100
AcDbLine
 10
386.7090890632995
 20
326.245800050055
 30
0.0
 11
386.7090890632995
 21
331.6454788629436
 31
0.0
  0
LINE
  5
1B49
330
18
100
AcDbEntity
  8
0
  6
ByBlock
 62
     2
100
AcDbLine
 10
363.2090890632995
 20
330.3954788629436
 30
0.0
 11
384.2090890632995
 21
330.3954788629436
 31
0.0
  0
INSERT
  5
1B4A
330
18
100
AcDbEntity
  8
0
  6
ByBlock
 62
     2
100
AcDbBlockReference
  2
_OPEN
 10
360.7090890632995
 20
330.3954788629436
 30
0.0
 41
2.5
 42
2.5
 43
2.5
 50
180.0
  0
INSERT
  5
1B4B
330
18
100
AcDbEntity
  8
0
  6
ByBlock
 62
     2
100
AcDbBlockReference
  2
_OPEN
 10
386.7090890632995
 20
330.3954788629436
 30
0.0
 41
2.5
 42
2.5
 43
2.5
  0
MTEXT
  5
1B4C
330
18
100
AcDbEntity
  8
0
  6
ByBlock
 62
     6
100
AcDbMText
 10
373.7090890632995
 20
332.2704788629435
 30
0.0
 40
2.5
 41
0.0
 71
     5
 72
     1
  1
\A1;26
  7
STYLE3
 73
     1
 44
1.0
  0
POINT
  5
1B4D
330
18
100
AcDbEntity
  8
DEFPOINTS
  6
ByBlock
 62
     0
100
AcDbPoint
 10
360.7090890632995
 20
282.5427115117916
 30
0.0
  0
POINT
  5
1B4E
330
18
100
AcDbEntity
  8
DEFPOINTS
  6
ByBlock
 62
     0
100
AcDbPoint
 10
386.7090890632995
 20
326.245800050055
 30
0.0
  0
POINT
  5
1B4F
330
18
100
AcDbEntity
  8
DEFPOINTS
  6
ByBlock
 62
     0
100
AcDbPoint
 10
386.7090890632995
 20
330.3954788629436
 30
0.0
  0
LINE
  5
1B50
330
18
100
AcDbEntity
  8
寸法線
 62
     2
100
AcDbLine
 10
385.7966106974347
 20
270.363772262046
 30
0.0
 11
392.9777968780062
 21
279.6650421969041
 31
0.0
1001
ACAD
1000
DSTYLE
1002
{
1070
   271
1070
     2
1002
}
  0
LINE
  5
1B51
330
18
100
AcDbEntity
  8
寸法線
 62
     2
100
AcDbLine
 10
392.9777968780062
 20
279.6650421969041
 30
0.0
 11
398.0075587827682
 21
279.6650421969041
 31
0.0
1001
ACAD
1000
DSTYLE
1002
{
1070
   271
1070
     2
1002
}
  0
LINE
  5
1B52
330
18
100
AcDbEntity
  8
0
  6
ByBlock
 62
     2
100
AcDbLine
 10
320.309674927693
 20
315.5427115117917
 30
0.0
 11
333.5728476861754
 21
315.5427115117917
 31
0.0
  0
LINE
  5
1B53
330
18
100
AcDbEntity
  8
0
  6
ByBlock
 62
     2
100
AcDbLine
 10
295.5891924217104
 20
222.0427115117917
 30
0.0
 11
333.5728476861754
 21
222.0427115117917
 31
0.0
  0
LINE
  5
1B54
330
18
100
AcDbEntity
  8
0
  6
ByBlock
 62
     2
100
AcDbLine
 10
332.3228476861753
 20
313.0427115117917
 30
0.0
 11
332.3228476861753
 21
224.5427115117917
 31
0.0
  0
INSERT
  5
1B55
330
18
100
AcDbEntity
  8
0
  6
ByBlock
 62
     2
100
AcDbBlockReference
  2
_OPEN
 10
332.3228476861753
 20
315.5427115117917
 30
0.0
 41
2.5
 42
2.5
 43
2.5
 50
90.0
  0
INSERT
  5
1B56
330
18
100
AcDbEntity
  8
0
  6
ByBlock
 62
     2
100
AcDbBlockReference
  2
_OPEN
 10
332.3228476861753
 20
222.0427115117917
 30
0.0
 41
2.5
 42
2.5
 43
2.5
 50
270.0
  0
MTEXT
  5
1B57
330
18
100
AcDbEntity
  8
0
  6
ByBlock
 62
     6
100
AcDbMText
 10
330.4478476861754
 20
268.7927115117917
 30
0.0
 40
2.5
 41
0.0
 71
     5
 72
     1
  1
\A1;93.3
  7
STYLE3
 11
0.0000000000000001
 21
1.0
 31
0.0
 73
     1
 44
1.0
  0
POINT
  5
1B58
330
18
100
AcDbEntity
  8
DEFPOINTS
  6
ByBlock
 62
     0
100
AcDbPoint
 10
320.309674927693
 20
315.5427115117917
 30
0.0
  0
POINT
  5
1B59
330
18
100
AcDbEntity
  8
DEFPOINTS
  6
ByBlock
 62
     0
100
AcDbPoint
 10
295.5891924217104
 20
222.0427115117917
 30
0.0
  0
POINT
  5
1B5A
330
18
100
AcDbEntity
  8
DEFPOINTS
  6
ByBlock
 62
     0
100
AcDbPoint
 10
332.3228476861753
 20
222.0427115117917
 30
0.0
  0
LINE
  5
1B5B
330
18
100
AcDbEntity
  8
0
  6
ByBlock
 62
     2
100
AcDbLine
 10
363.7728310318922
 20
300.0427115117917
 30
0.0
 11
351.262993714945
 21
300.0427115117917
 31
0.0
  0
LINE
  5
1B5C
330
18
100
AcDbEntity
  8
0
  6
ByBlock
 62
     2
100
AcDbLine
 10
363.7728310318922
 20
265.0427115117917
 30
0.0
 11
351.262993714945
 21
265.0427115117917
 31
0.0
  0
LINE
  5
1B5D
330
18
100
AcDbEntity
  8
0
  6
ByBlock
 62
     2
100
AcDbLine
 10
352.512993714945
 20
297.5427115117917
 30
0.0
 11
352.512993714945
 21
267.5427115117917
 31
0.0
  0
INSERT
  5
1B5E
330
18
100
AcDbEntity
  8
0
  6
ByBlock
 62
     2
100
AcDbBlockReference
  2
_OPEN
 10
352.512993714945
 20
300.0427115117917
 30
0.0
 41
2.5
 42
2.5
 43
2.5
 50
90.0
  0
INSERT
  5
1B5F
330
18
100
AcDbEntity
  8
0
  6
ByBlock
 62
     2
100
AcDbBlockReference
  2
_OPEN
 10
352.512993714945
 20
265.0427115117917
 30
0.0
 41
2.5
 42
2.5
 43
2.5
 50
270.0
  0
MTEXT
  5
1B60
330
18
100
AcDbEntity
  8
0
  6
ByBlock
 62
     6
100
AcDbMText
 10
350.637993714945
 20
282.5427115117917
 30
0.0
 40
2.5
 41
0.0
 71
     5
 72
     1
  1
\A1;φ35
  7
STYLE3
 11
0.0000000000000001
 21
1.0
 31
0.0
 73
     1
 44
1.0
  0
POINT
  5
1B61
330
18
100
AcDbEntity
  8
DEFPOINTS
  6
ByBlock
 62
     0
100
AcDbPoint
 10
363.7728310318922
 20
300.0427115117917
 30
0.0
  0
POINT
  5
1B62
330
18
100
AcDbEntity
  8
DEFPOINTS
  6
ByBlock
 62
     0
100
AcDbPoint
 10
363.7728310318922
 20
265.0427115117917
 30
0.0
  0
POINT
  5
1B63
330
18
100
AcDbEntity
  8
DEFPOINTS
  6
ByBlock
 62
     0
100
AcDbPoint
 10
352.512993714945
 20
265.0427115117917
 30
0.0
  0
LINE
  5
1B64
330
18
100
AcDbEntity
  8
0
  6
ByBlock
 62
     2
100
AcDbLine
 10
303.6776685335004
 20
244.3427115117917
 30
0.0
 11
320.309674927693
 21
244.3427115117917
 31
0.0
  0
LINE
  5
1B65
330
18
100
AcDbEntity
  8
0
  6
ByBlock
 62
     2
100
AcDbLine
 10
298.5499403869577
 20
223.0427115117917
 30
0.0
 11
320.309674927693
 21
223.0427115117917
 31
0.0
  0
LINE
  5
1B66
330
18
100
AcDbEntity
  8
0
  6
ByBlock
 62
     2
100
AcDbLine
 10
319.059674927693
 20
241.8427115117917
 30
0.0
 11
319.059674927693
 21
225.5427115117917
 31
0.0
  0
INSERT
  5
1B67
330
18
100
AcDbEntity
  8
0
  6
ByBlock
 62
     2
100
AcDbBlockReference
  2
_OPEN
 10
319.059674927693
 20
244.3427115117917
 30
0.0
 41
2.5
 42
2.5
 43
2.5
 50
90.0
  0
INSERT
  5
1B68
330
18
100
AcDbEntity
  8
0
  6
ByBlock
 62
     2
100
AcDbBlockReference
  2
_OPEN
 10
319.059674927693
 20
223.0427115117917
 30
0.0
 41
2.5
 42
2.5
 43
2.5
 50
270.0
  0
MTEXT
  5
1B69
330
18
100
AcDbEntity
  8
0
  6
ByBlock
 62
     6
100
AcDbMText
 10
317.184674927693
 20
233.6927115117917
 30
0.0
 40
2.5
 41
0.0
 71
     5
 72
     1
  1
\A1;21.3
  7
STYLE3
 11
0.0000000000000001
 21
1.0
 31
0.0
 73
     1
 44
1.0
  0
POINT
  5
1B6A
330
18
100
AcDbEntity
  8
DEFPOINTS
  6
ByBlock
 62
     0
100
AcDbPoint
 10
303.6776685335004
 20
244.3427115117917
 30
0.0
  0
POINT
  5
1B6B
330
18
100
AcDbEntity
  8
DEFPOINTS
  6
ByBlock
 62
     0
100
AcDbPoint
 10
298.5499403869577
 20
223.0427115117917
 30
0.0
  0
POINT
  5
1B6C
330
18
100
AcDbEntity
  8
DEFPOINTS
  6
ByBlock
 62
     0
100
AcDbPoint
 10
319.059674927693
 20
223.0427115117917
 30
0.0
  0
LINE
  5
1B6D
330
18
100
AcDbEntity
  8
0
  6
ByBlock
 62
     2
100
AcDbLine
 10
290.5891924217104
 20
242.3427115117917
 30
0.0
 11
290.5891924217104
 21
234.7862317949341
 31
0.0
  0
LINE
  5
1B6E
330
18
100
AcDbEntity
  8
0
  6
ByBlock
 62
     2
100
AcDbLine
 10
300.5891924217104
 20
242.3427115117917
 30
0.0
 11
300.5891924217104
 21
234.7862317949341
 31
0.0
  0
LINE
  5
1B6F
330
18
100
AcDbEntity
  8
0
  6
ByBlock
 62
     2
100
AcDbLine
 10
293.0891924217104
 20
236.0362317949341
 30
0.0
 11
298.0891924217104
 21
236.0362317949341
 31
0.0
  0
LINE
  5
1B70
330
18
100
AcDbEntity
  8
0
  6
ByBlock
 62
     2
100
AcDbLine
 10
300.5891924217104
 20
236.0362317949341
 30
0.0
 11
311.4820495645675
 21
236.0362317949341
 31
0.0
  0
INSERT
  5
1B71
330
18
100
AcDbEntity
  8
0
  6
ByBlock
 62
     2
100
AcDbBlockReference
  2
_OPEN
 10
290.5891924217104
 20
236.0362317949341
 30
0.0
 41
2.5
 42
2.5
 43
2.5
 50
180.0
  0
INSERT
  5
1B72
330
18
100
AcDbEntity
  8
0
  6
ByBlock
 62
     2
100
AcDbBlockReference
  2
_OPEN
 10
300.5891924217104
 20
236.0362317949341
 30
0.0
 41
2.5
 42
2.5
 43
2.5
  0
MTEXT
  5
1B73
330
18
100
AcDbEntity
  8
0
  6
ByBlock
 62
     6
100
AcDbMText
 10
307.2856209931389
 20
238.565993699696
 30
0.0
 40
2.5
 41
0.0
 71
     5
 72
     1
  1
\A1;(10)
  7
STYLE3
 73
     1
 44
1.0
  0
POINT
  5
1B74
330
18
100
AcDbEntity
  8
DEFPOINTS
  6
ByBlock
 62
     0
100
AcDbPoint
 10
290.5891924217104
 20
242.3427115117917
 30
0.0
  0
POINT
  5
1B75
330
18
100
AcDbEntity
  8
DEFPOINTS
  6
ByBlock
 62
     0
100
AcDbPoint
 10
300.5891924217104
 20
242.3427115117917
 30
0.0
  0
POINT
  5
1B76
330
18
100
AcDbEntity
  8
DEFPOINTS
  6
ByBlock
 62
     0
100
AcDbPoint
 10
300.5891924217104
 20
236.0362317949341
 30
0.0
  0
LINE
  5
1B77
330
18
100
AcDbEntity
  8
0
  6
ByBlock
 62
     2
100
AcDbLine
 10
291.5891924217104
 20
240.3427115117917
 30
0.0
 11
282.2913473481506
 21
240.3427115117917
 31
0.0
  0
LINE
  5
1B78
330
18
100
AcDbEntity
  8
0
  6
ByBlock
 62
     2
100
AcDbLine
 10
293.2057901767257
 20
223.0427115117917
 30
0.0
 11
282.2913473481506
 21
223.0427115117917
 31
0.0
  0
LINE
  5
1B79
330
18
100
AcDbEntity
  8
0
  6
ByBlock
 62
     2
100
AcDbLine
 10
283.5413473481505
 20
237.8427115117917
 30
0.0
 11
283.5413473481505
 21
225.5427115117917
 31
0.0
  0
INSERT
  5
1B7A
330
18
100
AcDbEntity
  8
0
  6
ByBlock
 62
     2
100
AcDbBlockReference
  2
_OPEN
 10
283.5413473481505
 20
240.3427115117917
 30
0.0
 41
2.5
 42
2.5
 43
2.5
 50
90.0
  0
INSERT
  5
1B7B
330
18
100
AcDbEntity
  8
0
  6
ByBlock
 62
     2
100
AcDbBlockReference
  2
_OPEN
 10
283.5413473481505
 20
223.0427115117917
 30
0.0
 41
2.5
 42
2.5
 43
2.5
 50
270.0
  0
MTEXT
  5
1B7C
330
18
100
AcDbEntity
  8
0
  6
ByBlock
 62
     6
100
AcDbMText
 10
281.6663473481506
 20
231.6927115117917
 30
0.0
 40
2.5
 41
0.0
 71
     5
 72
     1
  1
\A1;17
  7
STYLE3
 11
0.0000000000000001
 21
1.0
 31
0.0
 73
     1
 44
1.0
  0
POINT
  5
1B7D
330
18
100
AcDbEntity
  8
DEFPOINTS
  6
ByBlock
 62
     0
100
AcDbPoint
 10
291.5891924217104
 20
240.3427115117917
 30
0.0
  0
POINT
  5
1B7E
330
18
100
AcDbEntity
  8
DEFPOINTS
  6
ByBlock
 62
     0
100
AcDbPoint
 10
293.2057901767257
 20
223.0427115117917
 30
0.0
  0
POINT
  5
1B7F
330
18
100
AcDbEntity
  8
DEFPOINTS
  6
ByBlock
 62
     0
100
AcDbPoint
 10
283.5413473481505
 20
223.0427115117917
 30
0.0
  0
LINE
  5
1B80
330
18
100
AcDbEntity
  8
0
  6
ByBlock
 62
     2
100
AcDbLine
 10
433.9302875136168
 20
273.389717458774
 30
0.0
 11
433.9302875136168
 21
284.4154816875188
 31
0.0
  0
LINE
  5
1B81
330
18
100
AcDbEntity
  8
0
  6
ByBlock
 62
     2
100
AcDbLine
 10
446.3844184584107
 20
273.389717458774
 30
0.0
 11
446.3844184584107
 21
284.4154816875188
 31
0.0
  0
LINE
  5
1B82
330
18
100
AcDbEntity
  8
0
  6
ByBlock
 62
     2
100
AcDbLine
 10
436.4302875136169
 20
283.1654816875188
 30
0.0
 11
443.8844184584107
 21
283.1654816875188
 31
0.0
  0
INSERT
  5
1B83
330
18
100
AcDbEntity
  8
0
  6
ByBlock
 62
     2
100
AcDbBlockReference
  2
_OPEN
 10
433.9302875136168
 20
283.1654816875188
 30
0.0
 41
2.5
 42
2.5
 43
2.5
 50
180.0
  0
INSERT
  5
1B84
330
18
100
AcDbEntity
  8
0
  6
ByBlock
 62
     2
100
AcDbBlockReference
  2
_OPEN
 10
446.3844184584107
 20
283.1654816875188
 30
0.0
 41
2.5
 42
2.5
 43
2.5
  0
MTEXT
  5
1B85
330
18
100
AcDbEntity
  8
0
  6
ByBlock
 62
     6
100
AcDbMText
 10
440.1573529860138
 20
285.6952435922807
 30
0.0
 40
2.5
 41
0.0
 71
     5
 72
     1
  1
\A1;(6.35)
  7
STYLE3
 73
     1
 44
1.0
  0
POINT
  5
1B86
330
18
100
AcDbEntity
  8
DEFPOINTS
  6
ByBlock
 62
     0
100
AcDbPoint
 10
433.9302875136168
 20
273.389717458774
 30
0.0
  0
POINT
  5
1B87
330
18
100
AcDbEntity
  8
DEFPOINTS
  6
ByBlock
 62
     0
100
AcDbPoint
 10
446.3844184584107
 20
273.389717458774
 30
0.0
  0
POINT
  5
1B88
330
18
100
AcDbEntity
  8
DEFPOINTS
  6
ByBlock
 62
     0
100
AcDbPoint
 10
446.3844184584107
 20
283.1654816875188
 30
0.0
  0
LINE
  5
1B89
330
18
100
AcDbEntity
  8
0
  6
ByBlock
 62
     2
100
AcDbLine
 10
431.7402875136168
 20
271.5897174587739
 30
0.0
 11
431.7402875136168
 21
291.0154630899212
 31
0.0
  0
LINE
  5
1B8A
330
18
100
AcDbEntity
  8
0
  6
ByBlock
 62
     2
100
AcDbLine
 10
448.820287513617
 20
271.5897174587739
 30
0.0
 11
448.820287513617
 21
291.0154630899212
 31
0.0
  0
LINE
  5
1B8B
330
18
100
AcDbEntity
  8
0
  6
ByBlock
 62
     2
100
AcDbLine
 10
434.2402875136168
 20
289.7654630899213
 30
0.0
 11
446.320287513617
 21
289.7654630899213
 31
0.0
  0
INSERT
  5
1B8C
330
18
100
AcDbEntity
  8
0
  6
ByBlock
 62
     2
100
AcDbBlockReference
  2
_OPEN
 10
431.7402875136168
 20
289.7654630899213
 30
0.0
 41
2.5
 42
2.5
 43
2.5
 50
180.0
  0
INSERT
  5
1B8D
330
18
100
AcDbEntity
  8
0
  6
ByBlock
 62
     2
100
AcDbBlockReference
  2
_OPEN
 10
448.820287513617
 20
289.7654630899213
 30
0.0
 41
2.5
 42
2.5
 43
2.5
  0
MTEXT
  5
1B8E
330
18
100
AcDbEntity
  8
0
  6
ByBlock
 62
     6
100
AcDbMText
 10
440.2802875136169
 20
291.6404630899212
 30
0.0
 40
2.5
 41
0.0
 71
     5
 72
     1
  1
\A1;8.54
  7
STYLE3
 73
     1
 44
1.0
  0
POINT
  5
1B8F
330
18
100
AcDbEntity
  8
DEFPOINTS
  6
ByBlock
 62
     0
100
AcDbPoint
 10
431.7402875136168
 20
271.5897174587739
 30
0.0
  0
POINT
  5
1B90
330
18
100
AcDbEntity
  8
DEFPOINTS
  6
ByBlock
 62
     0
100
AcDbPoint
 10
448.820287513617
 20
271.5897174587739
 30
0.0
  0
POINT
  5
1B91
330
18
100
AcDbEntity
  8
DEFPOINTS
  6
ByBlock
 62
     0
100
AcDbPoint
 10
448.820287513617
 20
289.7654630899213
 30
0.0
  0
LINE
  5
1B92
330
18
100
AcDbEntity
  8
0
  6
ByBlock
 62
     2
100
AcDbLine
 10
291.5891924217104
 20
256.4649146499773
 30
0.0
 11
291.5891924217104
 21
254.7069992189477
 31
0.0
  0
LINE
  5
1B93
330
18
100
AcDbEntity
  8
0
  6
ByBlock
 62
     2
100
AcDbLine
 10
299.5891924217104
 20
256.0416519441424
 30
0.0
 11
299.5891924217104
 21
254.7069992189477
 31
0.0
  0
LINE
  5
1B94
330
18
100
AcDbEntity
  8
0
  6
ByBlock
 62
     2
100
AcDbLine
 10
294.0891924217104
 20
255.9569992189477
 30
0.0
 11
297.0891924217104
 21
255.9569992189477
 31
0.0
  0
LINE
  5
1B95
330
18
100
AcDbEntity
  8
0
  6
ByBlock
 62
     2
100
AcDbLine
 10
299.5891924217104
 20
255.9569992189477
 30
0.0
 11
305.0058590883771
 21
255.9569992189477
 31
0.0
  0
INSERT
  5
1B96
330
18
100
AcDbEntity
  8
0
  6
ByBlock
 62
     2
100
AcDbBlockReference
  2
_OPEN
 10
291.5891924217104
 20
255.9569992189477
 30
0.0
 41
2.5
 42
2.5
 43
2.5
 50
180.0
  0
INSERT
  5
1B97
330
18
100
AcDbEntity
  8
0
  6
ByBlock
 62
     2
100
AcDbBlockReference
  2
_OPEN
 10
299.5891924217104
 20
255.9569992189477
 30
0.0
 41
2.5
 42
2.5
 43
2.5
  0
MTEXT
  5
1B98
330
18
100
AcDbEntity
  8
0
  6
ByBlock
 62
     6
100
AcDbMText
 10
303.5475257550438
 20
257.8319992189477
 30
0.0
 40
2.5
 41
0.0
 71
     5
 72
     1
  1
\A1;8
  7
STYLE3
 73
     1
 44
1.0
  0
POINT
  5
1B99
330
18
100
AcDbEntity
  8
DEFPOINTS
  6
ByBlock
 62
     0
100
AcDbPoint
 10
291.5891924217104
 20
256.4649146499773
 30
0.0
  0
POINT
  5
1B9A
330
18
100
AcDbEntity
  8
DEFPOINTS
  6
ByBlock
 62
     0
100
AcDbPoint
 10
299.5891924217104
 20
256.0416519441424
 30
0.0
  0
POINT
  5
1B9B
330
18
100
AcDbEntity
  8
DEFPOINTS
  6
ByBlock
 62
     0
100
AcDbPoint
 10
299.5891924217104
 20
255.9569992189477
 30
0.0
  0
HATCH
  5
1B9C
330
18
100
AcDbEntity
  8
ROGO
 62
     4
100
AcDbHatch
 10
0.0
 20
0.0
 30
0.0
210
0.0
220
0.0
230
1.0
  2
SOLID
 70
     1
 71
     1
 91
        1
 92
        7
 72
     0
 73
     1
 93
       11
 10
299.4889100208865
 20
277.5565998157236
 10
300.0360846473466
 20
277.5565998157236
 10
300.2293470954474
 20
277.9441849145352
 10
300.4226095435483
 20
277.5565998157236
 10
300.9697721982677
 20
277.5565998157236
 10
300.5995536609871
 20
278.2990678417874
 10
301.4990414957578
 20
279.0415358678513
 10
300.9518788410387
 20
279.0415358678513
 10
300.6956810608112
 20
278.8794110685079
 10
300.7765217219074
 20
279.0415358678513
 10
300.2293470954474
 20
279.0415358678513
 97
       11
330
1BEA
330
1BED
330
1BEC
330
1BEB
330
1BA1
330
1B9E
330
1BE7
330
1BE6
330
1BE8
330
1BE5
330
1BE9
 75
     0
 76
     1
 47
0.0514683685270805
 98
        1
 10
300.182255307934
 20
278.4044693647169
450
        0
451
        0
460
0.0
461
0.0
452
        0
462
0.0
453
        0
470

  0
HATCH
  5
1B9D
330
18
100
AcDbEntity
  8
ROGO
 62
     4
100
AcDbHatch
 10
0.0
 20
0.0
 30
0.0
210
0.0
220
0.0
230
1.0
  2
SOLID
 70
     1
 71
     1
 91
        1
 92
        5
 93
        8
 72
     4
 94
        3
 73
     0
 74
     0
 95
       26
 96
       22
 40
0.0
 40
0.0
 40
0.0
 40
0.0
 40
0.1723984759424608
 40
0.2878059064036966
 40
0.3710240621887089
 40
0.4331603664333254
 40
0.5137544142125283
 40
0.572580212192407
 40
0.6788058922657624
 40
0.7652720686804436
 40
0.8240829233522806
 40
0.8817499774613361
 40
0.984905126098422
 40
1.057848128260907
 40
1.097133570529052
 40
1.152937380796412
 40
1.193234564309735
 40
1.251611879021434
 40
1.284648389624301
 40
1.356539542405996
 40
1.389365667278746
 40
1.389365667278746
 40
1.389365667278746
 40
1.389365667278746
 10
299.0786248447144
 20
279.0415358678513
 10
299.0201101382758
 20
279.038044780123
 10
298.9224243667952
 20
279.0322166794829
 10
298.8151659839598
 20
278.9670583637801
 10
298.7365822134447
 20
278.929178182406
 10
298.6805363636161
 20
278.8776833030067
 10
298.6394545284987
 20
278.8244928542172
 10
298.5876631630334
 20
278.7611168244869
 10
298.5454287844362
 20
278.6873180024465
 10
298.5239213830098
 20
278.6059788349769
 10
298.5048703309537
 20
278.5411510465588
 10
298.4907417518166
 20
278.4689089365658
 10
298.4943364623238
 20
278.390862044328
 10
298.4994842522873
 20
278.318376086403
 10
298.5224678826962
 20
278.2666319650808
 10
298.5486421666298
 20
278.2297937163447
 10
298.5806922188512
 20
278.1892204694261
 10
298.6157619847525
 20
278.1623489393731
 10
298.6447675437462
 20
278.1136693569588
 10
298.6955407962811
 20
278.1074574911632
 10
298.7278142955292
 20
278.0950940242363
 10
298.7379311925698
 20
278.0912184010508
 72
     1
 10
298.7379311925698
 20
278.0912184010508
 11
299.5564521367589
 21
278.0912184010508
 72
     1
 10
299.5564521367589
 20
278.0912184010508
 11
299.7327565335382
 21
278.4447943684366
 72
     1
 10
299.7327565335382
 20
278.4447943684366
 11
299.1250829081015
 21
278.4447943684366
 72
     4
 94
        3
 73
     0
 74
     0
 95
       16
 96
       12
 40
0.0
 40
0.0
 40
0.0
 40
0.0
 40
0.0520638816757992
 40
0.1046647644702509
 40
0.1360388269655429
 40
0.1661200957203634
 40
0.1991564750640333
 40
0.222226618446301
 40
0.2441181822786699
 40
0.2885111307736893
 40
0.3794005943324992
 40
0.3794005943324992
 40
0.3794005943324992
 40
0.3794005943324992
 10
299.1250829081015
 20
278.4447943684366
 10
299.106753330083
 20
278.4501871990495
 10
299.0699051177638
 20
278.4610284834057
 10
299.0668212199488
 20
278.5135830471975
 10
299.0710225845591
 20
278.5510324744242
 10
299.0886179089317
 20
278.5782978443513
 10
299.1099640892638
 20
278.59813698838
 10
299.117912218931
 20
278.6239743715062
 10
299.1412750219368
 20
278.6434848283048
 10
299.182703531602
 20
278.6762791807537
 10
299.2285162915911
 20
278.6832636450829
 10
299.2592955859306
 20
278.6879561561529
 72
     1
 10
299.2592955859306
 20
278.687956156153
 11
299.8540048542882
 21
278.687956156153
 72
     1
 10
299.8540048542882
 20
278.687956156153
 11
300.0303111181026
 21
279.0415358678513
 72
     1
 10
300.0303111181026
 20
279.0415358678513
 11
299.0786248447144
 21
279.0415358678513
 97
        8
330
1B9F
330
1BC3
330
1BCF
330
1BC8
330
1BE3
330
1BE2
330
1BE4
330
1BA0
 75
     0
 76
     1
 47
0.0514683685270805
 98
        1
 10
299.2428440347922
 20
278.8675295073694
450
        0
451
        0
460
0.0
461
0.0
452
        0
462
0.0
453
        0
470

  0
LINE
  5
1B9E
102
{ACAD_REACTORS
330
1BA7
330
1B9C
102
}
330
18
100
AcDbEntity
  8
ROGO
 62
     4
100
AcDbLine
 10
289.9845454385424
 20
277.5565998157236
 30
0.0
 11
300.0360846473466
 21
277.5565998157236
 31
0.0
  0
LINE
  5
1B9F
102
{ACAD_REACTORS
330
1B9D
102
}
330
18
100
AcDbEntity
  8
ROGO
 62
     4
100
AcDbLine
 10
299.0786248447146
 20
279.0415358678513
 30
0.0
 11
300.0303111181026
 21
279.0415358678513
 31
0.0
  0
LINE
  5
1BA0
102
{ACAD_REACTORS
330
1B9D
102
}
330
18
100
AcDbEntity
  8
ROGO
 62
     4
100
AcDbLine
 10
300.0303111181026
 20
279.0415358678513
 30
0.0
 11
299.8540048542882
 21
278.687956156153
 31
0.0
  0
LINE
  5
1BA1
102
{ACAD_REACTORS
330
1B9C
102
}
330
18
100
AcDbEntity
  8
ROGO
 62
     4
100
AcDbLine
 10
300.2293470954474
 20
279.0415358678513
 30
0.0
 11
299.4889100208865
 21
277.5565998157236
 31
0.0
  0
HATCH
  5
1BA2
330
18
100
AcDbEntity
  8
ROGO
 62
     4
100
AcDbHatch
 10
0.0
 20
0.0
 30
0.0
210
0.0
220
0.0
230
1.0
  2
SOLID
 70
     1
 71
     0
 91
        1
 92
        7
 72
     0
 73
     1
 93
        4
 10
299.5631277802351
 20
277.7054424795383
 10
290.7421478245338
 20
277.7054424795383
 10
290.6748071813133
 20
277.5565998157235
 10
299.4889100208865
 20
277.5565998157235
 97
        0
 75
     0
 76
     1
 47
0.0514683685270805
 98
        1
 10
296.3118809338281
 20
277.6660759870338
450
        0
451
        0
460
0.0
461
0.0
452
        0
462
0.0
453
        0
470

  0
HATCH
  5
1BA3
330
18
100
AcDbEntity
  8
ROGO
 62
     4
100
AcDbHatch
 10
0.0
 20
0.0
 30
0.0
210
0.0
220
0.0
230
1.0
  2
SOLID
 70
     1
 71
     1
 91
        2
 92
        7
 72
     0
 73
     1
 93
        8
 10
294.7825737920917
 20
279.0415358678513
 10
294.2333274647525
 20
279.0415358678513
 10
293.5480350702381
 20
278.0912184010508
 10
294.0743408495033
 20
278.0912184010508
 10
294.2048162813792
 20
278.2721529669275
 10
294.811084975465
 20
278.2721529669275
 10
294.941560407341
 20
278.0912184010508
 10
295.4678661866061
 20
278.0912184010508
 97
        8
330
1BA5
330
1BAD
330
1BB2
330
1BAE
330
1BA4
330
1BC6
330
1BCC
330
1BC5
 92
       22
 72
     0
 73
     1
 93
        3
 10
294.6734686030002
 20
278.4629901096098
 10
294.342432653844
 20
278.4629901096098
 10
294.5079506284221
 20
278.6925193201629
 97
        3
330
1BD1
330
1BD0
330
1BD2
 75
     0
 76
     1
 47
0.0514683685270805
 98
        2
 10
294.846399383346
 20
278.5546509917034
 10
294.846399383346
 20
278.5546509917034
450
        0
451
        0
460
0.0
461
0.0
452
        0
462
0.0
453
        0
470

  0
LINE
  5
1BA4
102
{ACAD_REACTORS
330
1BA3
102
}
330
18
100
AcDbEntity
  8
ROGO
 62
     4
100
AcDbLine
 10
294.2048162813792
 20
278.2721529669275
 30
0.0
 11
294.811084975465
 21
278.2721529669275
 31
0.0
  0
LINE
  5
1BA5
102
{ACAD_REACTORS
330
1BA3
102
}
330
18
100
AcDbEntity
  8
ROGO
 62
     4
100
AcDbLine
 10
294.2333274647525
 20
279.0415358678513
 30
0.0
 11
294.7825737920918
 21
279.0415358678513
 31
0.0
  0
LINE
  5
1BA6
330
18
100
AcDbEntity
  8
ROGO
 62
     4
100
AcDbLine
 10
290.7318254279527
 20
277.7054424795384
 30
0.0
 11
299.5631277802352
 21
277.7054424795384
 31
0.0
  0
HATCH
  5
1BA7
330
18
100
AcDbEntity
  8
ROGO
 62
     4
100
AcDbHatch
 10
0.0
 20
0.0
 30
0.0
210
0.0
220
0.0
230
1.0
  2
SOLID
 70
     1
 71
     1
 91
        2
 92
        5
 93
        6
 72
     1
 10
289.9845454385424
 20
277.5565998157237
 11
290.6748071813134
 21
277.5565998157237
 72
     1
 10
290.6748071813134
 20
277.5565998157237
 11
290.9166837944486
 21
278.0912184010508
 72
     1
 10
290.9166837944486
 20
278.0912184010508
 11
291.5619369504944
 21
278.0912184010508
 72
     4
 94
        3
 73
     0
 74
     0
 95
       18
 96
       14
 40
0.108740278791501
 40
0.108740278791501
 40
0.108740278791501
 40
0.108740278791501
 40
0.6623149649549278
 40
1.384304701649787
 40
2.097394834876493
 40
2.774073369849618
 40
3.428974823686337
 40
4.005208313035923
 40
4.455173659284313
 40
4.720999734343524
 40
5.086034088486724
 40
5.569973738255373
 40
6.060470601257719
 40
6.060470601257719
 40
6.060470601257719
 40
6.060470601257719
 10
291.5619369504943
 20
278.0912184010508
 10
291.607348801599
 20
278.0915565693558
 10
291.7119882352528
 20
278.0923357875345
 10
291.8583779841373
 20
278.1705404080938
 10
291.9971972924022
 20
278.2701673967735
 10
292.1090068015257
 20
278.3946409250225
 10
292.1786674943895
 20
278.5369550792856
 10
292.1894577155284
 20
278.6733501242164
 10
292.1828705506204
 20
278.781236909079
 10
292.1358019487722
 20
278.8564366765233
 10
292.0868683934349
 20
278.9327567502963
 10
291.9971407996073
 20
278.9988680329179
 10
291.9236220287449
 20
279.027834602225
 10
291.8862362384945
 20
279.0415358678513
 72
     1
 10
291.8862362384946
 20
279.0415358678513
 11
290.7192779870808
 21
279.0415358678513
 72
     1
 10
290.7192779870808
 20
279.0415358678513
 11
289.9845454385424
 21
277.5565998157237
 97
        6
330
1BA9
330
1BB3
330
1BAA
330
1B9E
330
1BB0
330
1BAF
 92
       20
 93
        4
 72
     1
 10
291.0660289101369
 20
278.4213151120969
 11
291.1803712512604
 21
278.6740453775909
 72
     1
 10
291.1803712512604
 20
278.6740453775909
 11
291.4741823360526
 21
278.674045377591
 72
     4
 94
        3
 73
     0
 74
     0
 95
       15
 96
       11
 40
0.0
 40
0.0
 40
0.0
 40
0.0
 40
0.1114278057886432
 40
0.1622327562563865
 40
0.2198997572250677
 40
0.259185199493265
 40
0.3213155338880433
 40
0.3585299069784071
 40
0.4223775764185746
 40
0.4436601464819452
 40
0.4436601464819452
 40
0.4436601464819452
 40
0.4436601464819452
 10
291.4741823360525
 20
278.674045377591
 10
291.5160324590693
 20
278.6742370734934
 10
291.5769639362588
 20
278.6745161721832
 10
291.6102834381202
 20
278.5991437586925
 10
291.5953480487066
 20
278.5506156823574
 10
291.5765730469597
 20
278.5007924730694
 10
291.5433933666162
 20
278.4669368509175
 10
291.4988613756698
 20
278.4343281795155
 10
291.4567765161344
 20
278.4303807538275
 10
291.4294050391914
 20
278.4231282411373
 10
291.4225621666802
 20
278.4213151120968
 72
     1
 10
291.4225621666802
 20
278.4213151120969
 11
291.0660289101369
 21
278.4213151120969
 97
        4
330
1BB6
330
1BB4
330
1BB8
330
1BB5
 75
     0
 76
     1
 47
0.0514683685270805
 98
        2
 10
290.7255151978832
 20
278.5796813469418
 10
290.7255151978832
 20
278.5796813469418
450
        0
451
        0
460
0.0
461
0.0
452
        0
462
0.0
453
        0
470

  0
HATCH
  5
1BA8
330
18
100
AcDbEntity
  8
ROGO
 62
     4
100
AcDbHatch
 10
0.0
 20
0.0
 30
0.0
210
0.0
220
0.0
230
1.0
  2
SOLID
 70
     1
 71
     1
 91
        1
 92
        1
 93
       12
 72
     1
 10
292.5756462182841
 20
279.0415358678513
 11
293.8609901275643
 21
279.0415358678513
 72
     1
 10
293.8609901275643
 20
279.0415358678513
 11
293.7532794456948
 21
278.8238464854694
 72
     1
 10
293.7532794456948
 20
278.8238464854694
 11
293.0777351668969
 21
278.8238464854694
 72
     1
 10
293.0777351668969
 20
278.8238464854694
 11
292.9935187984201
 21
278.6536404397737
 72
     1
 10
292.9935187984201
 20
278.6536404397737
 11
293.669063077218
 21
278.6536404397737
 72
     1
 10
293.669063077218
 20
278.6536404397737
 11
293.5827070807346
 21
278.4791100848158
 72
     1
 10
293.5827070807346
 20
278.4791100848159
 11
292.9071628019368
 21
278.4791100848158
 72
     1
 10
292.9071628019368
 20
278.4791100848158
 11
292.8229428681436
 21
278.3088968334145
 72
     1
 10
292.8229428681437
 20
278.3088968334145
 11
293.4984871469416
 21
278.3088968334145
 72
     1
 10
293.4984871469416
 20
278.3088968334145
 11
293.3907818830393
 21
278.0912184010508
 72
     1
 10
293.3907818830393
 20
278.0912184010508
 11
292.1054379737591
 21
278.0912184010508
 72
     1
 10
292.1054379737591
 20
278.0912184010508
 11
292.5756462182841
 21
279.0415358678513
 97
       12
330
1BB7
330
1BB9
330
1BBB
330
1BBA
330
1BBC
330
1BBF
330
1BBE
330
1BC0
330
1BBD
330
1BAC
330
1BB1
330
1BAB
 75
     0
 76
     1
 98
        1
 10
239.9990532412509
 20
213.3313354026855
450
        0
451
        0
460
0.0
461
0.0
452
        0
462
0.0
453
        0
470

  0
SPLINE
  5
1BA9
102
{ACAD_REACTORS
330
1BA7
102
}
330
18
100
AcDbEntity
  8
ROGO
 62
     4
100
AcDbSpline
210
0.0
220
0.0
230
1.0
 70
     8
 71
     3
 72
    18
 73
    14
 74
     0
 42
0.0000000001
 43
0.0000000001
 40
0.1087402787915014
 40
0.1087402787915014
 40
0.1087402787915014
 40
0.1087402787915014
 40
0.5992371417938475
 40
1.083176791562496
 40
1.448211145705696
 40
1.714037220764907
 40
2.164002567013297
 40
2.740236056362883
 40
3.395137510199602
 40
4.071816045172726
 40
4.784906178399433
 40
5.506895915094292
 40
6.060470601257719
 40
6.060470601257719
 40
6.060470601257719
 40
6.060470601257719
 10
291.8862362384945
 20
279.0415358678513
 30
0.0
 10
291.9236220287449
 20
279.027834602225
 30
0.0
 10
291.9971407996073
 20
278.9988680329179
 30
0.0
 10
292.0868683934349
 20
278.9327567502963
 30
0.0
 10
292.1358019487722
 20
278.8564366765233
 30
0.0
 10
292.1828705506204
 20
278.781236909079
 30
0.0
 10
292.1894577155284
 20
278.6733501242164
 30
0.0
 10
292.1786674943895
 20
278.5369550792856
 30
0.0
 10
292.1090068015257
 20
278.3946409250225
 30
0.0
 10
291.9971972924022
 20
278.2701673967735
 30
0.0
 10
291.8583779841373
 20
278.1705404080938
 30
0.0
 10
291.7119882352528
 20
278.0923357875345
 30
0.0
 10
291.607348801599
 20
278.0915565693558
 30
0.0
 10
291.5619369504943
 20
278.0912184010508
 30
0.0
  0
LINE
  5
1BAA
102
{ACAD_REACTORS
330
1BA7
102
}
330
18
100
AcDbEntity
  8
ROGO
 62
     4
100
AcDbLine
 10
290.7192779870808
 20
279.0415358678513
 30
0.0
 11
289.9845454385424
 21
277.5565998157236
 31
0.0
  0
LINE
  5
1BAB
102
{ACAD_REACTORS
330
1BA8
102
}
330
18
100
AcDbEntity
  8
ROGO
 62
     4
100
AcDbLine
 10
292.5756462182841
 20
279.0415358678513
 30
0.0
 11
292.1054379737591
 21
278.0912184010508
 31
0.0
  0
LINE
  5
1BAC
102
{ACAD_REACTORS
330
1BA8
102
}
330
18
100
AcDbEntity
  8
ROGO
 62
     4
100
AcDbLine
 10
293.4984871469416
 20
278.3088968334145
 30
0.0
 11
293.3907818830393
 21
278.0912184010508
 31
0.0
  0
LINE
  5
1BAD
102
{ACAD_REACTORS
330
1BA3
102
}
330
18
100
AcDbEntity
  8
ROGO
 62
     4
100
AcDbLine
 10
294.2333274647526
 20
279.0415358678513
 30
0.0
 11
293.5480350702381
 21
278.0912184010508
 31
0.0
  0
LINE
  5
1BAE
102
{ACAD_REACTORS
330
1BA3
102
}
330
18
100
AcDbEntity
  8
ROGO
 62
     4
100
AcDbLine
 10
294.2048162813792
 20
278.2721529669275
 30
0.0
 11
294.0743408495033
 21
278.0912184010508
 31
0.0
  0
LINE
  5
1BAF
102
{ACAD_REACTORS
330
1BA7
102
}
330
18
100
AcDbEntity
  8
ROGO
 62
     4
100
AcDbLine
 10
291.5619369507179
 20
278.0912184010508
 30
0.0
 11
290.9166837944485
 21
278.0912184010508
 31
0.0
  0
LINE
  5
1BB0
102
{ACAD_REACTORS
330
1BA7
102
}
330
18
100
AcDbEntity
  8
ROGO
 62
     4
100
AcDbLine
 10
290.9166837944486
 20
278.0912184010508
 30
0.0
 11
290.6748071813134
 21
277.5565998157236
 31
0.0
  0
LINE
  5
1BB1
102
{ACAD_REACTORS
330
1BA8
102
}
330
18
100
AcDbEntity
  8
ROGO
 62
     4
100
AcDbLine
 10
292.1054379737591
 20
278.0912184010508
 30
0.0
 11
293.3907818830393
 21
278.0912184010508
 31
0.0
  0
LINE
  5
1BB2
102
{ACAD_REACTORS
330
1BA3
102
}
330
18
100
AcDbEntity
  8
ROGO
 62
     4
100
AcDbLine
 10
293.5480350702381
 20
278.0912184010508
 30
0.0
 11
294.0743408495033
 21
278.0912184010508
 31
0.0
  0
LINE
  5
1BB3
102
{ACAD_REACTORS
330
1BA7
102
}
330
18
100
AcDbEntity
  8
ROGO
 62
     4
100
AcDbLine
 10
290.7192779870808
 20
279.0415358678513
 30
0.0
 11
291.8862362384945
 21
279.0415358678513
 31
0.0
  0
LINE
  5
1BB4
102
{ACAD_REACTORS
330
1BA7
102
}
330
18
100
AcDbEntity
  8
ROGO
 62
     4
100
AcDbLine
 10
291.4741823360525
 20
278.674045377591
 30
0.0
 11
291.1803712512604
 21
278.674045377591
 31
0.0
  0
LINE
  5
1BB5
102
{ACAD_REACTORS
330
1BA7
102
}
330
18
100
AcDbEntity
  8
ROGO
 62
     4
100
AcDbLine
 10
291.4225621666802
 20
278.4213151120968
 30
0.0
 11
291.066028910137
 21
278.4213151120969
 31
0.0
  0
LINE
  5
1BB6
102
{ACAD_REACTORS
330
1BA7
102
}
330
18
100
AcDbEntity
  8
ROGO
 62
     4
100
AcDbLine
 10
291.1803712512604
 20
278.674045377591
 30
0.0
 11
291.066028910137
 21
278.4213151120969
 31
0.0
  0
LINE
  5
1BB7
102
{ACAD_REACTORS
330
1BA8
102
}
330
18
100
AcDbEntity
  8
ROGO
 62
     4
100
AcDbLine
 10
292.5756462182841
 20
279.0415358678513
 30
0.0
 11
293.8609901275643
 21
279.0415358678513
 31
0.0
  0
SPLINE
  5
1BB8
102
{ACAD_REACTORS
330
1BA7
102
}
330
18
100
AcDbEntity
  8
ROGO
 62
     4
100
AcDbSpline
210
0.0
220
0.0
230
1.0
 70
     8
 71
     3
 72
    15
 73
    11
 74
     9
 42
0.0000000001
 43
0.0000000001
 44
0.0000000001
 40
0.0
 40
0.0
 40
0.0
 40
0.0
 40
0.1114278057886432
 40
0.1622327562563865
 40
0.2198997572250677
 40
0.259185199493265
 40
0.3213155338880433
 40
0.3585299069784071
 40
0.4223775764185746
 40
0.4436601464819452
 40
0.4436601464819452
 40
0.4436601464819452
 40
0.4436601464819452
 10
291.4741823360525
 20
278.674045377591
 30
0.0
 10
291.5160324590693
 20
278.6742370734934
 30
0.0
 10
291.5769639362588
 20
278.6745161721832
 30
0.0
 10
291.6102834381202
 20
278.5991437586925
 30
0.0
 10
291.5953480487066
 20
278.5506156823574
 30
0.0
 10
291.5765730469597
 20
278.5007924730694
 30
0.0
 10
291.5433933666162
 20
278.4669368509175
 30
0.0
 10
291.4988613756698
 20
278.4343281795155
 30
0.0
 10
291.4567765161344
 20
278.4303807538275
 30
0.0
 10
291.4294050391914
 20
278.4231282411373
 30
0.0
 10
291.4225621666802
 20
278.4213151120968
 30
0.0
 11
291.4741823360525
 21
278.674045377591
 31
0.0
 11
291.5825847807822
 21
278.6482565063577
 31
0.0
 11
291.6032329078964
 21
278.6018367062858
 31
0.0
 11
291.5929089927524
 21
278.5451013577206
 31
0.0
 11
291.5774229716234
 21
278.5089969379939
 31
0.0
 11
291.536126717395
 21
278.4625771379221
 31
0.0
 11
291.5051546751369
 21
278.4419460409354
 31
0.0
 11
291.4432102937943
 21
278.4264728863435
 31
0.0
 11
291.4225621666802
 21
278.4213151120968
 31
0.0
  0
LINE
  5
1BB9
102
{ACAD_REACTORS
330
1BA8
102
}
330
18
100
AcDbEntity
  8
ROGO
 62
     4
100
AcDbLine
 10
293.8609901275643
 20
279.0415358678513
 30
0.0
 11
293.7532794456948
 21
278.8238464854694
 31
0.0
  0
LINE
  5
1BBA
102
{ACAD_REACTORS
330
1BA8
102
}
330
18
100
AcDbEntity
  8
ROGO
 62
     4
100
AcDbLine
 10
293.0777351668969
 20
278.8238464854694
 30
0.0
 11
292.9935187984201
 21
278.6536404397737
 31
0.0
  0
LINE
  5
1BBB
102
{ACAD_REACTORS
330
1BA8
102
}
330
18
100
AcDbEntity
  8
ROGO
 62
     4
100
AcDbLine
 10
293.0777351668969
 20
278.8238464854694
 30
0.0
 11
293.7532794456948
 21
278.8238464854694
 31
0.0
  0
LINE
  5
1BBC
102
{ACAD_REACTORS
330
1BA8
102
}
330
18
100
AcDbEntity
  8
ROGO
 62
     4
100
AcDbLine
 10
292.9935187984201
 20
278.6536404397737
 30
0.0
 11
293.669063077218
 21
278.6536404397737
 31
0.0
  0
LINE
  5
1BBD
102
{ACAD_REACTORS
330
1BA8
102
}
330
18
100
AcDbEntity
  8
ROGO
 62
     4
100
AcDbLine
 10
292.8229428681437
 20
278.3088968334145
 30
0.0
 11
293.4984871469416
 21
278.3088968334145
 31
0.0
  0
LINE
  5
1BBE
102
{ACAD_REACTORS
330
1BA8
102
}
330
18
100
AcDbEntity
  8
ROGO
 62
     4
100
AcDbLine
 10
292.9071628019368
 20
278.4791100848158
 30
0.0
 11
293.5827070807346
 21
278.4791100848159
 31
0.0
  0
LINE
  5
1BBF
102
{ACAD_REACTORS
330
1BA8
102
}
330
18
100
AcDbEntity
  8
ROGO
 62
     4
100
AcDbLine
 10
293.669063077218
 20
278.6536404397737
 30
0.0
 11
293.5827070807346
 21
278.4791100848158
 31
0.0
  0
LINE
  5
1BC0
102
{ACAD_REACTORS
330
1BA8
102
}
330
18
100
AcDbEntity
  8
ROGO
 62
     4
100
AcDbLine
 10
292.9071628019368
 20
278.4791100848158
 30
0.0
 11
292.8229428681436
 21
278.3088968334145
 31
0.0
  0
HATCH
  5
1BC1
330
18
100
AcDbEntity
  8
ROGO
 62
     4
100
AcDbHatch
 10
0.0
 20
0.0
 30
0.0
210
0.0
220
0.0
230
1.0
  2
SOLID
 70
     1
 71
     1
 91
        2
 92
        7
 72
     1
 73
     1
 93
        4
 10
297.8342519290718
 20
279.0415358678513
 42
0.0
 10
297.4499779292941
 20
279.0415358678513
 42
0.9597396185048687
 10
297.4499779292938
 20
278.0912184010508
 42
0.0
 10
297.8618675547988
 20
278.0912184010508
 42
0.9713627655753143
 97
        4
330
1BE1
330
1BC9
330
1BCE
330
1BCA
 92
       22
 72
     1
 73
     1
 93
        2
 10
297.7701660825643
 20
278.520385317301
 42
0.1034173650225468
 10
297.7758251187149
 20
278.5608726493848
 42
0.0
 97
        8
330
1BD9
330
1BDF
330
1BDB
330
1BDE
330
1BDA
330
1BDD
330
1BD8
330
1BDC
 75
     0
 76
     1
 47
0.0514683685270805
 98
        2
 10
297.9276681930285
 20
278.654772076361
 10
297.9276681930285
 20
278.654772076361
450
        0
451
        0
460
0.0
461
0.0
452
        0
462
0.0
453
        0
470

  0
HATCH
  5
1BC2
330
18
100
AcDbEntity
  8
ROGO
 62
     4
100
AcDbHatch
 10
0.0
 20
0.0
 30
0.0
210
0.0
220
0.0
230
1.0
  2
SOLID
 70
     1
 71
     1
 91
        1
 92
        5
 93
        8
 72
     1
 10
296.7919974452073
 20
278.6879561561529
 11
296.9683037090216
 21
279.0415358678513
 72
     1
 10
296.9683037090216
 20
279.0415358678513
 11
296.0166174356335
 21
279.0415358678513
 72
     4
 94
        3
 73
     0
 74
     0
 95
       26
 96
       22
 40
0.0
 40
0.0
 40
0.0
 40
0.0
 40
0.1723984759425082
 40
0.2878059064037186
 40
0.3710240621887309
 40
0.4331603664333474
 40
0.5137544142125066
 40
0.572580212192465
 40
0.6788058922657929
 40
0.7652720686804741
 40
0.8240829233522561
 40
0.8817499774613677
 40
0.9849051260984536
 40
1.057848128260939
 40
1.097133570529084
 40
1.152937380796444
 40
1.19323456430973
 40
1.251611879021469
 40
1.284648389624336
 40
1.356539542406011
 40
1.38936566727878
 40
1.38936566727878
 40
1.38936566727878
 40
1.38936566727878
 10
296.0166174356333
 20
279.0415358678513
 10
295.9581027291947
 20
279.038044780123
 10
295.8604169577142
 20
279.032216679483
 10
295.7531585748786
 20
278.96705836378
 10
295.6745748043637
 20
278.9291781824059
 10
295.6185289545351
 20
278.8776833030067
 10
295.5774471194176
 20
278.8244928542172
 10
295.5256557539523
 20
278.7611168244869
 10
295.4834213753553
 20
278.6873180024466
 10
295.4619139739288
 20
278.6059788349769
 10
295.4428629218726
 20
278.5411510465589
 10
295.4287343427355
 20
278.4689089365657
 10
295.4323290532429
 20
278.390862044328
 10
295.4374768432061
 20
278.318376086403
 10
295.4604604736152
 20
278.2666319650808
 10
295.4866347575486
 20
278.2297937163447
 10
295.5186848097702
 20
278.1892204694261
 10
295.5537545756715
 20
278.1623489393731
 10
295.5827601346651
 20
278.1136693569587
 10
295.6335333872
 20
278.1074574911633
 10
295.6658068864482
 20
278.0950940242364
 10
295.6759237834888
 20
278.0912184010508
 72
     1
 10
295.6759237834888
 20
278.0912184010508
 11
296.4944447276778
 21
278.0912184010508
 72
     1
 10
296.4944447276778
 20
278.0912184010508
 11
296.6707491244571
 21
278.4447943684366
 72
     1
 10
296.6707491244571
 20
278.4447943684366
 11
296.0630754990205
 21
278.4447943684366
 72
     4
 94
        3
 73
     0
 74
     0
 95
       16
 96
       12
 40
0.0
 40
0.0
 40
0.0
 40
0.0
 40
0.0520638816757735
 40
0.1046647644702809
 40
0.1360388269655169
 40
0.1661200957203374
 40
0.1991564750640073
 40
0.2222266184463259
 40
0.2441181822786546
 40
0.2885111307736739
 40
0.3794005943324437
 40
0.3794005943324437
 40
0.3794005943324437
 40
0.3794005943324437
 10
296.0630754990205
 20
278.4447943684366
 10
296.044745921002
 20
278.4501871990496
 10
296.0078977086828
 20
278.4610284834057
 10
296.0048138108676
 20
278.5135830471974
 10
296.0090151754782
 20
278.5510324744244
 10
296.0266104998506
 20
278.5782978443513
 10
296.0479566801828
 20
278.59813698838
 10
296.0559048098499
 20
278.6239743715063
 10
296.079267612856
 20
278.6434848283048
 10
296.1206961225208
 20
278.6762791807536
 10
296.1665088825099
 20
278.6832636450829
 10
296.1972881768494
 20
278.687956156153
 72
     1
 10
296.1972881768495
 20
278.687956156153
 11
296.7919974452073
 21
278.6879561561529
 97
        8
330
1BD7
330
1BC4
330
1BCB
330
1BC7
330
1BD6
330
1BD3
330
1BD5
330
1BD4
 75
     0
 76
     1
 47
0.0514683685270805
 98
        1
 10
296.3494573610077
 20
278.8299840585858
450
        0
451
        0
460
0.0
461
0.0
452
        0
462
0.0
453
        0
470

  0
SPLINE
  5
1BC3
102
{ACAD_REACTORS
330
1B9D
102
}
330
18
100
AcDbEntity
  8
ROGO
 62
     4
100
AcDbSpline
210
0.0
220
0.0
230
1.0
 70
     8
 71
     3
 72
    26
 73
    22
 74
    20
 42
0.0000000001
 43
0.0000000001
 44
0.0000000001
 40
0.0
 40
0.0
 40
0.0
 40
0.0
 40
0.1723984759424608
 40
0.2878059064036966
 40
0.3710240621887089
 40
0.4331603664333254
 40
0.5137544142125283
 40
0.572580212192407
 40
0.6788058922657624
 40
0.7652720686804436
 40
0.8240829233522806
 40
0.8817499774613361
 40
0.984905126098422
 40
1.057848128260907
 40
1.097133570529052
 40
1.152937380796412
 40
1.193234564309735
 40
1.251611879021434
 40
1.284648389624301
 40
1.356539542405996
 40
1.389365667278746
 40
1.389365667278746
 40
1.389365667278746
 40
1.389365667278746
 10
299.0786248447144
 20
279.0415358678513
 30
0.0
 10
299.0201101382758
 20
279.038044780123
 30
0.0
 10
298.9224243667952
 20
279.0322166794829
 30
0.0
 10
298.8151659839598
 20
278.9670583637801
 30
0.0
 10
298.7365822134447
 20
278.929178182406
 30
0.0
 10
298.6805363636161
 20
278.8776833030067
 30
0.0
 10
298.6394545284987
 20
278.8244928542172
 30
0.0
 10
298.5876631630334
 20
278.7611168244869
 30
0.0
 10
298.5454287844362
 20
278.6873180024465
 30
0.0
 10
298.5239213830098
 20
278.6059788349769
 30
0.0
 10
298.5048703309537
 20
278.5411510465588
 30
0.0
 10
298.4907417518166
 20
278.4689089365658
 30
0.0
 10
298.4943364623238
 20
278.390862044328
 30
0.0
 10
298.4994842522873
 20
278.318376086403
 30
0.0
 10
298.5224678826962
 20
278.2666319650808
 30
0.0
 10
298.5486421666298
 20
278.2297937163447
 30
0.0
 10
298.5806922188512
 20
278.1892204694261
 30
0.0
 10
298.6157619847525
 20
278.1623489393731
 30
0.0
 10
298.6447675437462
 20
278.1136693569588
 30
0.0
 10
298.6955407962811
 20
278.1074574911632
 30
0.0
 10
298.7278142955292
 20
278.0950940242363
 30
0.0
 10
298.7379311925698
 20
278.0912184010508
 30
0.0
 11
299.0786248447144
 21
279.0415358678513
 31
0.0
 11
298.9082780186421
 21
279.0150180746854
 31
0.0
 11
298.8050373830712
 21
278.9634405003669
 31
0.0
 11
298.7327690865847
 21
278.9221784745416
 31
0.0
 11
298.6863110231975
 21
278.8809162805683
 31
0.0
 11
298.6346908538252
 21
278.8190231577564
 31
0.0
 11
298.598556705582
 21
278.7726033576846
 31
0.0
 11
298.5469362393834
 21
278.6797635893927
 31
0.0
 11
298.5211263031104
 21
278.5972393695942
 31
0.0
 11
298.5056402819813
 21
278.5405040210289
 31
0.0
 11
298.495316070011
 21
278.4837686724638
 31
0.0
 11
298.495316070011
 21
278.3806135238267
 31
0.0
 11
298.5056402819813
 21
278.3084048525215
 31
0.0
 11
298.5211263031104
 21
278.2723004327948
 31
0.0
 11
298.5520983453684
 21
278.2258806327229
 31
0.0
 11
298.5779085784678
 21
278.194933987243
 31
0.0
 11
298.6192045358698
 21
278.1536719614177
 31
0.0
 11
298.6398526629841
 21
278.1278830901844
 31
0.0
 11
298.7069591503117
 21
278.1020943870991
 31
0.0
 11
298.7379311925698
 21
278.0912184010508
 31
0.0
  0
SPLINE
  5
1BC4
102
{ACAD_REACTORS
330
1BC2
102
}
330
18
100
AcDbEntity
  8
ROGO
 62
     4
100
AcDbSpline
210
0.0
220
0.0
230
1.0
 70
     8
 71
     3
 72
    26
 73
    22
 74
    20
 42
0.0000000001
 43
0.0000000001
 44
0.0000000001
 40
0.0
 40
0.0
 40
0.0
 40
0.0
 40
0.1723984759425082
 40
0.2878059064037186
 40
0.3710240621887309
 40
0.4331603664333474
 40
0.5137544142125066
 40
0.572580212192465
 40
0.6788058922657929
 40
0.7652720686804741
 40
0.8240829233522561
 40
0.8817499774613677
 40
0.9849051260984536
 40
1.057848128260939
 40
1.097133570529084
 40
1.152937380796444
 40
1.19323456430973
 40
1.251611879021469
 40
1.284648389624336
 40
1.356539542406011
 40
1.38936566727878
 40
1.38936566727878
 40
1.38936566727878
 40
1.38936566727878
 10
296.0166174356333
 20
279.0415358678513
 30
0.0
 10
295.9581027291947
 20
279.038044780123
 30
0.0
 10
295.8604169577142
 20
279.032216679483
 30
0.0
 10
295.7531585748786
 20
278.96705836378
 30
0.0
 10
295.6745748043637
 20
278.9291781824059
 30
0.0
 10
295.6185289545351
 20
278.8776833030067
 30
0.0
 10
295.5774471194176
 20
278.8244928542172
 30
0.0
 10
295.5256557539523
 20
278.7611168244869
 30
0.0
 10
295.4834213753553
 20
278.6873180024466
 30
0.0
 10
295.4619139739288
 20
278.6059788349769
 30
0.0
 10
295.4428629218726
 20
278.5411510465589
 30
0.0
 10
295.4287343427355
 20
278.4689089365657
 30
0.0
 10
295.4323290532429
 20
278.390862044328
 30
0.0
 10
295.4374768432061
 20
278.318376086403
 30
0.0
 10
295.4604604736152
 20
278.2666319650808
 30
0.0
 10
295.4866347575486
 20
278.2297937163447
 30
0.0
 10
295.5186848097702
 20
278.1892204694261
 30
0.0
 10
295.5537545756715
 20
278.1623489393731
 30
0.0
 10
295.5827601346651
 20
278.1136693569587
 30
0.0
 10
295.6335333872
 20
278.1074574911633
 30
0.0
 10
295.6658068864482
 20
278.0950940242364
 30
0.0
 10
295.6759237834888
 20
278.0912184010508
 30
0.0
 11
296.0166174356333
 21
279.0415358678513
 31
0.0
 11
295.846270609561
 21
279.0150180746854
 31
0.0
 11
295.7430299739901
 21
278.9634405003669
 31
0.0
 11
295.6707616775037
 21
278.9221784745416
 31
0.0
 11
295.6243036141164
 21
278.8809162805683
 31
0.0
 11
295.5726834447442
 21
278.8190231577565
 31
0.0
 11
295.5365492965009
 21
278.7726033576846
 31
0.0
 11
295.4849288303023
 21
278.6797635893927
 31
0.0
 11
295.4591188940293
 21
278.5972393695942
 31
0.0
 11
295.4436328729002
 21
278.540504021029
 31
0.0
 11
295.43330866093
 21
278.4837686724638
 31
0.0
 11
295.43330866093
 21
278.3806135238267
 31
0.0
 11
295.4436328729002
 21
278.3084048525215
 31
0.0
 11
295.4591188940293
 21
278.2723004327948
 31
0.0
 11
295.4900909362874
 21
278.2258806327229
 31
0.0
 11
295.5159011693867
 21
278.194933987243
 31
0.0
 11
295.5571971267888
 21
278.1536719614177
 31
0.0
 11
295.577845253903
 21
278.1278830901844
 31
0.0
 11
295.6449517412307
 21
278.1020943870992
 31
0.0
 11
295.6759237834888
 21
278.0912184010508
 31
0.0
  0
LINE
  5
1BC5
102
{ACAD_REACTORS
330
1BA3
102
}
330
18
100
AcDbEntity
  8
ROGO
 62
     4
100
AcDbLine
 10
294.7825737920918
 20
279.0415358678513
 30
0.0
 11
295.4678661866061
 21
278.0912184010508
 31
0.0
  0
LINE
  5
1BC6
102
{ACAD_REACTORS
330
1BA3
102
}
330
18
100
AcDbEntity
  8
ROGO
 62
     4
100
AcDbLine
 10
294.811084975465
 20
278.2721529669275
 30
0.0
 11
294.941560407341
 21
278.0912184010508
 31
0.0
  0
LINE
  5
1BC7
102
{ACAD_REACTORS
330
1BC2
102
}
330
18
100
AcDbEntity
  8
ROGO
 62
     4
100
AcDbLine
 10
296.6707491244571
 20
278.4447943684366
 30
0.0
 11
296.4944447276778
 21
278.0912184010508
 31
0.0
  0
LINE
  5
1BC8
102
{ACAD_REACTORS
330
1B9D
102
}
330
18
100
AcDbEntity
  8
ROGO
 62
     4
100
AcDbLine
 10
299.7327565335382
 20
278.4447943684366
 30
0.0
 11
299.5564521367589
 21
278.0912184010507
 31
0.0
  0
ARC
  5
1BC9
102
{ACAD_REACTORS
330
1BC1
102
}
330
18
100
AcDbEntity
  8
ROGO
 62
     4
100
AcDbCircle
 10
297.4695092474974
 20
278.566377134451
 30
0.0
 40
0.4755599797263065
100
AcDbArc
 50
92.3538081120337
 51
270.0
  0
ARC
  5
1BCA
102
{ACAD_REACTORS
330
1BC1
102
}
330
18
100
AcDbEntity
  8
ROGO
 62
     4
100
AcDbCircle
 10
297.8342519290718
 20
278.565975888125
 30
0.0
 40
0.4755599797263065
100
AcDbArc
 50
273.3290215232082
 51
90.0000000000006
  0
LINE
  5
1BCB
102
{ACAD_REACTORS
330
1BC2
102
}
330
18
100
AcDbEntity
  8
ROGO
 62
     4
100
AcDbLine
 10
295.6759237834887
 20
278.0912184010508
 30
0.0
 11
296.4944447276779
 21
278.0912184010508
 31
0.0
  0
LINE
  5
1BCC
102
{ACAD_REACTORS
330
1BA3
102
}
330
18
100
AcDbEntity
  8
ROGO
 62
     4
100
AcDbLine
 10
295.4678661866061
 20
278.0912184010508
 30
0.0
 11
294.941560407341
 21
278.0912184010508
 31
0.0
  0
LINE
  5
1BCD
330
18
100
AcDbEntity
  8
ROGO
 62
     4
100
AcDbLine
 10
297.4499779292944
 20
278.0912184010508
 30
0.0
 11
297.8618675547984
 21
278.0912184010508
 31
0.0
  0
LINE
  5
1BCE
102
{ACAD_REACTORS
330
1BC1
102
}
330
18
100
AcDbEntity
  8
ROGO
 62
     4
100
AcDbLine
 10
297.4499779292941
 20
278.0912184010508
 30
0.0
 11
297.8618675547988
 21
278.0912184010508
 31
0.0
  0
LINE
  5
1BCF
102
{ACAD_REACTORS
330
1B9D
102
}
330
18
100
AcDbEntity
  8
ROGO
 62
     4
100
AcDbLine
 10
298.7379311925698
 20
278.0912184010508
 30
0.0
 11
299.5564521367589
 21
278.0912184010508
 31
0.0
  0
LINE
  5
1BD0
102
{ACAD_REACTORS
330
1BA3
102
}
330
18
100
AcDbEntity
  8
ROGO
 62
     4
100
AcDbLine
 10
294.5079506284221
 20
278.6925193201629
 30
0.0
 11
294.342432653844
 21
278.4629901096098
 31
0.0
  0
LINE
  5
1BD1
102
{ACAD_REACTORS
330
1BA3
102
}
330
18
100
AcDbEntity
  8
ROGO
 62
     4
100
AcDbLine
 10
294.342432653844
 20
278.4629901096098
 30
0.0
 11
294.6734686030002
 21
278.4629901096098
 31
0.0
  0
LINE
  5
1BD2
102
{ACAD_REACTORS
330
1BA3
102
}
330
18
100
AcDbEntity
  8
ROGO
 62
     4
100
AcDbLine
 10
294.5079506284221
 20
278.6925193201629
 30
0.0
 11
294.6734686030002
 21
278.4629901096098
 31
0.0
  0
SPLINE
  5
1BD3
102
{ACAD_REACTORS
330
1BC2
102
}
330
18
100
AcDbEntity
  8
ROGO
 62
     4
100
AcDbSpline
210
0.0
220
0.0
230
1.0
 70
     8
 71
     3
 72
    16
 73
    12
 74
    10
 42
0.0000000001
 43
0.0000000001
 44
0.0000000001
 40
0.0
 40
0.0
 40
0.0
 40
0.0
 40
0.0908894635587698
 40
0.1352824120537892
 40
0.1571739758861179
 40
0.1802441192684364
 40
0.2132804986121064
 40
0.2433617673669269
 40
0.2747358298621628
 40
0.3273367126566702
 40
0.3794005943324437
 40
0.3794005943324437
 40
0.3794005943324437
 40
0.3794005943324437
 10
296.1972881768494
 20
278.687956156153
 30
0.0
 10
296.1665088825099
 20
278.6832636450829
 30
0.0
 10
296.1206961225208
 20
278.6762791807536
 30
0.0
 10
296.079267612856
 20
278.6434848283048
 30
0.0
 10
296.0559048098499
 20
278.6239743715063
 30
0.0
 10
296.0479566801828
 20
278.59813698838
 30
0.0
 10
296.0266104998506
 20
278.5782978443513
 30
0.0
 10
296.0090151754782
 20
278.5510324744244
 30
0.0
 10
296.0048138108676
 20
278.5135830471974
 30
0.0
 10
296.0078977086828
 20
278.4610284834057
 30
0.0
 10
296.044745921002
 20
278.4501871990496
 30
0.0
 10
296.0630754990205
 20
278.4447943684366
 30
0.0
 11
296.1972881768494
 21
278.687956156153
 31
0.0
 11
296.1095338592339
 21
278.6642902666528
 31
0.0
 11
296.0733997109907
 21
278.6385015635675
 31
0.0
 11
296.0579136898616
 21
278.6230282408275
 31
0.0
 11
296.0475894778914
 21
278.6023971438408
 31
0.0
 11
296.0269413507772
 21
278.5766084407557
 31
0.0
 11
296.0114553296481
 21
278.5508195695223
 31
0.0
 11
296.006293223663
 21
278.5198730921905
 31
0.0
 11
296.0166174356333
 21
278.4682953497238
 31
0.0
 11
296.0630754990205
 21
278.4447943684366
 31
0.0
  0
LINE
  5
1BD4
102
{ACAD_REACTORS
330
1BC2
102
}
330
18
100
AcDbEntity
  8
ROGO
 62
     4
100
AcDbLine
 10
296.9683037090216
 20
279.0415358678513
 30
0.0
 11
296.7919974452072
 21
278.687956156153
 31
0.0
  0
LINE
  5
1BD5
102
{ACAD_REACTORS
330
1BC2
102
}
330
18
100
AcDbEntity
  8
ROGO
 62
     4
100
AcDbLine
 10
296.1972881768494
 20
278.687956156153
 30
0.0
 11
296.7919974452072
 21
278.687956156153
 31
0.0
  0
LINE
  5
1BD6
102
{ACAD_REACTORS
330
1BC2
102
}
330
18
100
AcDbEntity
  8
ROGO
 62
     4
100
AcDbLine
 10
296.0630754990205
 20
278.4447943684366
 30
0.0
 11
296.6707491244571
 21
278.4447943684366
 31
0.0
  0
LINE
  5
1BD7
102
{ACAD_REACTORS
330
1BC2
102
}
330
18
100
AcDbEntity
  8
ROGO
 62
     4
100
AcDbLine
 10
296.0166174356336
 20
279.0415358678513
 30
0.0
 11
296.9683037090216
 21
279.0415358678513
 31
0.0
  0
LINE
  5
1BD8
102
{ACAD_REACTORS
330
1BC1
102
}
330
18
100
AcDbEntity
  8
ROGO
 62
     4
100
AcDbLine
 10
297.658714562152
 20
278.6574037021
 30
0.0
 11
297.6931534503802
 21
278.6525900751347
 31
0.0
  0
LINE
  5
1BD9
102
{ACAD_REACTORS
330
1BC1
102
}
330
18
100
AcDbEntity
  8
ROGO
 62
     4
100
AcDbLine
 10
297.7758251187148
 20
278.5608726493846
 30
0.0
 11
297.7631783902662
 21
278.4703921716411
 31
0.0
  0
LINE
  5
1BDA
102
{ACAD_REACTORS
330
1BC1
102
}
330
18
100
AcDbEntity
  8
ROGO
 62
     4
100
AcDbLine
 10
297.5368278717237
 20
278.5038358493476
 30
0.0
 11
297.5494746001725
 21
278.5943163270911
 31
0.0
  0
LINE
  5
1BDB
102
{ACAD_REACTORS
330
1BC1
102
}
330
18
100
AcDbEntity
  8
ROGO
 62
     4
100
AcDbLine
 10
297.6258716878403
 20
278.4224307626354
 30
0.0
 11
297.6603105760684
 21
278.4176171356701
 31
0.0
  0
ARC
  5
1BDC
102
{ACAD_REACTORS
330
1BC1
102
}
330
18
100
AcDbEntity
  8
ROGO
 62
     4
100
AcDbCircle
 10
297.6761687429613
 20
278.5541627643986
 30
0.0
 40
0.0998820093152177
100
AcDbArc
 50
3.851923331663601
 51
80.20940670206341
  0
ARC
  5
1BDD
102
{ACAD_REACTORS
330
1BC1
102
}
330
18
100
AcDbEntity
  8
ROGO
 62
     4
100
AcDbCircle
 10
297.6453113803355
 20
278.5544904010401
 30
0.0
 40
0.1037824301982561
100
AcDbArc
 50
82.57970078354313
 51
157.4341870372611
  0
ARC
  5
1BDE
102
{ACAD_REACTORS
330
1BC1
102
}
330
18
100
AcDbEntity
  8
ROGO
 62
     4
100
AcDbCircle
 10
297.6315994913086
 20
278.5180982504905
 30
0.0
 40
0.0958388019806556
100
AcDbArc
 50
188.5583509056651
 51
266.5736774635929
  0
ARC
  5
1BDF
102
{ACAD_REACTORS
330
1BC1
102
}
330
18
100
AcDbEntity
  8
ROGO
 62
     4
100
AcDbCircle
 10
297.6809241594087
 20
278.5040788777578
 30
0.0
 40
0.0888850530907803
100
AcDbArc
 50
256.5902863289752
 51
337.7287536965499
  0
LINE
  5
1BE0
330
18
100
AcDbEntity
  8
ROGO
 62
     4
100
AcDbLine
 10
297.4499779292941
 20
279.0415358678513
 30
0.0
 11
297.7192913384406
 21
279.0415358678513
 31
0.0
  0
LINE
  5
1BE1
102
{ACAD_REACTORS
330
1BC1
102
}
330
18
100
AcDbEntity
  8
ROGO
 62
     4
100
AcDbLine
 10
297.4499779292941
 20
279.0415358678513
 30
0.0
 11
297.8342519290718
 21
279.0415358678513
 31
0.0
  0
SPLINE
  5
1BE2
102
{ACAD_REACTORS
330
1B9D
102
}
330
18
100
AcDbEntity
  8
ROGO
 62
     4
100
AcDbSpline
210
0.0
220
0.0
230
1.0
 70
     8
 71
     3
 72
    16
 73
    12
 74
    10
 42
0.0000000001
 43
0.0000000001
 44
0.0000000001
 40
0.0
 40
0.0
 40
0.0
 40
0.0
 40
0.0908894635588099
 40
0.1352824120538293
 40
0.1571739758861982
 40
0.1802441192684659
 40
0.2132804986121358
 40
0.2433617673669563
 40
0.2747358298622484
 40
0.3273367126567001
 40
0.3794005943324992
 40
0.3794005943324992
 40
0.3794005943324992
 40
0.3794005943324992
 10
299.2592955859306
 20
278.6879561561529
 30
0.0
 10
299.2285162915911
 20
278.6832636450829
 30
0.0
 10
299.182703531602
 20
278.6762791807537
 30
0.0
 10
299.1412750219368
 20
278.6434848283048
 30
0.0
 10
299.117912218931
 20
278.6239743715062
 30
0.0
 10
299.1099640892638
 20
278.59813698838
 30
0.0
 10
299.0886179089317
 20
278.5782978443513
 30
0.0
 10
299.0710225845591
 20
278.5510324744242
 30
0.0
 10
299.0668212199488
 20
278.5135830471975
 30
0.0
 10
299.0699051177638
 20
278.4610284834057
 30
0.0
 10
299.106753330083
 20
278.4501871990495
 30
0.0
 10
299.1250829081015
 20
278.4447943684366
 30
0.0
 11
299.2592955859306
 21
278.6879561561529
 31
0.0
 11
299.1715412683149
 21
278.6642902666528
 31
0.0
 11
299.1354071200717
 21
278.6385015635675
 31
0.0
 11
299.1199210989427
 21
278.6230282408275
 31
0.0
 11
299.1095968869725
 21
278.6023971438408
 31
0.0
 11
299.0889487598583
 21
278.5766084407557
 31
0.0
 11
299.0734627387292
 21
278.5508195695223
 31
0.0
 11
299.068300632744
 21
278.5198730921904
 31
0.0
 11
299.0786248447144
 21
278.4682953497238
 31
0.0
 11
299.1250829081015
 21
278.4447943684366
 31
0.0
  0
LINE
  5
1BE3
102
{ACAD_REACTORS
330
1B9D
102
}
330
18
100
AcDbEntity
  8
ROGO
 62
     4
100
AcDbLine
 10
299.1250829081015
 20
278.4447943684366
 30
0.0
 11
299.7327565335382
 21
278.4447943684366
 31
0.0
  0
LINE
  5
1BE4
102
{ACAD_REACTORS
330
1B9D
102
}
330
18
100
AcDbEntity
  8
ROGO
 62
     4
100
AcDbLine
 10
299.2592955859305
 20
278.687956156153
 30
0.0
 11
299.8540048542882
 21
278.687956156153
 31
0.0
  0
LINE
  5
1BE5
102
{ACAD_REACTORS
330
1B9C
102
}
330
18
100
AcDbEntity
  8
ROGO
 62
     4
100
AcDbLine
 10
300.5995536609871
 20
278.2990678417874
 30
0.0
 11
300.9697721982675
 21
277.5565998157236
 31
0.0
  0
LINE
  5
1BE6
102
{ACAD_REACTORS
330
1B9C
102
}
330
18
100
AcDbEntity
  8
ROGO
 62
     4
100
AcDbLine
 10
300.2293470954474
 20
277.9441849145352
 30
0.0
 11
300.4226095435483
 21
277.5565998157236
 31
0.0
  0
LINE
  5
1BE7
102
{ACAD_REACTORS
330
1B9C
102
}
330
18
100
AcDbEntity
  8
ROGO
 62
     4
100
AcDbLine
 10
300.2293470954474
 20
277.9441849145352
 30
0.0
 11
300.0360846473466
 21
277.5565998157236
 31
0.0
  0
LINE
  5
1BE8
102
{ACAD_REACTORS
330
1B9C
102
}
330
18
100
AcDbEntity
  8
ROGO
 62
     4
100
AcDbLine
 10
300.4226095435483
 20
277.5565998157236
 30
0.0
 11
300.9697721982675
 21
277.5565998157236
 31
0.0
  0
LINE
  5
1BE9
102
{ACAD_REACTORS
330
1B9C
102
}
330
18
100
AcDbEntity
  8
ROGO
 62
     4
100
AcDbLine
 10
300.5995536609871
 20
278.2990678417874
 30
0.0
 11
301.4990414957579
 21
279.0415358678513
 31
0.0
  0
LINE
  5
1BEA
102
{ACAD_REACTORS
330
1B9C
102
}
330
18
100
AcDbEntity
  8
ROGO
 62
     4
100
AcDbLine
 10
300.9518788410387
 20
279.0415358678513
 30
0.0
 11
301.4990414957579
 21
279.0415358678513
 31
0.0
  0
LINE
  5
1BEB
102
{ACAD_REACTORS
330
1B9C
102
}
330
18
100
AcDbEntity
  8
ROGO
 62
     4
100
AcDbLine
 10
300.2293470954474
 20
279.0415358678513
 30
0.0
 11
300.7765217219074
 21
279.0415358678513
 31
0.0
  0
LINE
  5
1BEC
102
{ACAD_REACTORS
330
1B9C
102
}
330
18
100
AcDbEntity
  8
ROGO
 62
     4
100
AcDbLine
 10
300.7765217219074
 20
279.0415358678513
 30
0.0
 11
300.6956810608112
 21
278.8794110685079
 31
0.0
  0
LINE
  5
1BED
102
{ACAD_REACTORS
330
1B9C
102
}
330
18
100
AcDbEntity
  8
ROGO
 62
     4
100
AcDbLine
 10
300.6956810608112
 20
278.8794110685079
 30
0.0
 11
300.9518788410387
 21
279.0415358678513
 31
0.0
  0
LINE
  5
1BF7
330
18
100
AcDbEntity
  8
ROGO
 62
     4
100
AcDbLine
 10
294.2333274647525
 20
278.9619652328986
 30
0.0
 11
294.7825737920918
 21
278.9619652328986
 31
0.0
  0
LINE
  5
1BF8
330
18
100
AcDbEntity
  8
ROGO
 62
     4
100
AcDbLine
 10
290.7318254279527
 20
277.6258718445857
 30
0.0
 11
299.5631277802352
 21
277.6258718445857
 31
0.0
  0
LINE
  5
1C05
330
18
100
AcDbEntity
  8
ROGO
 62
     4
100
AcDbLine
 10
290.7192779870808
 20
278.9619652328986
 30
0.0
 11
291.8862362384945
 21
278.9619652328986
 31
0.0
  0
LINE
  5
1C07
330
18
100
AcDbEntity
  8
ROGO
 62
     4
100
AcDbLine
 10
291.4225621666802
 20
278.3417444771441
 30
0.0
 11
291.066028910137
 21
278.3417444771442
 31
0.0
  0
LINE
  5
1C23
330
18
100
AcDbEntity
  8
ROGO
 62
     4
100
AcDbLine
 10
294.342432653844
 20
278.3834194746571
 30
0.0
 11
294.6734686030002
 21
278.3834194746571
 31
0.0
  0
LINE
  5
1C2B
330
18
100
AcDbEntity
  8
ROGO
 62
     4
100
AcDbLine
 10
297.7758251187148
 20
278.4813020144319
 30
0.0
 11
297.7631783902662
 21
278.3908215366884
 31
0.0
  0
LINE
  5
1C2D
330
18
100
AcDbEntity
  8
ROGO
 62
     4
100
AcDbLine
 10
297.6258716878403
 20
278.3428601276828
 30
0.0
 11
297.6603105760684
 21
278.3380465007174
 31
0.0
  0
ARC
  5
1C30
330
18
100
AcDbEntity
  8
ROGO
 62
     4
100
AcDbCircle
 10
297.6315994913086
 20
278.4385276155378
 30
0.0
 40
0.0958388019806556
100
AcDbArc
 50
188.5583509056651
 51
266.5736774635929
  0
ARC
  5
1C31
330
18
100
AcDbEntity
  8
ROGO
 62
     4
100
AcDbCircle
 10
297.6809241594087
 20
278.4245082428051
 30
0.0
 40
0.0888850530907803
100
AcDbArc
 50
256.5902863289752
 51
337.7287536965499
  0
LINE
  5
1C32
330
18
100
AcDbEntity
  8
ROGO
 62
     4
100
AcDbLine
 10
297.4499779292941
 20
278.9619652328986
 30
0.0
 11
297.7192913384406
 21
278.9619652328986
 31
0.0
  0
LINE
  5
1C33
330
18
100
AcDbEntity
  8
ROGO
 62
     4
100
AcDbLine
 10
297.4499779292941
 20
278.9619652328986
 30
0.0
 11
297.8342519290718
 21
278.9619652328986
 31
0.0
  0
LINE
  5
1C3F
330
18
100
AcDbEntity
  8
ROGO
 62
     4
100
AcDbLine
 10
300.6956810608112
 20
278.7998404335553
 30
0.0
 11
300.9518788410387
 21
278.9619652328986
 31
0.0
  0
LINE
  5
1C40
330
18
100
AcDbEntity
  8
0
  6
ByBlock
 62
     2
100
AcDbLine
 10
316.5416473114241
 20
282.5427115117917
 30
0.0
 11
326.6040615876776
 21
282.5427115117917
 31
0.0
  0
LINE
  5
1C41
330
18
100
AcDbEntity
  8
0
  6
ByBlock
 62
     2
100
AcDbLine
 10
320.309674927693
 20
223.0427115117917
 30
0.0
 11
326.6040615876776
 21
223.0427115117917
 31
0.0
  0
LINE
  5
1C42
330
18
100
AcDbEntity
  8
0
  6
ByBlock
 62
     2
100
AcDbLine
 10
325.3540615876776
 20
280.0427115117917
 30
0.0
 11
325.3540615876776
 21
225.5427115117917
 31
0.0
  0
INSERT
  5
1C43
330
18
100
AcDbEntity
  8
0
  6
ByBlock
 62
     2
100
AcDbBlockReference
  2
_OPEN
 10
325.3540615876776
 20
282.5427115117917
 30
0.0
 41
2.5
 42
2.5
 43
2.5
 50
90.0
  0
INSERT
  5
1C44
330
18
100
AcDbEntity
  8
0
  6
ByBlock
 62
     2
100
AcDbBlockReference
  2
_OPEN
 10
325.3540615876776
 20
223.0427115117917
 30
0.0
 41
2.5
 42
2.5
 43
2.5
 50
270.0
  0
MTEXT
  5
1C45
330
18
100
AcDbEntity
  8
0
  6
ByBlock
 62
     6
100
AcDbMText
 10
323.4790615876776
 20
252.7927115117917
 30
0.0
 40
2.5
 41
0.0
 71
     5
 72
     1
  1
\A1;59.5
  7
STYLE3
 11
0.0000000000000001
 21
1.0
 31
0.0
 73
     1
 44
1.0
  0
POINT
  5
1C46
330
18
100
AcDbEntity
  8
DEFPOINTS
  6
ByBlock
 62
     0
100
AcDbPoint
 10
316.5416473114241
 20
282.5427115117917
 30
0.0
  0
POINT
  5
1C47
330
18
100
AcDbEntity
  8
DEFPOINTS
  6
ByBlock
 62
     0
100
AcDbPoint
 10
320.309674927693
 20
223.0427115117917
 30
0.0
  0
POINT
  5
1C48
330
18
100
AcDbEntity
  8
DEFPOINTS
  6
ByBlock
 62
     0
100
AcDbPoint
 10
325.3540615876776
 20
223.0427115117917
 30
0.0
  0
LINE
  5
1C49
330
18
100
AcDbEntity
  8
文字
 62
     2
100
AcDbLine
 10
369.5659474736365
 20
255.6798995292721
 30
0.0
 11
362.809903145272
 21
243.7529467172887
 31
0.0
1001
ACAD
1000
DSTYLE
1002
{
1070
   271
1070
     2
1002
}
  0
LINE
  5
1C4A
330
18
100
AcDbEntity
  8
文字
 62
     2
100
AcDbLine
 10
362.809903145272
 20
243.7529467172887
 30
0.0
 11
357.8991888595577
 21
243.7529467172887
 31
0.0
1001
ACAD
1000
DSTYLE
1002
{
1070
   271
1070
     2
1002
}
  0
TEXT
  5
1C4B
330
18
100
AcDbEntity
  8
文字
 62
     6
100
AcDbText
 10
358.9685855228095
 20
244.4534495577311
 30
0.0
 40
2.5
  1
C
  7
STYLE3
100
AcDbText
  0
LINE
  5
1C4C
330
18
100
AcDbEntity
  8
0
  6
ByBlock
 62
     2
100
AcDbLine
 10
295.5891924217104
 20
315.5427115117917
 30
0.0
 11
320.309674927693
 21
315.5427115117917
 31
0.0
  0
LINE
  5
1C4D
330
18
100
AcDbEntity
  8
0
  6
ByBlock
 62
     2
100
AcDbLine
 10
295.5891924217104
 20
300.0427115117917
 30
0.0
 11
320.309674927693
 21
300.0427115117917
 31
0.0
  0
LINE
  5
1C4E
330
18
100
AcDbEntity
  8
0
  6
ByBlock
 62
     2
100
AcDbLine
 10
319.059674927693
 20
313.0427115117917
 30
0.0
 11
319.059674927693
 21
302.5427115117917
 31
0.0
  0
INSERT
  5
1C4F
330
18
100
AcDbEntity
  8
0
  6
ByBlock
 62
     2
100
AcDbBlockReference
  2
_OPEN
 10
319.059674927693
 20
315.5427115117917
 30
0.0
 41
2.5
 42
2.5
 43
2.5
 50
90.0
  0
INSERT
  5
1C50
330
18
100
AcDbEntity
  8
0
  6
ByBlock
 62
     2
100
AcDbBlockReference
  2
_OPEN
 10
319.059674927693
 20
300.0427115117917
 30
0.0
 41
2.5
 42
2.5
 43
2.5
 50
270.0
  0
MTEXT
  5
1C51
330
18
100
AcDbEntity
  8
0
  6
ByBlock
 62
     6
100
AcDbMText
 10
317.184674927693
 20
307.7927115117917
 30
0.0
 40
2.5
 41
0.0
 71
     5
 72
     1
  1
\A1;15.5
  7
STYLE3
 11
0.0000000000000001
 21
1.0
 31
0.0
 73
     1
 44
1.0
  0
POINT
  5
1C52
330
18
100
AcDbEntity
  8
DEFPOINTS
  6
ByBlock
 62
     0
100
AcDbPoint
 10
295.5891924217104
 20
315.5427115117917
 30
0.0
  0
POINT
  5
1C53
330
18
100
AcDbEntity
  8
DEFPOINTS
  6
ByBlock
 62
     0
100
AcDbPoint
 10
295.5891924217104
 20
300.0427115117917
 30
0.0
  0
POINT
  5
1C54
330
18
100
AcDbEntity
  8
DEFPOINTS
  6
ByBlock
 62
     0
100
AcDbPoint
 10
319.059674927693
 20
300.0427115117917
 30
0.0
  0
LINE
  5
1C55
330
18
100
AcDbEntity
  8
0
  6
ByBlock
 62
     2
100
AcDbLine
 10
369.2090890632995
 20
299.3427115117917
 30
0.0
 11
369.2090890632995
 21
326.245800050055
 31
0.0
  0
LINE
  5
1C56
330
18
100
AcDbEntity
  8
0
  6
ByBlock
 62
     2
100
AcDbLine
 10
385.0590890632995
 20
297.6927115117918
 30
0.0
 11
385.0590890632995
 21
326.245800050055
 31
0.0
  0
LINE
  5
1C57
330
18
100
AcDbEntity
  8
0
  6
ByBlock
 62
     2
100
AcDbLine
 10
371.7090890632995
 20
324.995800050055
 30
0.0
 11
382.5590890632995
 21
324.995800050055
 31
0.0
  0
INSERT
  5
1C58
330
18
100
AcDbEntity
  8
0
  6
ByBlock
 62
     2
100
AcDbBlockReference
  2
_OPEN
 10
369.2090890632995
 20
324.995800050055
 30
0.0
 41
2.5
 42
2.5
 43
2.5
 50
180.0
  0
INSERT
  5
1C59
330
18
100
AcDbEntity
  8
0
  6
ByBlock
 62
     2
100
AcDbBlockReference
  2
_OPEN
 10
385.0590890632995
 20
324.995800050055
 30
0.0
 41
2.5
 42
2.5
 43
2.5
  0
MTEXT
  5
1C5A
330
18
100
AcDbEntity
  8
0
  6
ByBlock
 62
     6
100
AcDbMText
 10
377.1340890632995
 20
326.870800050055
 30
0.0
 40
2.5
 41
0.0
 71
     5
 72
     1
  1
\A1;15.85
  7
STYLE3
 73
     1
 44
1.0
  0
POINT
  5
1C5B
330
18
100
AcDbEntity
  8
DEFPOINTS
  6
ByBlock
 62
     0
100
AcDbPoint
 10
369.2090890632995
 20
299.3427115117917
 30
0.0
  0
POINT
  5
1C5C
330
18
100
AcDbEntity
  8
DEFPOINTS
  6
ByBlock
 62
     0
100
AcDbPoint
 10
385.0590890632995
 20
297.6927115117918
 30
0.0
  0
POINT
  5
1C5D
330
18
100
AcDbEntity
  8
DEFPOINTS
  6
ByBlock
 62
     0
100
AcDbPoint
 10
385.0590890632995
 20
324.995800050055
 30
0.0
  0
LINE
  5
1C5E
330
18
100
AcDbEntity
  8
寸法線
 62
     2
100
AcDbLine
 10
371.9786133637214
 20
298.596107008646
 30
0.0
 11
366.7207177635912
 21
314.572522236185
 31
0.0
1001
ACAD
1000
DSTYLE
1002
{
1070
   271
1070
     2
1002
}
  0
LINE
  5
1C5F
330
18
100
AcDbEntity
  8
寸法線
 62
     2
100
AcDbLine
 10
366.7207177635912
 20
314.572522236185
 30
0.0
 11
361.9290510969245
 21
314.572522236185
 31
0.0
1001
ACAD
1000
DSTYLE
1002
{
1070
   271
1070
     2
1002
}
  0
TEXT
  5
1C60
330
18
100
AcDbEntity
  8
文字
 62
     6
100
AcDbText
 10
362.8511703851166
 20
315.197522236185
 30
0.0
 40
2.5
  1
B
  7
STYLE3
100
AcDbText
  0
INSERT
  5
1C6C
330
18
100
AcDbEntity
  8
文字
100
AcDbBlockReference
  2
AVE_RENDER
 10
401.8587549159702
 20
218.1081395175064
 30
0.0
  0
INSERT
  5
1FDE
330
18
100
AcDbEntity
  8
文字
100
AcDbBlockReference
  2
ROGO1
 10
300.7756054085867
 20
204.1511762370092
 30
0.0
  0
POINT
  5
22BB
330
18
100
AcDbEntity
  8
DEFPOINTS
  6
ByBlock
 62
     0
100
AcDbPoint
 10
295.5891924217104
 20
282.5427115117917
 30
0.0
  0
POINT
  5
22BC
330
18
100
AcDbEntity
  8
DEFPOINTS
  6
ByBlock
 62
     0
100
AcDbPoint
 10
295.5891924217104
 20
282.5427115117917
 30
0.0
  0
POINT
  5
22BD
330
18
100
AcDbEntity
  8
DEFPOINTS
  6
ByBlock
 62
     0
100
AcDbPoint
 10
295.5891924217104
 20
282.5427115117917
 30
0.0
  0
POINT
  5
22BE
330
18
100
AcDbEntity
  8
DEFPOINTS
  6
ByBlock
 62
     0
100
AcDbPoint
 10
295.5891924217104
 20
282.5427115117917
 30
0.0
  0
HATCH
  5
2322
330
18
100
AcDbEntity
  8
針
100
AcDbHatch
 10
0.0
 20
0.0
 30
0.0
210
0.0
220
0.0
230
1.0
  2
SOLID
 70
     1
 71
     0
 91
        1
 92
        7
 72
     1
 73
     1
 93
        6
 10
294.18551082518
 20
284.0245607570254
 42
-0.1640812035095831
 10
294.3664754508471
 20
283.4115977006352
 42
-0.1637712156695709
 10
295.1406728731994
 20
283.9740850530462
 42
-0.1640812035096
 10
294.613631508883
 20
284.3356086408544
 42
0.0
 10
287.2992730287635
 20
294.0718977995765
 42
0.0
 10
287.186010649551
 20
293.9896078642555
 42
0.0
 97
        0
 75
     0
 76
     1
 47
0.025221982651283
 98
        1
 10
292.8528311570671
 20
286.2503371886967
450
        0
451
        0
460
0.0
461
0.0
452
        1
462
1.0
453
        2
463
0.0
 63
     5
421
      255
463
1.0
 63
    51
421
 16777113
470
LINEAR
  0
LINE
  5
2323
330
18
100
AcDbEntity
  8
針
100
AcDbLine
 10
287.2992730287635
 20
294.0718977995764
 30
0.0
 11
287.186010649551
 21
293.9896078642555
 31
0.0
  0
HATCH
  5
2324
330
18
100
AcDbEntity
  8
針
100
AcDbHatch
 10
0.0
 20
0.0
 30
0.0
210
0.0
220
0.0
230
1.0
  2
SOLID
 70
     1
 71
     0
 91
        1
 92
        7
 72
     1
 73
     1
 93
        8
 10
299.2951072853584
 20
277.0061311240534
 42
-0.2863987309425337
 10
299.3196151344498
 20
276.7958038406314
 42
3.911320250911082
 10
299.9020623964753
 20
277.2189765468132
 42
-0.2863987309426852
 10
299.7096026048869
 20
277.30727960135
 42
0.0
 10
296.9240984936149
 20
281.5332530234685
 42
-0.1053331282509125
 10
296.8481949835087
 20
281.7272898114517
 42
-0.1859706772386703
 10
295.9756513557899
 20
281.0933497583739
 42
-0.10533312825095
 10
296.1367358328469
 20
280.961200565457
 42
0.0
 97
        0
 75
     0
 76
     1
 47
0.0292545011116796
 98
        1
 10
296.9985507645844
 20
280.1446730990123
450
        0
451
        0
460
0.0
461
0.0
452
        1
462
1.0
453
        2
463
0.0
 63
     5
421
      255
463
1.0
 63
    51
421
 16777113
470
LINEAR
  0
ARC
  5
2325
330
18
100
AcDbEntity
  8
針
100
AcDbCircle
 10
295.7460276692725
 20
280.6491955480031
 30
0.0
 40
0.5
100
AcDbArc
 50
38.60956348104645
 51
62.66144748262514
  0
ARC
  5
2326
330
18
100
AcDbEntity
  8
針
100
AcDbCircle
 10
297.3415683609667
 20
281.8084237156821
 30
0.0
 40
0.5
100
AcDbArc
 50
189.3385525173757
 51
213.3904365189465
  0
ARC
  5
2327
330
18
100
AcDbEntity
  8
針
100
AcDbCircle
 10
295.4131526749345
 20
284.9362465559377
 30
0.0
 40
1.0
100
AcDbArc
 50
216.9155986228603
 51
254.1881170613591
  0
ARC
  5
2328
330
18
100
AcDbEntity
  8
針
100
AcDbCircle
 10
293.3672045944337
 20
283.449778265363
 30
0.0
 40
1.0
100
AcDbArc
 50
357.8118829386389
 51
35.08440137713942
  0
LINE
  5
2329
330
18
100
AcDbEntity
  8
針
100
AcDbLine
 10
287.2992730287635
 20
294.0718977995764
 30
0.0
 11
294.613631508883
 21
284.3356086408544
 31
0.0
  0
LINE
  5
232A
330
18
100
AcDbEntity
  8
針
100
AcDbLine
 10
294.18551082518
 20
284.0245607570254
 30
0.0
 11
287.186010649551
 21
293.9896078642555
 31
0.0
  0
LINE
  5
232B
330
18
100
AcDbEntity
  8
針
100
AcDbLine
 10
296.9240984936149
 20
281.5332530234685
 30
0.0
 11
299.7096026048869
 21
277.30727960135
 31
0.0
  0
LINE
  5
232C
330
18
100
AcDbEntity
  8
針
100
AcDbLine
 10
296.1367358328468
 20
280.9612005654571
 30
0.0
 11
299.2951072853584
 21
277.0061311240534
 31
0.0
  0
ARC
  5
232D
330
18
100
AcDbEntity
  8
針
100
AcDbCircle
 10
299.9975818139039
 20
276.4750840539796
 30
0.0
 40
0.75
100
AcDbArc
 50
154.6829815593749
 51
97.31701844062348
  0
ARC
  5
232E
330
18
100
AcDbEntity
  8
針
100
AcDbCircle
 10
299.8765905518276
 20
277.4173478782354
 30
0.0
 40
0.2
100
AcDbArc
 50
213.3904365189465
 51
277.3170184406235
  0
ARC
  5
232F
330
18
100
AcDbEntity
  8
針
100
AcDbCircle
 10
299.1388240199287
 20
276.8813291170719
 30
0.0
 40
0.2
100
AcDbArc
 50
334.6829815593749
 51
38.60956348105358
  0
HATCH
  5
2332
330
18
100
AcDbEntity
  8
針
100
AcDbHatch
 10
0.0
 20
0.0
 30
0.0
210
0.0
220
0.0
230
1.0
  2
SOLID
 70
     1
 71
     0
 91
        1
 92
        7
 72
     1
 73
     1
 93
        6
 10
294.18551082518
 20
284.0245607570254
 42
-0.1640812035095831
 10
294.3664754508471
 20
283.4115977006352
 42
-0.1637712156695709
 10
295.1406728731994
 20
283.9740850530462
 42
-0.1640812035096
 10
294.613631508883
 20
284.3356086408544
 42
0.0
 10
287.2992730287635
 20
294.0718977995765
 42
0.0
 10
287.186010649551
 20
293.9896078642555
 42
0.0
 97
        0
 75
     0
 76
     1
 47
0.025221982651283
 98
        1
 10
292.8528311570671
 20
286.2503371886967
450
        0
451
        0
460
0.0
461
0.0
452
        1
462
1.0
453
        2
463
0.0
 63
     5
421
      255
463
1.0
 63
    51
421
 16777113
470
LINEAR
  0
LINE
  5
2333
330
18
100
AcDbEntity
  8
針
100
AcDbLine
 10
287.2992730287635
 20
294.0718977995764
 30
0.0
 11
287.186010649551
 21
293.9896078642555
 31
0.0
  0
HATCH
  5
2334
330
18
100
AcDbEntity
  8
針
100
AcDbHatch
 10
0.0
 20
0.0
 30
0.0
210
0.0
220
0.0
230
1.0
  2
SOLID
 70
     1
 71
     0
 91
        1
 92
        7
 72
     1
 73
     1
 93
        8
 10
299.2951072853584
 20
277.0061311240534
 42
-0.2863987309425337
 10
299.3196151344498
 20
276.7958038406314
 42
3.911320250911082
 10
299.9020623964753
 20
277.2189765468132
 42
-0.2863987309426852
 10
299.7096026048869
 20
277.30727960135
 42
0.0
 10
296.9240984936149
 20
281.5332530234685
 42
-0.1053331282509125
 10
296.8481949835087
 20
281.7272898114517
 42
-0.1859706772386703
 10
295.9756513557899
 20
281.0933497583739
 42
-0.10533312825095
 10
296.1367358328469
 20
280.961200565457
 42
0.0
 97
        0
 75
     0
 76
     1
 47
0.0292545011116796
 98
        1
 10
296.9985507645844
 20
280.1446730990123
450
        0
451
        0
460
0.0
461
0.0
452
        1
462
1.0
453
        2
463
0.0
 63
     5
421
      255
463
1.0
 63
    51
421
 16777113
470
LINEAR
  0
ARC
  5
2335
330
18
100
AcDbEntity
  8
針
100
AcDbCircle
 10
295.7460276692725
 20
280.6491955480031
 30
0.0
 40
0.5
100
AcDbArc
 50
38.60956348104645
 51
62.66144748262514
  0
ARC
  5
2336
330
18
100
AcDbEntity
  8
針
100
AcDbCircle
 10
297.3415683609667
 20
281.8084237156821
 30
0.0
 40
0.5
100
AcDbArc
 50
189.3385525173757
 51
213.3904365189465
  0
ARC
  5
2337
330
18
100
AcDbEntity
  8
針
100
AcDbCircle
 10
295.4131526749345
 20
284.9362465559377
 30
0.0
 40
1.0
100
AcDbArc
 50
216.9155986228603
 51
254.1881170613591
  0
ARC
  5
2338
330
18
100
AcDbEntity
  8
針
100
AcDbCircle
 10
293.3672045944337
 20
283.449778265363
 30
0.0
 40
1.0
100
AcDbArc
 50
357.8118829386389
 51
35.08440137713942
  0
LINE
  5
2339
330
18
100
AcDbEntity
  8
針
100
AcDbLine
 10
287.2992730287635
 20
294.0718977995764
 30
0.0
 11
294.613631508883
 21
284.3356086408544
 31
0.0
  0
LINE
  5
233A
330
18
100
AcDbEntity
  8
針
100
AcDbLine
 10
294.18551082518
 20
284.0245607570254
 30
0.0
 11
287.186010649551
 21
293.9896078642555
 31
0.0
  0
LINE
  5
233B
330
18
100
AcDbEntity
  8
針
100
AcDbLine
 10
296.9240984936149
 20
281.5332530234685
 30
0.0
 11
299.7096026048869
 21
277.30727960135
 31
0.0
  0
LINE
  5
233C
330
18
100
AcDbEntity
  8
針
100
AcDbLine
 10
296.1367358328468
 20
280.9612005654571
 30
0.0
 11
299.2951072853584
 21
277.0061311240534
 31
0.0
  0
ARC
  5
233D
330
18
100
AcDbEntity
  8
針
100
AcDbCircle
 10
299.9975818139039
 20
276.4750840539796
 30
0.0
 40
0.75
100
AcDbArc
 50
154.6829815593749
 51
97.31701844062348
  0
ARC
  5
233E
330
18
100
AcDbEntity
  8
針
100
AcDbCircle
 10
299.8765905518276
 20
277.4173478782354
 30
0.0
 40
0.2
100
AcDbArc
 50
213.3904365189465
 51
277.3170184406235
  0
ARC
  5
233F
330
18
100
AcDbEntity
  8
針
100
AcDbCircle
 10
299.1388240199287
 20
276.8813291170719
 30
0.0
 40
0.2
100
AcDbArc
 50
334.6829815593749
 51
38.60956348105358
  0
HATCH
  5
2342
330
18
100
AcDbEntity
  8
針
100
AcDbHatch
 10
0.0
 20
0.0
 30
0.0
210
0.0
220
0.0
230
1.0
  2
SOLID
 70
     1
 71
     0
 91
        1
 92
        7
 72
     1
 73
     1
 93
        6
 10
294.18551082518
 20
284.0245607570254
 42
-0.1640812035095831
 10
294.3664754508471
 20
283.4115977006352
 42
-0.1637712156695709
 10
295.1406728731994
 20
283.9740850530462
 42
-0.1640812035096
 10
294.613631508883
 20
284.3356086408544
 42
0.0
 10
287.2992730287635
 20
294.0718977995765
 42
0.0
 10
287.186010649551
 20
293.9896078642555
 42
0.0
 97
        0
 75
     0
 76
     1
 47
0.025221982651283
 98
        1
 10
292.8528311570671
 20
286.2503371886967
450
        0
451
        0
460
0.0
461
0.0
452
        1
462
1.0
453
        2
463
0.0
 63
     5
421
      255
463
1.0
 63
    51
421
 16777113
470
LINEAR
  0
LINE
  5
2343
330
18
100
AcDbEntity
  8
針
100
AcDbLine
 10
287.2992730287635
 20
294.0718977995764
 30
0.0
 11
287.186010649551
 21
293.9896078642555
 31
0.0
  0
HATCH
  5
2344
330
18
100
AcDbEntity
  8
針
100
AcDbHatch
 10
0.0
 20
0.0
 30
0.0
210
0.0
220
0.0
230
1.0
  2
SOLID
 70
     1
 71
     0
 91
        1
 92
        7
 72
     1
 73
     1
 93
        8
 10
299.2951072853584
 20
277.0061311240534
 42
-0.2863987309425337
 10
299.3196151344498
 20
276.7958038406314
 42
3.911320250911082
 10
299.9020623964753
 20
277.2189765468132
 42
-0.2863987309426852
 10
299.7096026048869
 20
277.30727960135
 42
0.0
 10
296.9240984936149
 20
281.5332530234685
 42
-0.1053331282509125
 10
296.8481949835087
 20
281.7272898114517
 42
-0.1859706772386703
 10
295.9756513557899
 20
281.0933497583739
 42
-0.10533312825095
 10
296.1367358328469
 20
280.961200565457
 42
0.0
 97
        0
 75
     0
 76
     1
 47
0.0292545011116796
 98
        1
 10
296.9985507645844
 20
280.1446730990123
450
        0
451
        0
460
0.0
461
0.0
452
        1
462
1.0
453
        2
463
0.0
 63
     5
421
      255
463
1.0
 63
    51
421
 16777113
470
LINEAR
  0
ARC
  5
2345
330
18
100
AcDbEntity
  8
針
100
AcDbCircle
 10
295.7460276692725
 20
280.6491955480031
 30
0.0
 40
0.5
100
AcDbArc
 50
38.60956348104645
 51
62.66144748262514
  0
ARC
  5
2346
330
18
100
AcDbEntity
  8
針
100
AcDbCircle
 10
297.3415683609667
 20
281.8084237156821
 30
0.0
 40
0.5
100
AcDbArc
 50
189.3385525173757
 51
213.3904365189465
  0
ARC
  5
2347
330
18
100
AcDbEntity
  8
針
100
AcDbCircle
 10
295.4131526749345
 20
284.9362465559377
 30
0.0
 40
1.0
100
AcDbArc
 50
216.9155986228603
 51
254.1881170613591
  0
ARC
  5
2348
330
18
100
AcDbEntity
  8
針
100
AcDbCircle
 10
293.3672045944337
 20
283.449778265363
 30
0.0
 40
1.0
100
AcDbArc
 50
357.8118829386389
 51
35.08440137713942
  0
LINE
  5
2349
330
18
100
AcDbEntity
  8
針
100
AcDbLine
 10
287.2992730287635
 20
294.0718977995764
 30
0.0
 11
294.613631508883
 21
284.3356086408544
 31
0.0
  0
LINE
  5
234A
330
18
100
AcDbEntity
  8
針
100
AcDbLine
 10
294.18551082518
 20
284.0245607570254
 30
0.0
 11
287.186010649551
 21
293.9896078642555
 31
0.0
  0
LINE
  5
234B
330
18
100
AcDbEntity
  8
針
100
AcDbLine
 10
296.9240984936149
 20
281.5332530234685
 30
0.0
 11
299.7096026048869
 21
277.30727960135
 31
0.0
  0
LINE
  5
234C
330
18
100
AcDbEntity
  8
針
100
AcDbLine
 10
296.1367358328468
 20
280.9612005654571
 30
0.0
 11
299.2951072853584
 21
277.0061311240534
 31
0.0
  0
ARC
  5
234D
330
18
100
AcDbEntity
  8
針
100
AcDbCircle
 10
299.9975818139039
 20
276.4750840539796
 30
0.0
 40
0.75
100
AcDbArc
 50
154.6829815593749
 51
97.31701844062348
  0
ARC
  5
234E
330
18
100
AcDbEntity
  8
針
100
AcDbCircle
 10
299.8765905518276
 20
277.4173478782354
 30
0.0
 40
0.2
100
AcDbArc
 50
213.3904365189465
 51
277.3170184406235
  0
ARC
  5
234F
330
18
100
AcDbEntity
  8
針
100
AcDbCircle
 10
299.1388240199287
 20
276.8813291170719
 30
0.0
 40
0.2
100
AcDbArc
 50
334.6829815593749
 51
38.60956348105358
  0
HATCH
  5
2352
330
18
100
AcDbEntity
  8
針
100
AcDbHatch
 10
0.0
 20
0.0
 30
0.0
210
0.0
220
0.0
230
1.0
  2
SOLID
 70
     1
 71
     0
 91
        1
 92
        7
 72
     1
 73
     1
 93
        6
 10
294.18551082518
 20
284.0245607570254
 42
-0.1640812035095831
 10
294.3664754508471
 20
283.4115977006352
 42
-0.1637712156695709
 10
295.1406728731994
 20
283.9740850530462
 42
-0.1640812035096
 10
294.613631508883
 20
284.3356086408544
 42
0.0
 10
287.2992730287635
 20
294.0718977995765
 42
0.0
 10
287.186010649551
 20
293.9896078642555
 42
0.0
 97
        0
 75
     0
 76
     1
 47
0.025221982651283
 98
        1
 10
292.8528311570671
 20
286.2503371886967
450
        0
451
        0
460
0.0
461
0.0
452
        1
462
1.0
453
        2
463
0.0
 63
     5
421
      255
463
1.0
 63
    51
421
 16777113
470
LINEAR
  0
LINE
  5
2353
330
18
100
AcDbEntity
  8
針
100
AcDbLine
 10
287.2992730287635
 20
294.0718977995764
 30
0.0
 11
287.186010649551
 21
293.9896078642555
 31
0.0
  0
HATCH
  5
2354
330
18
100
AcDbEntity
  8
針
100
AcDbHatch
 10
0.0
 20
0.0
 30
0.0
210
0.0
220
0.0
230
1.0
  2
SOLID
 70
     1
 71
     0
 91
        1
 92
        7
 72
     1
 73
     1
 93
        8
 10
299.2951072853584
 20
277.0061311240534
 42
-0.2863987309425337
 10
299.3196151344498
 20
276.7958038406314
 42
3.911320250911082
 10
299.9020623964753
 20
277.2189765468132
 42
-0.2863987309426852
 10
299.7096026048869
 20
277.30727960135
 42
0.0
 10
296.9240984936149
 20
281.5332530234685
 42
-0.1053331282509125
 10
296.8481949835087
 20
281.7272898114517
 42
-0.1859706772386703
 10
295.9756513557899
 20
281.0933497583739
 42
-0.10533312825095
 10
296.1367358328469
 20
280.961200565457
 42
0.0
 97
        0
 75
     0
 76
     1
 47
0.0292545011116796
 98
        1
 10
296.9985507645844
 20
280.1446730990123
450
        0
451
        0
460
0.0
461
0.0
452
        1
462
1.0
453
        2
463
0.0
 63
     5
421
      255
463
1.0
 63
    51
421
 16777113
470
LINEAR
  0
ARC
  5
2355
330
18
100
AcDbEntity
  8
針
100
AcDbCircle
 10
295.7460276692725
 20
280.6491955480031
 30
0.0
 40
0.5
100
AcDbArc
 50
38.60956348104645
 51
62.66144748262514
  0
ARC
  5
2356
330
18
100
AcDbEntity
  8
針
100
AcDbCircle
 10
297.3415683609667
 20
281.8084237156821
 30
0.0
 40
0.5
100
AcDbArc
 50
189.3385525173757
 51
213.3904365189465
  0
ARC
  5
2357
330
18
100
AcDbEntity
  8
針
100
AcDbCircle
 10
295.4131526749345
 20
284.9362465559377
 30
0.0
 40
1.0
100
AcDbArc
 50
216.9155986228603
 51
254.1881170613591
  0
ARC
  5
2358
330
18
100
AcDbEntity
  8
針
100
AcDbCircle
 10
293.3672045944337
 20
283.449778265363
 30
0.0
 40
1.0
100
AcDbArc
 50
357.8118829386389
 51
35.08440137713942
  0
LINE
  5
2359
330
18
100
AcDbEntity
  8
針
100
AcDbLine
 10
287.2992730287635
 20
294.0718977995764
 30
0.0
 11
294.613631508883
 21
284.3356086408544
 31
0.0
  0
LINE
  5
235A
330
18
100
AcDbEntity
  8
針
100
AcDbLine
 10
294.18551082518
 20
284.0245607570254
 30
0.0
 11
287.186010649551
 21
293.9896078642555
 31
0.0
  0
LINE
  5
235B
330
18
100
AcDbEntity
  8
針
100
AcDbLine
 10
296.9240984936149
 20
281.5332530234685
 30
0.0
 11
299.7096026048869
 21
277.30727960135
 31
0.0
  0
LINE
  5
235C
330
18
100
AcDbEntity
  8
針
100
AcDbLine
 10
296.1367358328468
 20
280.9612005654571
 30
0.0
 11
299.2951072853584
 21
277.0061311240534
 31
0.0
  0
ARC
  5
235D
330
18
100
AcDbEntity
  8
針
100
AcDbCircle
 10
299.9975818139039
 20
276.4750840539796
 30
0.0
 40
0.75
100
AcDbArc
 50
154.6829815593749
 51
97.31701844062348
  0
ARC
  5
235E
330
18
100
AcDbEntity
  8
針
100
AcDbCircle
 10
299.8765905518276
 20
277.4173478782354
 30
0.0
 40
0.2
100
AcDbArc
 50
213.3904365189465
 51
277.3170184406235
  0
ARC
  5
235F
330
18
100
AcDbEntity
  8
針
100
AcDbCircle
 10
299.1388240199287
 20
276.8813291170719
 30
0.0
 40
0.2
100
AcDbArc
 50
334.6829815593749
 51
38.60956348105358
  0
HATCH
  5
2362
330
18
100
AcDbEntity
  8
針
100
AcDbHatch
 10
0.0
 20
0.0
 30
0.0
210
0.0
220
0.0
230
1.0
  2
SOLID
 70
     1
 71
     0
 91
        1
 92
        7
 72
     1
 73
     1
 93
        6
 10
294.18551082518
 20
284.0245607570254
 42
-0.1640812035095831
 10
294.3664754508471
 20
283.4115977006352
 42
-0.1637712156695709
 10
295.1406728731994
 20
283.9740850530462
 42
-0.1640812035096
 10
294.613631508883
 20
284.3356086408544
 42
0.0
 10
287.2992730287635
 20
294.0718977995765
 42
0.0
 10
287.186010649551
 20
293.9896078642555
 42
0.0
 97
        0
 75
     0
 76
     1
 47
0.025221982651283
 98
        1
 10
292.8528311570671
 20
286.2503371886967
450
        0
451
        0
460
0.0
461
0.0
452
        1
462
1.0
453
        2
463
0.0
 63
     5
421
      255
463
1.0
 63
    51
421
 16777113
470
LINEAR
  0
LINE
  5
2363
330
18
100
AcDbEntity
  8
針
100
AcDbLine
 10
287.2992730287635
 20
294.0718977995764
 30
0.0
 11
287.186010649551
 21
293.9896078642555
 31
0.0
  0
HATCH
  5
2364
330
18
100
AcDbEntity
  8
針
100
AcDbHatch
 10
0.0
 20
0.0
 30
0.0
210
0.0
220
0.0
230
1.0
  2
SOLID
 70
     1
 71
     0
 91
        1
 92
        7
 72
     1
 73
     1
 93
        8
 10
299.2951072853584
 20
277.0061311240534
 42
-0.2863987309425337
 10
299.3196151344498
 20
276.7958038406314
 42
3.911320250911082
 10
299.9020623964753
 20
277.2189765468132
 42
-0.2863987309426852
 10
299.7096026048869
 20
277.30727960135
 42
0.0
 10
296.9240984936149
 20
281.5332530234685
 42
-0.1053331282509125
 10
296.8481949835087
 20
281.7272898114517
 42
-0.1859706772386703
 10
295.9756513557899
 20
281.0933497583739
 42
-0.10533312825095
 10
296.1367358328469
 20
280.961200565457
 42
0.0
 97
        0
 75
     0
 76
     1
 47
0.0292545011116796
 98
        1
 10
296.9985507645844
 20
280.1446730990123
450
        0
451
        0
460
0.0
461
0.0
452
        1
462
1.0
453
        2
463
0.0
 63
     5
421
      255
463
1.0
 63
    51
421
 16777113
470
LINEAR
  0
ARC
  5
2365
330
18
100
AcDbEntity
  8
針
100
AcDbCircle
 10
295.7460276692725
 20
280.6491955480031
 30
0.0
 40
0.5
100
AcDbArc
 50
38.60956348104645
 51
62.66144748262514
  0
ARC
  5
2366
330
18
100
AcDbEntity
  8
針
100
AcDbCircle
 10
297.3415683609667
 20
281.8084237156821
 30
0.0
 40
0.5
100
AcDbArc
 50
189.3385525173757
 51
213.3904365189465
  0
ARC
  5
2367
330
18
100
AcDbEntity
  8
針
100
AcDbCircle
 10
295.4131526749345
 20
284.9362465559377
 30
0.0
 40
1.0
100
AcDbArc
 50
216.9155986228603
 51
254.1881170613591
  0
ARC
  5
2368
330
18
100
AcDbEntity
  8
針
100
AcDbCircle
 10
293.3672045944337
 20
283.449778265363
 30
0.0
 40
1.0
100
AcDbArc
 50
357.8118829386389
 51
35.08440137713942
  0
LINE
  5
2369
330
18
100
AcDbEntity
  8
針
100
AcDbLine
 10
287.2992730287635
 20
294.0718977995764
 30
0.0
 11
294.613631508883
 21
284.3356086408544
 31
0.0
  0
LINE
  5
236A
330
18
100
AcDbEntity
  8
針
100
AcDbLine
 10
294.18551082518
 20
284.0245607570254
 30
0.0
 11
287.186010649551
 21
293.9896078642555
 31
0.0
  0
LINE
  5
236B
330
18
100
AcDbEntity
  8
針
100
AcDbLine
 10
296.9240984936149
 20
281.5332530234685
 30
0.0
 11
299.7096026048869
 21
277.30727960135
 31
0.0
  0
LINE
  5
236C
330
18
100
AcDbEntity
  8
針
100
AcDbLine
 10
296.1367358328468
 20
280.9612005654571
 30
0.0
 11
299.2951072853584
 21
277.0061311240534
 31
0.0
  0
ARC
  5
236D
330
18
100
AcDbEntity
  8
針
100
AcDbCircle
 10
299.9975818139039
 20
276.4750840539796
 30
0.0
 40
0.75
100
AcDbArc
 50
154.6829815593749
 51
97.31701844062348
  0
ARC
  5
236E
330
18
100
AcDbEntity
  8
針
100
AcDbCircle
 10
299.8765905518276
 20
277.4173478782354
 30
0.0
 40
0.2
100
AcDbArc
 50
213.3904365189465
 51
277.3170184406235
  0
ARC
  5
236F
330
18
100
AcDbEntity
  8
針
100
AcDbCircle
 10
299.1388240199287
 20
276.8813291170719
 30
0.0
 40
0.2
100
AcDbArc
 50
334.6829815593749
 51
38.60956348105358
  0
HATCH
  5
2372
330
18
100
AcDbEntity
  8
針
100
AcDbHatch
 10
0.0
 20
0.0
 30
0.0
210
0.0
220
0.0
230
1.0
  2
SOLID
 70
     1
 71
     0
 91
        1
 92
        7
 72
     1
 73
     1
 93
        6
 10
294.18551082518
 20
284.0245607570254
 42
-0.1640812035095831
 10
294.3664754508471
 20
283.4115977006352
 42
-0.1637712156695709
 10
295.1406728731994
 20
283.9740850530462
 42
-0.1640812035096
 10
294.613631508883
 20
284.3356086408544
 42
0.0
 10
287.2992730287635
 20
294.0718977995765
 42
0.0
 10
287.186010649551
 20
293.9896078642555
 42
0.0
 97
        0
 75
     0
 76
     1
 47
0.025221982651283
 98
        1
 10
292.8528311570671
 20
286.2503371886967
450
        0
451
        0
460
0.0
461
0.0
452
        1
462
1.0
453
        2
463
0.0
 63
     5
421
      255
463
1.0
 63
    51
421
 16777113
470
LINEAR
  0
LINE
  5
2373
330
18
100
AcDbEntity
  8
針
100
AcDbLine
 10
287.2992730287635
 20
294.0718977995764
 30
0.0
 11
287.186010649551
 21
293.9896078642555
 31
0.0
  0
HATCH
  5
2374
330
18
100
AcDbEntity
  8
針
100
AcDbHatch
 10
0.0
 20
0.0
 30
0.0
210
0.0
220
0.0
230
1.0
  2
SOLID
 70
     1
 71
     0
 91
        1
 92
        7
 72
     1
 73
     1
 93
        8
 10
299.2951072853584
 20
277.0061311240534
 42
-0.2863987309425337
 10
299.3196151344498
 20
276.7958038406314
 42
3.911320250911082
 10
299.9020623964753
 20
277.2189765468132
 42
-0.2863987309426852
 10
299.7096026048869
 20
277.30727960135
 42
0.0
 10
296.9240984936149
 20
281.5332530234685
 42
-0.1053331282509125
 10
296.8481949835087
 20
281.7272898114517
 42
-0.1859706772386703
 10
295.9756513557899
 20
281.0933497583739
 42
-0.10533312825095
 10
296.1367358328469
 20
280.961200565457
 42
0.0
 97
        0
 75
     0
 76
     1
 47
0.0292545011116796
 98
        1
 10
296.9985507645844
 20
280.1446730990123
450
        0
451
        0
460
0.0
461
0.0
452
        1
462
1.0
453
        2
463
0.0
 63
     5
421
      255
463
1.0
 63
    51
421
 16777113
470
LINEAR
  0
ARC
  5
2375
330
18
100
AcDbEntity
  8
針
100
AcDbCircle
 10
295.7460276692725
 20
280.6491955480031
 30
0.0
 40
0.5
100
AcDbArc
 50
38.60956348104645
 51
62.66144748262514
  0
ARC
  5
2376
330
18
100
AcDbEntity
  8
針
100
AcDbCircle
 10
297.3415683609667
 20
281.8084237156821
 30
0.0
 40
0.5
100
AcDbArc
 50
189.3385525173757
 51
213.3904365189465
  0
ARC
  5
2377
330
18
100
AcDbEntity
  8
針
100
AcDbCircle
 10
295.4131526749345
 20
284.9362465559377
 30
0.0
 40
1.0
100
AcDbArc
 50
216.9155986228603
 51
254.1881170613591
  0
ARC
  5
2378
330
18
100
AcDbEntity
  8
針
100
AcDbCircle
 10
293.3672045944337
 20
283.449778265363
 30
0.0
 40
1.0
100
AcDbArc
 50
357.8118829386389
 51
35.08440137713942
  0
LINE
  5
2379
330
18
100
AcDbEntity
  8
針
100
AcDbLine
 10
287.2992730287635
 20
294.0718977995764
 30
0.0
 11
294.613631508883
 21
284.3356086408544
 31
0.0
  0
LINE
  5
237A
330
18
100
AcDbEntity
  8
針
100
AcDbLine
 10
294.18551082518
 20
284.0245607570254
 30
0.0
 11
287.186010649551
 21
293.9896078642555
 31
0.0
  0
LINE
  5
237B
330
18
100
AcDbEntity
  8
針
100
AcDbLine
 10
296.9240984936149
 20
281.5332530234685
 30
0.0
 11
299.7096026048869
 21
277.30727960135
 31
0.0
  0
LINE
  5
237C
330
18
100
AcDbEntity
  8
針
100
AcDbLine
 10
296.1367358328468
 20
280.9612005654571
 30
0.0
 11
299.2951072853584
 21
277.0061311240534
 31
0.0
  0
ARC
  5
237D
330
18
100
AcDbEntity
  8
針
100
AcDbCircle
 10
299.9975818139039
 20
276.4750840539796
 30
0.0
 40
0.75
100
AcDbArc
 50
154.6829815593749
 51
97.31701844062348
  0
ARC
  5
237E
330
18
100
AcDbEntity
  8
針
100
AcDbCircle
 10
299.8765905518276
 20
277.4173478782354
 30
0.0
 40
0.2
100
AcDbArc
 50
213.3904365189465
 51
277.3170184406235
  0
ARC
  5
237F
330
18
100
AcDbEntity
  8
針
100
AcDbCircle
 10
299.1388240199287
 20
276.8813291170719
 30
0.0
 40
0.2
100
AcDbArc
 50
334.6829815593749
 51
38.60956348105358
  0
TEXT
  5
23C5
330
18
100
AcDbEntity
  8
文字
100
AcDbText
 10
298.9046840416079
 20
355.233615915946
 30
0.0
 40
4.0
  1
Model No.PCN-1A New Pic Test Indicator
  7
STYLE3
100
AcDbText
  0
LINE
  5
23C6
330
18
100
AcDbEntity
  8
外形線
100
AcDbLine
 10
298.5131880416079
 20
353.1040299159459
 30
0.0
 11
421.513188041608
 21
353.1040299159459
 31
0.0
  0
LINE
  5
23C7
330
18
100
AcDbEntity
  8
外形線
100
AcDbLine
 10
298.5131880416079
 20
354.1040299159459
 30
0.0
 11
421.513188041608
 21
354.1040299159459
 31
0.0
  0
LINE
  5
23CA
330
18
100
AcDbEntity
  8
外形線
100
AcDbLine
 10
350.250364041608
 20
192.9003359159459
 30
0.0
 11
491.0417820416078
 21
192.9003359159459
 31
0.0
  0
LINE
  5
23CB
330
18
100
AcDbEntity
  8
外形線
100
AcDbLine
 10
350.250364041608
 20
182.1201299159459
 30
0.0
 11
491.0417820416078
 21
182.1201299159459
 31
0.0
  0
TEXT
  5
23CC
330
18
100
AcDbEntity
  8
0
  6
Continuous
100
AcDbText
 10
351.707831041608
 20
184.0181199159459
 30
0.0
 40
2.1
  1
Design and specifications are subject to change without notice for future improvement.
  7
STYLE3
100
AcDbText
  0
TEXT
  5
23CD
330
18
100
AcDbEntity
  8
0
  6
Continuous
100
AcDbText
 10
351.999325041608
 20
187.9472679159459
 30
0.0
 40
3.5
  1
仕様及び外観は予告なく変更される場合がございますのでご了承下さい。
  7
STYLE3
100
AcDbText
  0
TEXT
  5
23CE
330
18
100
AcDbEntity
  8
0
  6
Continuous
100
AcDbText
 10
351.416340041608
 20
174.2534919159459
 30
0.0
 40
2.1
  1
3RD Angle Projection
  7
STYLE3
100
AcDbText
  0
TEXT
  5
23CF
330
18
100
AcDbEntity
  8
0
  6
Continuous
100
AcDbText
 10
354.0397830416079
 20
177.7497749159459
 30
0.0
 40
3.0
  1
三　　角　　法
  7
STYLE3
100
AcDbText
  0
LINE
  5
23D0
330
18
100
AcDbEntity
  8
外形線
100
AcDbLine
 10
350.250364041608
 20
172.5053519159459
 30
0.0
 11
350.250364041608
 21
192.9003359159459
 31
0.0
  0
LINE
  5
23D1
330
18
100
AcDbEntity
  8
外形線
100
AcDbLine
 10
452.2731310416079
 20
182.1201299159459
 30
0.0
 11
452.2731310416079
 21
172.5053519159459
 31
0.0
  0
LINE
  5
23D2
330
18
100
AcDbEntity
  8
外形線
100
AcDbLine
 10
422.5407810416079
 20
182.1201299159459
 30
0.0
 11
422.5407810416079
 21
172.5053519159459
 31
0.0
  0
LINE
  5
23D3
330
18
100
AcDbEntity
  8
外形線
100
AcDbLine
 10
403.0107090416079
 20
182.1201299159459
 30
0.0
 11
403.0107090416079
 21
172.5053519159459
 31
0.0
  0
LINE
  5
23D4
330
18
100
AcDbEntity
  8
外形線
100
AcDbLine
 10
385.521092041608
 20
182.1201299159459
 30
0.0
 11
385.521092041608
 21
172.5053519159459
 31
0.0
  0
TEXT
  5
23D5
330
18
100
AcDbEntity
  8
0
  6
Continuous
100
AcDbText
 10
386.9785610416079
 20
177.7557299159459
 30
0.0
 40
3.0
  1
単位
  7
STYLE3
100
AcDbText
  0
TEXT
  5
23D6
330
18
100
AcDbEntity
  8
0
  6
Continuous
100
AcDbText
 10
387.150282041608
 20
174.2534929159459
 30
0.0
 40
2.1
  1
Unit
  7
STYLE3
100
AcDbText
  0
TEXT
  5
23D7
330
18
100
AcDbEntity
  8
0
  6
Continuous
100
AcDbText
 10
404.2964570416079
 20
177.4643719159459
 30
0.0
 40
3.0
  1
尺 度
  7
STYLE3
100
AcDbText
  0
TEXT
  5
23D8
330
18
100
AcDbEntity
  8
0
  6
Continuous
100
AcDbText
 10
395.0206090416079
 20
176.0016359159459
 30
0.0
 40
2.399999999999999
  1
mm
  7
STYLE3
100
AcDbText
  0
TEXT
  5
23D9
330
18
100
AcDbEntity
  8
0
  6
Continuous
100
AcDbText
 10
404.7596720416079
 20
174.5448499159459
 30
0.0
 40
2.1
  1
Scale
  7
STYLE3
100
AcDbText
  0
TEXT
  5
23DA
330
18
100
AcDbEntity
  8
0
  6
Continuous
100
AcDbText
 10
414.3789610416079
 20
176.2929929159459
 30
0.0
 40
2.399999999999999
  1
1/1
  7
STYLE3
100
AcDbText
  0
TEXT
  5
23DB
330
18
100
AcDbEntity
  8
0
  6
Continuous
100
AcDbText
 10
424.4727320416079
 20
174.2534939159459
 30
0.0
 40
2.1
  1
Date
  7
STYLE3
100
AcDbText
  0
TEXT
  5
23DC
330
18
100
AcDbEntity
  8
0
  6
Continuous
100
AcDbText
 10
424.0893710416079
 20
177.5865769159459
 30
0.0
 40
3.0
  1
日 付
  7
STYLE3
100
AcDbText
  0
TEXT
  5
23DD
330
18
100
AcDbEntity
  8
0
  6
Continuous
100
AcDbText
 10
433.2175400416079
 20
176.0016349159459
 30
0.0
 40
2.1
  1
2010.06.10
  7
STYLE3
100
AcDbText
  0
TEXT
  5
23DE
330
18
100
AcDbEntity
  8
0
  6
Continuous
100
AcDbText
 10
453.6220940416079
 20
178.0411319159459
 30
0.0
 40
3.0
  1
株式会社　尾崎製作所
  7
STYLE3
100
AcDbText
  0
TEXT
  5
23DF
330
18
100
AcDbEntity
  8
0
  6
Continuous
100
AcDbText
 10
454.4965730416079
 20
174.2534929159459
 30
0.0
 40
2.1
  1
OZAKI MFG. CO., LTD.
  7
STYLE3
100
AcDbText
  0
ENDSEC
  0
SECTION
  2
OBJECTS
  0
DICTIONARY
  5
C
330
0
100
AcDbDictionary
281
     1
  3
ACAD_COLOR
350
215E
  3
ACAD_GROUP
350
D
  3
ACAD_IMAGE_DICT
350
B2C
  3
ACAD_LAYOUT
350
2161
  3
ACAD_MATERIAL
350
215D
  3
ACAD_MLINESTYLE
350
1B
  3
ACAD_PLOTSETTINGS
350
2162
  3
ACAD_PLOTSTYLENAME
350
215B
  3
ACAD_TABLESTYLE
350
215F
  3
ACDBVARIABLEDICTIONARY
350
1297
  3
AVE_ACITABLE
350
1835
  0
DICTIONARY
  5
215E
102
{ACAD_REACTORS
330
C
102
}
330
C
100
AcDbDictionary
281
     1
  0
DICTIONARY
  5
D
102
{ACAD_REACTORS
330
C
102
}
330
C
100
AcDbDictionary
281
     1
  0
DICTIONARY
  5
B2C
102
{ACAD_REACTORS
330
C
102
}
330
C
100
AcDbDictionary
281
     1
  3
ROGO01
350
B2D
  0
DICTIONARY
  5
2161
102
{ACAD_REACTORS
330
C
102
}
330
C
100
AcDbDictionary
281
     1
  3
Model
350
2163
  3
レイアウト1
350
2164
  0
DICTIONARY
  5
215D
102
{ACAD_REACTORS
330
C
102
}
330
C
100
AcDbDictionary
281
     1
  0
DICTIONARY
  5
1B
102
{ACAD_REACTORS
330
C
102
}
330
C
100
AcDbDictionary
281
     1
  3
STANDARD
350
1C
  0
DICTIONARY
  5
2162
102
{ACAD_REACTORS
330
C
102
}
330
C
100
AcDbDictionary
281
     1
  0
ACDBDICTIONARYWDFLT
  5
215B
102
{ACAD_REACTORS
330
C
102
}
330
C
100
AcDbDictionary
281
     1
  3
Normal
350
215C
100
AcDbDictionaryWithDefault
340
215C
  0
DICTIONARY
  5
215F
102
{ACAD_REACTORS
330
C
102
}
330
C
100
AcDbDictionary
281
     1
  3
Standard
350
2160
  0
DICTIONARY
  5
1297
102
{ACAD_REACTORS
330
C
102
}
330
C
100
AcDbDictionary
281
     1
  3
CTABLESTYLE
350
2386
  3
SORTENTS
350
1298
  0
DICTIONARY
  5
1835
102
{ACAD_REACTORS
330
C
102
}
330
C
100
AcDbDictionary
281
     1
  0
IMAGEDEF
  5
B2D
102
{ACAD_REACTORS
330
B2C
102
}
330
B2C
100
AcDbRasterImageDef
 90
        0
  1
D:\ﾃｽﾄ\rogo01.TIF
 10
3388.0
 20
4668.0
 11
0.0635
 21
0.0635
280
     1
281
     5
  0
LAYOUT
  5
2163
102
{ACAD_REACTORS
330
2161
102
}
330
2161
100
AcDbPlotSettings
  1

  2
A3 EPSON LP-6100.pc3
  4
A3
  6

 40
5.873749732971191
 41
5.873747825622558
 42
5.873748779296875
 43
5.873748779296875
 44
297.0106506347656
 45
419.9466552734374
 46
1.409999999999999
 47
25.0
 48
0.0
 49
0.0
140
0.0
141
0.0
142
1.0
143
1.0
 70
 28336
 72
     1
 73
     1
 74
     1
  7
AutoCAD LT 98.ctb
 75
    16
147
1.0
 76
     1
 77
     2
 78
   300
148
-236.4583261120649
149
-171.6287515666504
100
AcDbLayout
  1
Model
 70
     1
 71
     0
 10
0.0
 20
0.0
 11
12.0
 21
9.0
 12
0.0
 22
0.0
 32
0.0
 14
0.0
 24
0.0
 34
0.0
 15
0.0
 25
0.0
 35
0.0
146
0.0
 13
0.0
 23
0.0
 33
0.0
 16
1.0
 26
0.0
 36
0.0
 17
0.0
 27
1.0
 37
0.0
 76
     0
330
18
1001
ACAD_PSEXT
1000
A3 EPSON LP-6100.pc3
1000
EPSON LP-6100
1000
USB002
1000

1070
     0
  0
LAYOUT
  5
2164
102
{ACAD_REACTORS
330
2161
102
}
330
2161
100
AcDbPlotSettings
  1

  2
C:\Documents and Settings\佐藤\Application Data\Autodesk\AutoCAD LT 2005\R10\jpn\plotters\PEACOCK EPSON LP-6100.pc3
  4

  6

 40
0.0
 41
0.0
 42
0.0
 43
0.0
 44
0.0
 45
0.0
 46
0.0
 47
0.0
 48
0.0
 49
0.0
140
0.0
141
0.0
142
1.0
143
1.0
 70
   688
 72
     0
 73
     0
 74
     5
  7
AutoCAD LT 98.ctb
 75
    16
147
1.0
 76
     0
 77
     2
 78
   300
148
0.0
149
0.0
100
AcDbLayout
  1
レイアウト1
 70
     1
 71
     1
 10
0.0
 20
0.0
 11
420.0
 21
297.0
 12
0.0
 22
0.0
 32
0.0
 14
1.000000000000000E+20
 24
1.000000000000000E+20
 34
1.000000000000000E+20
 15
-1.000000000000000E+20
 25
-1.000000000000000E+20
 35
-1.000000000000000E+20
146
0.0
 13
0.0
 23
0.0
 33
0.0
 16
1.0
 26
0.0
 36
0.0
 17
0.0
 27
1.0
 37
0.0
 76
     0
330
15
  0
MLINESTYLE
  5
1C
102
{ACAD_REACTORS
330
1B
102
}
330
1B
100
AcDbMlineStyle
  2
STANDARD
 70
     0
  3

 62
   256
 51
90.0
 52
90.0
 71
     2
 49
0.5
 62
   256
  6
BYLAYER
 49
-0.5
 62
   256
  6
BYLAYER
  0
ACDBPLACEHOLDER
  5
215C
102
{ACAD_REACTORS
330
215B
102
}
330
215B
  0
ACAD_PROXY_OBJECT
  5
2160
102
{ACAD_REACTORS
330
215F
102
}
330
215F
100
AcDbProxyObject
 90
      499
 91
      505
 95
  2555929
 70
     0
 93
     1849
310
4214DD185B99185C992420000000000000F83F0000000000003E0FC00000000000004901028000000C1008070000C3001FDFF8000000C1003FBFF000000182007F7FE00000030400FEFFC00000060801FDFF8000000C1003FBFF000000182000000000000000C2020B0000001820100E000186003FBFF000000182007F7FE0
310
0000030400FEFFC00000060801FDFF8000000C1003FBFF000000182007F7FE0000003040000000000000012404160000003040201C00030C007F7FE00000030400FEFFC00000060801FDFF8000000C1003FBFF000000182007F7FE00000030400FEFFC000000608000
340
F
340
F
340
F
 94
        0
  0
DICTIONARYVAR
  5
2386
102
{ACAD_REACTORS
330
1297
102
}
330
1297
100
DictionaryVariables
280
     0
  1
STANDARD
  0
DICTIONARYVAR
  5
1298
102
{ACAD_REACTORS
330
1297
102
}
330
1297
100
DictionaryVariables
280
     0
  1
96
  0
ENDSEC
  0
EOF
