  0
SECTION
  2
HEADER
  9
$ACADVER
  1
AC1018
  9
$ACADMAINTVER
 70
     0
  9
$DWGCODEPAGE
  3
ANSI_932
  9
$INSBASE
 10
0.0
 20
0.0
 30
0.0
  9
$EXTMIN
 10
236.4619392448747
 20
171.6313740899659
 30
-0.0000000000002405
  9
$EXTMAX
 10
505.3645641877153
 20
367.0501842288534
 30
0.0000000000004168
  9
$LIMMIN
 10
0.0
 20
0.0
  9
$LIMMAX
 10
420.0
 20
297.0
  9
$ORTHOMODE
 70
     0
  9
$REGENMODE
 70
     1
  9
$FILLMODE
 70
     1
  9
$QTEXTMODE
 70
     0
  9
$MIRRTEXT
 70
     1
  9
$LTSCALE
 40
1.0
  9
$ATTMODE
 70
     1
  9
$TEXTSIZE
 40
1.5
  9
$TRACEWID
 40
1.0
  9
$TEXTSTYLE
  7
STYLE3
  9
$CLAYER
  8
ﾊｯﾁﾝｸ
  9
$CELTYPE
  6
BYLAYER
  9
$CECOLOR
 62
   256
  9
$CELTSCALE
 40
1.0
  9
$DISPSILH
 70
     0
  9
$DIMSCALE
 40
1.0
  9
$DIMASZ
 40
2.5
  9
$DIMEXO
 40
0.0
  9
$DIMDLI
 40
3.75
  9
$DIMRND
 40
0.0
  9
$DIMDLE
 40
0.0
  9
$DIMEXE
 40
1.25
  9
$DIMTP
 40
0.0
  9
$DIMTM
 40
0.0
  9
$DIMTXT
 40
2.5
  9
$DIMCEN
 40
2.5
  9
$DIMTSZ
 40
0.0
  9
$DIMTOL
 70
     0
  9
$DIMLIM
 70
     0
  9
$DIMTIH
 70
     0
  9
$DIMTOH
 70
     0
  9
$DIMSE1
 70
     0
  9
$DIMSE2
 70
     0
  9
$DIMTAD
 70
     1
  9
$DIMZIN
 70
     8
  9
$DIMBLK
  1

  9
$DIMASO
 70
     1
  9
$DIMSHO
 70
     1
  9
$DIMPOST
  1

  9
$DIMAPOST
  1

  9
$DIMALT
 70
     0
  9
$DIMALTD
 70
     4
  9
$DIMALTF
 40
0.0394
  9
$DIMLFAC
 40
1.0
  9
$DIMTOFL
 70
     1
  9
$DIMTVP
 40
0.0
  9
$DIMTIX
 70
     0
  9
$DIMSOXD
 70
     0
  9
$DIMSAH
 70
     1
  9
$DIMBLK1
  1
OPEN
  9
$DIMBLK2
  1
OPEN
  9
$DIMSTYLE
  2
STYLE3
  9
$DIMCLRD
 70
     2
  9
$DIMCLRE
 70
     2
  9
$DIMCLRT
 70
     6
  9
$DIMTFAC
 40
1.0
  9
$DIMGAP
 40
0.625
  9
$DIMJUST
 70
     0
  9
$DIMSD1
 70
     0
  9
$DIMSD2
 70
     0
  9
$DIMTOLJ
 70
     1
  9
$DIMTZIN
 70
     0
  9
$DIMALTZ
 70
     0
  9
$DIMALTTZ
 70
     0
  9
$DIMUPT
 70
     0
  9
$DIMDEC
 70
     2
  9
$DIMTDEC
 70
     4
  9
$DIMALTU
 70
     8
  9
$DIMALTTD
 70
     4
  9
$DIMTXSTY
  7
STYLE3
  9
$DIMAUNIT
 70
     0
  9
$DIMADEC
 70
     0
  9
$DIMALTRND
 40
0.0
  9
$DIMAZIN
 70
     0
  9
$DIMDSEP
 70
    46
  9
$DIMATFIT
 70
     3
  9
$DIMFRAC
 70
     0
  9
$DIMLDRBLK
  1

  9
$DIMLUNIT
 70
     2
  9
$DIMLWD
 70
    -2
  9
$DIMLWE
 70
    -2
  9
$DIMTMOVE
 70
     0
  9
$LUNITS
 70
     2
  9
$LUPREC
 70
     4
  9
$SKETCHINC
 40
1.0
  9
$FILLETRAD
 40
0.1
  9
$AUNITS
 70
     0
  9
$AUPREC
 70
     0
  9
$MENU
  1
.
  9
$ELEVATION
 40
0.0
  9
$PELEVATION
 40
0.0
  9
$THICKNESS
 40
0.0
  9
$LIMCHECK
 70
     0
  9
$CHAMFERA
 40
0.35
  9
$CHAMFERB
 40
0.35
  9
$CHAMFERC
 40
20.0
  9
$CHAMFERD
 40
0.0
  9
$SKPOLY
 70
     0
  9
$TDCREATE
 40
2451066.662483449
  9
$TDUCREATE
 40
2451066.287483449
  9
$TDUPDATE
 40
2455362.570423357
  9
$TDUUPDATE
 40
2455362.195423356
  9
$TDINDWG
 40
0.7088638079
  9
$TDUSRTIMER
 40
0.7088638079
  9
$USRTIMER
 70
     1
  9
$ANGBASE
 50
0.0
  9
$ANGDIR
 70
     0
  9
$PDMODE
 70
     0
  9
$PDSIZE
 40
0.0
  9
$PLINEWID
 40
0.0
  9
$SPLFRAME
 70
     0
  9
$SPLINETYPE
 70
     6
  9
$SPLINESEGS
 70
     8
  9
$HANDSEED
  5
2F71
  9
$SURFTAB1
 70
     6
  9
$SURFTAB2
 70
     6
  9
$SURFTYPE
 70
     6
  9
$SURFU
 70
     6
  9
$SURFV
 70
     6
  9
$UCSBASE
  2

  9
$UCSNAME
  2

  9
$UCSORG
 10
0.0
 20
0.0
 30
0.0
  9
$UCSXDIR
 10
1.0
 20
0.0
 30
0.0
  9
$UCSYDIR
 10
0.0
 20
1.0
 30
0.0
  9
$UCSORTHOREF
  2

  9
$UCSORTHOVIEW
 70
     0
  9
$UCSORGTOP
 10
0.0
 20
0.0
 30
0.0
  9
$UCSORGBOTTOM
 10
0.0
 20
0.0
 30
0.0
  9
$UCSORGLEFT
 10
0.0
 20
0.0
 30
0.0
  9
$UCSORGRIGHT
 10
0.0
 20
0.0
 30
0.0
  9
$UCSORGFRONT
 10
0.0
 20
0.0
 30
0.0
  9
$UCSORGBACK
 10
0.0
 20
0.0
 30
0.0
  9
$PUCSBASE
  2

  9
$PUCSNAME
  2

  9
$PUCSORG
 10
0.0
 20
0.0
 30
0.0
  9
$PUCSXDIR
 10
1.0
 20
0.0
 30
0.0
  9
$PUCSYDIR
 10
0.0
 20
1.0
 30
0.0
  9
$PUCSORTHOREF
  2

  9
$PUCSORTHOVIEW
 70
     0
  9
$PUCSORGTOP
 10
0.0
 20
0.0
 30
0.0
  9
$PUCSORGBOTTOM
 10
0.0
 20
0.0
 30
0.0
  9
$PUCSORGLEFT
 10
0.0
 20
0.0
 30
0.0
  9
$PUCSORGRIGHT
 10
0.0
 20
0.0
 30
0.0
  9
$PUCSORGFRONT
 10
0.0
 20
0.0
 30
0.0
  9
$PUCSORGBACK
 10
0.0
 20
0.0
 30
0.0
  9
$USERI1
 70
     0
  9
$USERI2
 70
     0
  9
$USERI3
 70
     0
  9
$USERI4
 70
     0
  9
$USERI5
 70
     0
  9
$USERR1
 40
0.0
  9
$USERR2
 40
0.0
  9
$USERR3
 40
0.0
  9
$USERR4
 40
0.0
  9
$USERR5
 40
0.0
  9
$WORLDVIEW
 70
     1
  9
$SHADEDGE
 70
     3
  9
$SHADEDIF
 70
    70
  9
$TILEMODE
 70
     1
  9
$MAXACTVP
 70
    48
  9
$PINSBASE
 10
0.0
 20
0.0
 30
0.0
  9
$PLIMCHECK
 70
     0
  9
$PEXTMIN
 10
1.000000000000000E+20
 20
1.000000000000000E+20
 30
1.000000000000000E+20
  9
$PEXTMAX
 10
-1.000000000000000E+20
 20
-1.000000000000000E+20
 30
-1.000000000000000E+20
  9
$PLIMMIN
 10
0.0
 20
0.0
  9
$PLIMMAX
 10
420.0
 20
297.0
  9
$UNITMODE
 70
     0
  9
$VISRETAIN
 70
     1
  9
$PLINEGEN
 70
     0
  9
$PSLTSCALE
 70
     1
  9
$TREEDEPTH
 70
  3020
  9
$CMLSTYLE
  2
STANDARD
  9
$CMLJUST
 70
     0
  9
$CMLSCALE
 40
20.0
  9
$PROXYGRAPHICS
 70
     1
  9
$MEASUREMENT
 70
     1
  9
$CELWEIGHT
370
    -1
  9
$ENDCAPS
280
     0
  9
$JOINSTYLE
280
     0
  9
$LWDISPLAY
290
     0
  9
$INSUNITS
 70
     0
  9
$HYPERLINKBASE
  1

  9
$STYLESHEET
  1
AutoCAD LT 98.ctb
  9
$XEDIT
290
     1
  9
$CEPSNTYPE
380
     0
  9
$PSTYLEMODE
290
     1
  9
$FINGERPRINTGUID
  2
{88F5113E-FD44-4857-A433-A9FA47EBB606}
  9
$VERSIONGUID
  2
{8F397A08-3FEC-43C9-8688-D86C5EB071D8}
  9
$EXTNAMES
290
     1
  9
$PSVPSCALE
 40
0.0
  9
$OLESTARTUP
290
     0
  9
$SORTENTS
280
    96
  9
$INDEXCTL
280
     0
  9
$HIDETEXT
280
     0
  9
$XCLIPFRAME
290
     0
  9
$HALOGAP
280
     0
  9
$OBSCOLOR
 70
   257
  9
$OBSLTYPE
280
     0
  9
$INTERSECTIONDISPLAY
280
     0
  9
$INTERSECTIONCOLOR
 70
   257
  9
$DIMASSOC
280
     1
  9
$PROJECTNAME
  1

  0
ENDSEC
  0
SECTION
  2
CLASSES
  0
CLASS
  1
HATCH
  2
AcDbHatch
  3
ObjectDBX Classes
 90
        0
 91
       12
280
     0
281
     1
  0
CLASS
  1
LWPOLYLINE
  2
AcDbPolyline
  3
ObjectDBX Classes
 90
        0
 91
        1
280
     0
281
     1
  0
CLASS
  1
IMAGEDEF
  2
AcDbRasterImageDef
  3
ISM
 90
        0
 91
        1
280
     0
281
     0
  0
CLASS
  1
DICTIONARYVAR
  2
AcDbDictionaryVar
  3
ObjectDBX Classes
 90
        0
 91
        2
280
     0
281
     0
  0
CLASS
  1
RASTERVARIABLES
  2
AcDbRasterVariables
  3
ISM
 90
        0
 91
        1
280
     0
281
     0
  0
CLASS
  1
ACDBDICTIONARYWDFLT
  2
AcDbDictionaryWithDefault
  3
ObjectDBX Classes
 90
        0
 91
        1
280
     0
281
     0
  0
CLASS
  1
TABLESTYLE
  2
AcDbTableStyle
  3
ObjectDBX Classes
 90
     2047
 91
        1
280
     0
281
     0
  0
CLASS
  1
SORTENTSTABLE
  2
AcDbSortentsTable
  3
ObjectDBX Classes
 90
        0
 91
        2
280
     0
281
     0
  0
ENDSEC
  0
SECTION
  2
TABLES
  0
TABLE
  2
VPORT
  5
8
330
0
100
AcDbSymbolTable
 70
     2
  0
VPORT
  5
2F70
330
8
100
AcDbSymbolTableRecord
100
AcDbViewportTableRecord
  2
*Active
 70
     0
 10
0.0
 20
0.0
 11
1.0
 21
1.0
 12
364.176755857372
 22
269.3407791594097
 13
0.0
 23
0.0
 14
10.0
 24
10.0
 15
10.0
 25
10.0
 16
0.0
 26
0.0
 36
1.0
 17
0.0
 27
0.0
 37
0.0
 40
196.9048847407041
 41
1.530456852791878
 42
50.0
 43
0.0
 44
0.0
 50
0.0
 51
0.0
 71
     0
 72
   100
 73
     1
 74
     1
 75
     0
 76
     0
 77
     0
 78
     0
281
     0
 65
     1
110
0.0
120
0.0
130
0.0
111
1.0
121
0.0
131
0.0
112
0.0
122
1.0
132
0.0
 79
     0
146
0.0
  0
ENDTAB
  0
TABLE
  2
LTYPE
  5
5
330
0
100
AcDbSymbolTable
 70
     5
  0
LTYPE
  5
12
330
5
100
AcDbSymbolTableRecord
100
AcDbLinetypeTableRecord
  2
BYBLOCK
 70
     0
  3

 72
    65
 73
     0
 40
0.0
  0
LTYPE
  5
13
330
5
100
AcDbSymbolTableRecord
100
AcDbLinetypeTableRecord
  2
BYLAYER
 70
     0
  3

 72
    65
 73
     0
 40
0.0
  0
LTYPE
  5
14
330
5
100
AcDbSymbolTableRecord
100
AcDbLinetypeTableRecord
  2
CONTINUOUS
 70
     0
  3
Solid line
 72
    65
 73
     0
 40
0.0
  0
LTYPE
  5
22
330
5
100
AcDbSymbolTableRecord
100
AcDbLinetypeTableRecord
  2
CENTER2
 70
     0
  3
Center (.5x) ___ _ ___ _ ___ _ ___ _ ___ _ ___
 72
    65
 73
     4
 40
28.575
 49
19.05
 74
     0
 49
-3.174999999999999
 74
     0
 49
3.174999999999999
 74
     0
 49
-3.174999999999999
 74
     0
  0
LTYPE
  5
23
330
5
100
AcDbSymbolTableRecord
100
AcDbLinetypeTableRecord
  2
HIDDEN2
 70
     0
  3
Hidden (.5x) _ _ _ _ _ _ _ _ _ _ _ _ _ _ _ _ _
 72
    65
 73
     2
 40
4.762499999999999
 49
3.174999999999999
 74
     0
 49
-1.587499999999999
 74
     0
  0
ENDTAB
  0
TABLE
  2
LAYER
  5
2
330
0
100
AcDbSymbolTable
 70
    14
  0
LAYER
  5
E
330
2
100
AcDbSymbolTableRecord
100
AcDbLayerTableRecord
  2
0
 70
     0
 62
     7
  6
CONTINUOUS
370
    -3
390
2985
  0
LAYER
  5
25
330
2
100
AcDbSymbolTableRecord
100
AcDbLayerTableRecord
  2
外形線
 70
     0
 62
     7
  6
CONTINUOUS
370
    -3
390
2985
  0
LAYER
  5
26
330
2
100
AcDbSymbolTableRecord
100
AcDbLayerTableRecord
  2
寸法線
 70
     0
 62
     2
  6
CONTINUOUS
370
    -3
390
2985
  0
LAYER
  5
27
330
2
100
AcDbSymbolTableRecord
100
AcDbLayerTableRecord
  2
中心線
 70
     0
 62
     4
  6
CENTER2
370
    -3
390
2985
  0
LAYER
  5
28
330
2
100
AcDbSymbolTableRecord
100
AcDbLayerTableRecord
  2
隠れ線
 70
     0
 62
     6
  6
HIDDEN2
370
    -3
390
2985
  0
LAYER
  5
2A
330
2
100
AcDbSymbolTableRecord
100
AcDbLayerTableRecord
  2
ﾊｯﾁﾝｸ
 70
     0
 62
     6
  6
CONTINUOUS
370
    -3
390
2985
  0
LAYER
  5
2B
330
2
100
AcDbSymbolTableRecord
100
AcDbLayerTableRecord
  2
文字
 70
     0
 62
     6
  6
CONTINUOUS
370
    -3
390
2985
  0
LAYER
  5
2C
330
2
100
AcDbSymbolTableRecord
100
AcDbLayerTableRecord
  2
目盛
 70
     0
 62
    70
  6
CONTINUOUS
370
    -3
390
2985
  0
LAYER
  5
2D
330
2
100
AcDbSymbolTableRecord
100
AcDbLayerTableRecord
  2
針
 70
     0
 62
     5
  6
CONTINUOUS
370
    -3
390
2985
  0
LAYER
  5
53
330
2
100
AcDbSymbolTableRecord
100
AcDbLayerTableRecord
  2
DEFPOINTS
 70
     0
 62
     7
  6
CONTINUOUS
290
     0
370
    -3
390
2985
  0
LAYER
  5
A5
330
2
100
AcDbSymbolTableRecord
100
AcDbLayerTableRecord
  2
C
 70
     0
 62
     7
  6
CONTINUOUS
370
    -3
390
2985
  0
LAYER
  5
AD4
330
2
100
AcDbSymbolTableRecord
100
AcDbLayerTableRecord
  2
ROGO
 70
     0
 62
     6
  6
CONTINUOUS
370
    -3
390
2985
  0
LAYER
  5
1F40
330
2
100
AcDbSymbolTableRecord
100
AcDbLayerTableRecord
  2
ASHADE
 70
     0
 62
     7
  6
CONTINUOUS
370
    -3
390
2985
  0
ENDTAB
  0
TABLE
  2
STYLE
  5
3
330
0
100
AcDbSymbolTable
 70
     3
  0
STYLE
  5
F
330
3
100
AcDbSymbolTableRecord
100
AcDbTextStyleTableRecord
  2
STANDARD
 70
     0
 40
0.0
 41
1.0
 50
0.0
 71
     0
 42
2.5
  3
txt
  4

  0
STYLE
  5
3F
330
3
100
AcDbSymbolTableRecord
100
AcDbTextStyleTableRecord
  2
STYLE3
 70
     0
 40
0.0
 41
1.0
 50
0.0
 71
     0
 42
1.5
  3
romans.shx
  4
bigfont.shx
  0
ENDTAB
  0
TABLE
  2
VIEW
  5
6
330
0
100
AcDbSymbolTable
 70
     0
  0
ENDTAB
  0
TABLE
  2
UCS
  5
7
330
0
100
AcDbSymbolTable
 70
     0
  0
ENDTAB
  0
TABLE
  2
APPID
  5
9
330
0
100
AcDbSymbolTable
 70
     7
  0
APPID
  5
10
330
9
100
AcDbSymbolTableRecord
100
AcDbRegAppTableRecord
  2
ACAD
 70
     0
  0
APPID
  5
1F42
330
9
100
AcDbSymbolTableRecord
100
AcDbRegAppTableRecord
  2
AVE_RENDER
 70
     0
  0
APPID
  5
1F43
330
9
100
AcDbSymbolTableRecord
100
AcDbRegAppTableRecord
  2
AVE_ENTITY_MATERIAL
 70
     0
  0
APPID
  5
1F44
330
9
100
AcDbSymbolTableRecord
100
AcDbRegAppTableRecord
  2
AVE_FINISH
 70
     0
  0
APPID
  5
1F45
330
9
100
AcDbSymbolTableRecord
100
AcDbRegAppTableRecord
  2
AVE_MATERIAL
 70
     0
  0
APPID
  5
1F46
330
9
100
AcDbSymbolTableRecord
100
AcDbRegAppTableRecord
  2
AVE_GLOBAL
 70
     0
  0
APPID
  5
2EEB
330
9
100
AcDbSymbolTableRecord
100
AcDbRegAppTableRecord
  2
ACAD_PSEXT
 70
     0
  0
ENDTAB
  0
TABLE
  2
DIMSTYLE
  5
A
330
0
100
AcDbSymbolTable
 70
     3
100
AcDbDimStyleTable
 71
     1
340
8F
  0
DIMSTYLE
105
1D
330
A
100
AcDbSymbolTableRecord
100
AcDbDimStyleTableRecord
  2
STANDARD
 70
     0
 41
2.5
 42
0.625
 43
3.75
 44
1.25
 73
     0
 74
     0
 77
     1
 78
     8
140
2.5
141
2.5
143
0.0394
147
0.625
171
     4
172
     1
273
     8
274
     4
277
     6
340
F
  0
DIMSTYLE
105
8F
330
A
100
AcDbSymbolTableRecord
100
AcDbDimStyleTableRecord
  2
STYLE3
 70
     0
 41
2.5
 42
0.0
 43
3.75
 44
1.25
 73
     0
 74
     0
 77
     1
 78
     8
140
2.5
141
2.5
143
0.0394
147
0.625
171
     4
172
     1
173
     1
176
     2
177
     2
178
     6
271
     1
273
     8
274
     4
340
3F
341
45
343
45
344
45
  0
ENDTAB
  0
TABLE
  2
BLOCK_RECORD
  5
1
330
0
100
AcDbSymbolTable
 70
    14
  0
BLOCK_RECORD
  5
18
330
1
100
AcDbSymbolTableRecord
100
AcDbBlockTableRecord
  2
*MODEL_SPACE
340
298C
  0
BLOCK_RECORD
  5
15
330
1
100
AcDbSymbolTableRecord
100
AcDbBlockTableRecord
  2
*PAPER_SPACE
340
298D
  0
BLOCK_RECORD
  5
45
330
1
100
AcDbSymbolTableRecord
100
AcDbBlockTableRecord
  2
_OPEN
340
0
102
{BLKREFS
331
1637
331
1638
331
1654
331
1669
331
166A
331
2628
331
2629
331
2632
331
2633
331
2699
331
269A
331
2829
331
282A
331
2831
331
2832
331
283A
331
283B
331
2843
331
2844
331
284F
331
2850
331
2857
331
2858
331
285F
331
2860
331
2868
331
2869
331
2871
331
2872
331
287A
331
287B
331
2883
331
2884
331
28A5
331
28A6
331
28AE
331
28AF
331
28B7
331
28B8
331
2969
331
296A
102
}
  0
BLOCK_RECORD
  5
ADD
330
1
100
AcDbSymbolTableRecord
100
AcDbBlockTableRecord
  2
ROGO1
340
0
102
{BLKREFS
331
B43
331
B44
331
FCB
331
FCC
331
1B90
331
1B91
331
1BCE
331
1BCF
331
21C9
331
21CA
331
21E1
331
21E2
102
}
  0
BLOCK_RECORD
  5
1ECD
330
1
100
AcDbSymbolTableRecord
100
AcDbBlockTableRecord
  2
AVE_RENDER
340
0
102
{BLKREFS
331
22B4
331
22B5
331
22B6
331
22B7
331
22B8
331
22B9
331
22BA
331
22BB
102
}
  0
BLOCK_RECORD
  5
1ED0
330
1
100
AcDbSymbolTableRecord
100
AcDbBlockTableRecord
  2
AVE_GLOBAL
340
0
102
{BLKREFS
331
22BC
102
}
  0
BLOCK_RECORD
  5
2992
102
{ACAD_XDICTIONARY
360
2993
102
}
330
1
100
AcDbSymbolTableRecord
100
AcDbBlockTableRecord
  2
PC_PCN針
340
0
102
{BLKREFS
331
2EE0
102
}
  0
ENDTAB
  0
ENDSEC
  0
SECTION
  2
BLOCKS
  0
BLOCK
  5
19
330
18
100
AcDbEntity
  8
0
100
AcDbBlockBegin
  2
*MODEL_SPACE
 70
     0
 10
0.0
 20
0.0
 30
0.0
  3
*MODEL_SPACE
  1

  0
ENDBLK
  5
1A
330
18
100
AcDbEntity
  8
0
100
AcDbBlockEnd
  0
BLOCK
  5
16
330
15
100
AcDbEntity
 67
     1
  8
0
100
AcDbBlockBegin
  2
*PAPER_SPACE
 70
     0
 10
0.0
 20
0.0
 30
0.0
  3
*PAPER_SPACE
  1

  0
ENDBLK
  5
17
330
15
100
AcDbEntity
 67
     1
  8
0
100
AcDbBlockEnd
  0
BLOCK
  5
46
330
45
100
AcDbEntity
  8
0
100
AcDbBlockBegin
  2
_OPEN
 70
     0
 10
0.0
 20
0.0
 30
0.0
  3
_OPEN
  1

  0
LINE
  5
47
330
45
100
AcDbEntity
  8
0
  6
ByBlock
 62
     0
100
AcDbLine
 10
-1.0
 20
0.1666666666666666
 30
0.0
 11
0.0
 21
0.0
 31
0.0
  0
LINE
  5
48
330
45
100
AcDbEntity
  8
0
  6
ByBlock
 62
     0
100
AcDbLine
 10
0.0
 20
0.0
 30
0.0
 11
-1.0
 21
-0.1666666666666666
 31
0.0
  0
LINE
  5
49
330
45
100
AcDbEntity
  8
0
  6
ByBlock
 62
     0
100
AcDbLine
 10
0.0
 20
0.0
 30
0.0
 11
-1.0
 21
0.0
 31
0.0
  0
ENDBLK
  5
4A
330
45
100
AcDbEntity
  8
0
100
AcDbBlockEnd
  0
BLOCK
  5
B2A
330
ADD
100
AcDbEntity
  8
0
100
AcDbBlockBegin
  2
ROGO1
 70
     0
 10
0.0
 20
0.0
 30
0.0
  3
ROGO1
  1

  0
MTEXT
  5
B42
330
ADD
100
AcDbEntity
  8
DEFPOINTS
  6
Continuous
100
AcDbMText
 10
1039.786461861274
 20
160.9640365185991
 30
0.0
 40
1.0
 41
0.0
 71
     4
 72
     1
  1
\A1;
 73
     1
 44
1.0
  0
ENDBLK
  5
B2B
330
ADD
100
AcDbEntity
  8
0
100
AcDbBlockEnd
  0
BLOCK
  5
1ECE
330
1ECD
100
AcDbEntity
  8
ASHADE
100
AcDbBlockBegin
  2
AVE_RENDER
 70
     0
 10
0.0
 20
0.0
 30
0.0
  3
AVE_RENDER
  1
AVE_RENDER
  0
ENDBLK
  5
1ECF
330
1ECD
100
AcDbEntity
  8
0
100
AcDbBlockEnd
  0
BLOCK
  5
1ED1
330
1ED0
100
AcDbEntity
  8
ASHADE
100
AcDbBlockBegin
  2
AVE_GLOBAL
 70
     0
 10
0.0
 20
0.0
 30
0.0
  3
AVE_GLOBAL
  1
AVE_GLOBAL
  0
ENDBLK
  5
1ED2
330
1ED0
100
AcDbEntity
  8
0
100
AcDbBlockEnd
  0
BLOCK
  5
2995
330
2992
100
AcDbEntity
  8
0
100
AcDbBlockBegin
  2
PC_PCN針
 70
     0
 10
0.0
 20
0.0
 30
0.0
  3
PC_PCN針
  1

  0
HATCH
  5
2996
330
2992
100
AcDbEntity
  8
針
 62
     5
100
AcDbHatch
 10
0.0
 20
0.0
 30
0.0
210
0.0
220
0.0
230
1.0
  2
SOLID
 70
     1
 71
     1
 91
        2
 92
        7
 72
     1
 73
     1
 93
        7
 10
-2.023904563850578
 20
-0.2645931338153105
 42
-0.1640812035095904
 10
-1.421638696153195
 20
-0.4784803210162636
 42
-0.0813437861988258
 10
-1.5
 20
0.0
 42
-0.0813437861988211
 10
-1.421638696153195
 20
0.4784803210162352
 42
-0.1640812035095877
 10
-2.023904563850578
 20
0.2645931338153105
 42
0.0
 10
-14.19999999999993
 20
0.07000000000005
 42
0.0
 10
-14.20000000000004
 20
-0.0700000000000216
 42
0.0
 97
        6
330
299A
330
299C
330
2997
330
299D
330
299B
330
29A3
 92
        7
 72
     1
 73
     1
 93
        9
 10
1.601307174430758
 20
0.4866168858272318
 42
-0.1053331282509662
 10
1.399713151580613
 20
0.5392616185973793
 42
-0.0921949713546931
 10
1.5
 20
0.0
 42
-0.0921949713546883
 10
1.399713151580613
 20
-0.5392616185973509
 42
-0.1053331282510194
 10
1.601307174430871
 20
-0.4866168858272318
 42
0.0
 10
6.657469727507077
 20
-0.256172195646343
 42
-0.2863987309427536
 10
6.842033426437637
 20
-0.359972204586029
 42
3.911320250910649
 10
6.842033426437637
 20
0.3599722045860858
 42
-0.2863987309427981
 10
6.657469727507077
 20
0.256172195646343
 42
0.0
 97
        8
330
29A1
330
299E
330
2999
330
29A3
330
2998
330
299F
330
29A2
330
29A0
 75
     0
 76
     1
 47
0.0259966004614645
 98
        2
 10
-6.998752094249084
 20
-0.0094903483859525
 10
3.014397170732763
 20
0.0944959703959967
450
        0
451
        0
460
0.0
461
0.0
452
        1
462
1.0
453
        2
463
0.0
 63
     5
421
      255
463
1.0
 63
    51
421
 16777113
470
LINEAR
  0
LINE
  5
2997
102
{ACAD_REACTORS
330
2996
102
}
330
2992
100
AcDbEntity
  8
針
100
AcDbLine
 10
-14.20000000000004
 20
0.0700000000000216
 30
0.0
 11
-14.20000000000004
 21
-0.0699999999999932
 31
0.0
  0
ARC
  5
2998
102
{ACAD_REACTORS
330
2996
102
}
330
2992
100
AcDbEntity
  8
針
100
AcDbCircle
 10
1.624072039381871
 20
-0.9860983779005323
 30
0.0
 40
0.5
100
AcDbArc
 50
92.60956348104661
 51
116.6614474826241
  0
ARC
  5
2999
102
{ACAD_REACTORS
330
2996
102
}
330
2992
100
AcDbEntity
  8
針
100
AcDbCircle
 10
1.624072039381871
 20
0.9860983779005323
 30
0.0
 40
0.5
100
AcDbArc
 50
243.3385525173759
 51
267.3904365189533
  0
ARC
  5
299A
102
{ACAD_REACTORS
330
2996
102
}
330
2992
100
AcDbEntity
  8
針
100
AcDbCircle
 10
-2.039884094318267
 20
1.264465452967101
 30
0.0
 40
1.0
100
AcDbArc
 50
270.9155986228672
 51
308.1881170613605
  0
ARC
  5
299B
102
{ACAD_REACTORS
330
2996
102
}
330
2992
100
AcDbEntity
  8
針
100
AcDbCircle
 10
-2.039884094318267
 20
-1.264465452967101
 30
0.0
 40
1.0
100
AcDbArc
 50
51.8118829386395
 51
89.08440137713276
  0
LINE
  5
299C
102
{ACAD_REACTORS
330
2996
102
}
330
2992
100
AcDbEntity
  8
針
100
AcDbLine
 10
-14.20000000000004
 20
0.0700000000000216
 30
0.0
 11
-2.023904563850578
 21
0.2645931338153105
 31
0.0
  0
LINE
  5
299D
102
{ACAD_REACTORS
330
2996
102
}
330
2992
100
AcDbEntity
  8
針
100
AcDbLine
 10
-2.023904563850578
 20
-0.2645931338153105
 30
0.0
 11
-14.20000000000004
 21
-0.0699999999999932
 31
0.0
  0
LINE
  5
299E
102
{ACAD_REACTORS
330
2996
102
}
330
2992
100
AcDbEntity
  8
針
100
AcDbLine
 10
1.601307174430758
 20
0.4866168858272318
 30
0.0
 11
6.657469727507077
 21
0.256172195646343
 31
0.0
  0
LINE
  5
299F
102
{ACAD_REACTORS
330
2996
102
}
330
2992
100
AcDbEntity
  8
針
100
AcDbLine
 10
1.601307174430758
 20
-0.4866168858272318
 30
0.0
 11
6.657469727507077
 21
-0.256172195646343
 31
0.0
  0
ARC
  5
29A0
102
{ACAD_REACTORS
330
2996
102
}
330
2992
100
AcDbEntity
  8
針
100
AcDbCircle
 10
7.5
 20
0.0
 30
0.0
 40
0.75
100
AcDbArc
 50
208.6829815593726
 51
151.3170184406274
  0
ARC
  5
29A1
102
{ACAD_REACTORS
330
2996
102
}
330
2992
100
AcDbEntity
  8
針
100
AcDbCircle
 10
6.666575673487614
 20
0.4559647924756405
 30
0.0
 40
0.2
100
AcDbArc
 50
267.3904365189468
 51
331.3170184406275
  0
ARC
  5
29A2
102
{ACAD_REACTORS
330
2996
102
}
330
2992
100
AcDbEntity
  8
針
100
AcDbCircle
 10
6.666575673487614
 20
-0.4559647924756405
 30
0.0
 40
0.2
100
AcDbArc
 50
28.68298155937256
 51
92.60956348105315
  0
CIRCLE
  5
29A3
102
{ACAD_REACTORS
330
2996
102
}
330
2992
100
AcDbEntity
  8
外形線
100
AcDbCircle
 10
0.0
 20
0.0
 30
0.0
 40
1.5
  0
CIRCLE
  5
29A4
330
2992
100
AcDbEntity
  8
外形線
 62
     4
100
AcDbCircle
 10
0.0
 20
0.0
 30
0.0
 40
0.25
  0
ENDBLK
  5
29A5
330
2992
100
AcDbEntity
  8
0
100
AcDbBlockEnd
  0
ENDSEC
  0
SECTION
  2
ENTITIES
  0
LWPOLYLINE
  5
10B
330
18
100
AcDbEntity
  8
C
100
AcDbPolyline
 90
        5
 70
     0
 43
0.4
 10
236.6915604445414
 20
366.8501752555372
 10
491.6915604445414
 20
366.8501752555372
 10
491.6915604445414
 20
171.8501752555372
 10
236.6915604445414
 20
171.8501752555372
 10
236.6915604445414
 20
366.8501752555372
  0
INSERT
  5
B43
330
18
100
AcDbEntity
  8
文字
100
AcDbBlockReference
  2
ROGO1
 10
301.1334577592202
 20
275.1168679656769
 30
0.0
  0
INSERT
  5
B44
330
18
100
AcDbEntity
  8
文字
100
AcDbBlockReference
  2
ROGO1
 10
301.1095809474122
 20
275.1436630917189
 30
0.0
  0
INSERT
  5
FCB
330
18
100
AcDbEntity
  8
文字
100
AcDbBlockReference
  2
ROGO1
 10
579.0605083803766
 20
282.754069537204
 30
0.0
  0
INSERT
  5
FCC
330
18
100
AcDbEntity
  8
文字
100
AcDbBlockReference
  2
ROGO1
 10
579.0366315685687
 20
282.780864663246
 30
0.0
  0
LINE
  5
1203
330
18
100
AcDbEntity
  8
中心線
 48
0.5
100
AcDbLine
 10
361.205588832796
 20
242.375154661575
 30
0.0
 11
375.9405046051362
 21
242.375154661575
 31
0.0
  0
ARC
  5
1204
330
18
100
AcDbEntity
  8
外形線
100
AcDbCircle
 10
368.6387035940557
 20
242.3751546615749
 30
0.0
 40
3.0
100
AcDbArc
 50
54.59406822686052
 51
215.4059317731395
  0
ARC
  5
1205
330
18
100
AcDbEntity
  8
外形線
100
AcDbCircle
 10
368.6387035940557
 20
242.3751546615749
 30
0.0
 40
3.0
100
AcDbArc
 50
234.5940682268605
 51
35.4059317731395
  0
LINE
  5
1206
330
18
100
AcDbEntity
  8
外形線
100
AcDbLine
 10
370.7600239376153
 20
243.789368223948
 30
0.0
 11
371.0839070509842
 21
244.1132513373168
 31
0.0
  0
LINE
  5
1208
330
18
100
AcDbEntity
  8
外形線
100
AcDbLine
 10
367.2244900316826
 20
240.2538343180153
 30
0.0
 11
366.5173832504961
 21
240.9609410992019
 31
0.0
  0
LINE
  5
1209
330
18
100
AcDbEntity
  8
外形線
100
AcDbLine
 10
367.2244900316826
 20
240.2538343180153
 30
0.0
 11
366.9006069183139
 21
239.9299512046464
 31
0.0
  0
LINE
  5
120A
330
18
100
AcDbEntity
  8
外形線
100
AcDbLine
 10
366.5173832504961
 20
240.9609410992019
 30
0.0
 11
366.1935001371272
 21
240.637057985833
 31
0.0
  0
LINE
  5
120B
330
18
100
AcDbEntity
  8
外形線
100
AcDbLine
 10
370.7600239376153
 20
243.789368223948
 30
0.0
 11
370.0529171564288
 21
244.4964750051345
 31
0.0
  0
LINE
  5
120C
330
18
100
AcDbEntity
  8
外形線
100
AcDbLine
 10
370.0529171564288
 20
244.4964750051345
 30
0.0
 11
370.3768002697976
 21
244.8203581185034
 31
0.0
  0
LINE
  5
120D
330
18
100
AcDbEntity
  8
外形線
100
AcDbLine
 10
367.2244900316826
 20
240.9609410992019
 30
0.0
 11
370.0529171564288
 21
243.7893682239481
 31
0.0
  0
CIRCLE
  5
1210
330
18
100
AcDbEntity
  8
外形線
100
AcDbCircle
 10
368.6387035940557
 20
242.375154661575
 30
0.0
 40
2.0
  0
LINE
  5
1249
330
18
100
AcDbEntity
  8
外形線
100
AcDbLine
 10
405.1848560167624
 20
273.875154661575
 30
0.0
 11
389.9887035940558
 21
273.875154661575
 31
0.0
  0
LINE
  5
124A
330
18
100
AcDbEntity
  8
外形線
100
AcDbLine
 10
405.1848560167624
 20
279.875154661575
 30
0.0
 11
389.9887035940558
 21
279.875154661575
 31
0.0
  0
LINE
  5
1253
330
18
100
AcDbEntity
  8
外形線
100
AcDbLine
 10
389.9887035940558
 20
279.875154661575
 30
0.0
 11
389.9887035940558
 21
273.875154661575
 31
0.0
  0
LINE
  5
1259
330
18
100
AcDbEntity
  8
外形線
100
AcDbLine
 10
405.1848560167624
 20
279.875154661575
 30
0.0
 11
405.1848560167624
 21
273.875154661575
 31
0.0
  0
ARC
  5
125A
330
18
100
AcDbEntity
  8
外形線
100
AcDbCircle
 10
399.9887035940558
 20
276.875154661575
 30
0.0
 40
6.0
100
AcDbArc
 50
330.0
 51
29.99999999999998
  0
LINE
  5
12CA
330
18
100
AcDbEntity
  8
外形線
100
AcDbLine
 10
393.9887035940559
 20
292.3114126929822
 30
0.0
 11
393.9887035940559
 21
289.1614126929823
 31
0.0
  0
LINE
  5
12CC
330
18
100
AcDbEntity
  8
外形線
100
AcDbLine
 10
393.788703594056
 20
292.5114126929821
 30
0.0
 11
359.1887035940561
 21
292.5114126929823
 31
0.0
  0
LINE
  5
12CD
330
18
100
AcDbEntity
  8
外形線
100
AcDbLine
 10
393.6387035940559
 20
288.8114126929822
 30
0.0
 11
359.338703594056
 21
288.8114126929822
 31
0.0
  0
LINE
  5
12CE
330
18
100
AcDbEntity
  8
外形線
100
AcDbLine
 10
393.6387035940559
 20
287.8114126929822
 30
0.0
 11
359.338703594056
 21
287.8114126929822
 31
0.0
  0
LINE
  5
12CF
330
18
100
AcDbEntity
  8
外形線
 48
0.5
100
AcDbLine
 10
393.788703594056
 20
292.5114126929822
 30
0.0
 11
393.9887035940559
 21
292.3114126929822
 31
0.0
  0
LINE
  5
12D0
330
18
100
AcDbEntity
  8
外形線
100
AcDbLine
 10
393.9887035940559
 20
289.1614126929823
 30
0.0
 11
393.6387035940559
 21
288.8114126929822
 31
0.0
  0
LINE
  5
12EF
330
18
100
AcDbEntity
  8
外形線
100
AcDbLine
 10
358.9887035940559
 20
289.1614126929823
 30
0.0
 11
359.338703594056
 21
288.8114126929822
 31
0.0
  0
LINE
  5
12F0
330
18
100
AcDbEntity
  8
外形線
 48
0.5
100
AcDbLine
 10
359.1887035940559
 20
292.5114126929822
 30
0.0
 11
358.9887035940559
 21
292.3114126929822
 31
0.0
  0
LINE
  5
12F1
330
18
100
AcDbEntity
  8
外形線
100
AcDbLine
 10
358.9887035940559
 20
292.3114126929822
 30
0.0
 11
358.9887035940559
 21
289.1614126929823
 31
0.0
  0
LINE
  5
12F5
330
18
100
AcDbEntity
  8
外形線
100
AcDbLine
 10
392.9887035940559
 20
293.0114126929822
 30
0.0
 11
359.988703594056
 21
293.0114126929822
 31
0.0
  0
LINE
  5
12FF
330
18
100
AcDbEntity
  8
外形線
100
AcDbLine
 10
393.6387035940559
 20
288.8114126929822
 30
0.0
 11
393.6387035940559
 21
287.8114126929822
 31
0.0
  0
LINE
  5
1300
330
18
100
AcDbEntity
  8
外形線
100
AcDbLine
 10
359.338703594056
 20
288.8114126929822
 30
0.0
 11
359.338703594056
 21
287.8114126929822
 31
0.0
  0
LINE
  5
1308
330
18
100
AcDbEntity
  8
外形線
100
AcDbLine
 10
392.988703594056
 20
293.0114126929822
 30
0.0
 11
393.488703594056
 21
292.5114126929821
 31
0.0
  0
LINE
  5
1309
330
18
100
AcDbEntity
  8
外形線
100
AcDbLine
 10
359.988703594056
 20
293.0114126929822
 30
0.0
 11
359.4887035940559
 21
292.5114126929821
 31
0.0
  0
LINE
  5
1312
330
18
100
AcDbEntity
  8
外形線
100
AcDbLine
 10
393.288703594056
 20
292.5114126929821
 30
0.0
 11
393.288703594056
 21
288.8114126929822
 31
0.0
  0
LINE
  5
1313
330
18
100
AcDbEntity
  8
外形線
100
AcDbLine
 10
392.588703594056
 20
292.5114126929821
 30
0.0
 11
392.588703594056
 21
288.8114126929822
 31
0.0
  0
LINE
  5
1314
330
18
100
AcDbEntity
  8
外形線
100
AcDbLine
 10
391.788703594056
 20
292.5114126929821
 30
0.0
 11
391.7887035940559
 21
288.8114126929822
 31
0.0
  0
LINE
  5
1315
330
18
100
AcDbEntity
  8
外形線
100
AcDbLine
 10
390.988703594056
 20
292.5114126929821
 30
0.0
 11
390.988703594056
 21
288.8114126929822
 31
0.0
  0
LINE
  5
1316
330
18
100
AcDbEntity
  8
外形線
100
AcDbLine
 10
390.088703594056
 20
292.5114126929821
 30
0.0
 11
390.088703594056
 21
288.8114126929822
 31
0.0
  0
LINE
  5
1328
330
18
100
AcDbEntity
  8
外形線
100
AcDbLine
 10
377.1887035940559
 20
292.5114126929822
 30
0.0
 11
377.1887035940559
 21
288.8114126929822
 31
0.0
  0
LINE
  5
1329
330
18
100
AcDbEntity
  8
外形線
100
AcDbLine
 10
375.788703594056
 20
292.5114126929822
 30
0.0
 11
375.788703594056
 21
288.8114126929822
 31
0.0
  0
LINE
  5
132A
330
18
100
AcDbEntity
  8
外形線
100
AcDbLine
 10
377.9887035940559
 20
292.5114126929822
 30
0.0
 11
377.9887035940559
 21
288.8114126929822
 31
0.0
  0
LINE
  5
132B
330
18
100
AcDbEntity
  8
外形線
100
AcDbLine
 10
374.988703594056
 20
292.5114126929822
 30
0.0
 11
374.988703594056
 21
288.8114126929822
 31
0.0
  0
LINE
  5
132C
330
18
100
AcDbEntity
  8
外形線
100
AcDbLine
 10
376.488703594056
 20
292.5114126929823
 30
0.0
 11
376.488703594056
 21
288.8114126929823
 31
0.0
  0
LINE
  5
132D
330
18
100
AcDbEntity
  8
外形線
100
AcDbLine
 10
362.8887035940559
 20
292.5114126929821
 30
0.0
 11
362.8887035940559
 21
288.8114126929822
 31
0.0
  0
LINE
  5
132E
330
18
100
AcDbEntity
  8
外形線
100
AcDbLine
 10
361.988703594056
 20
292.5114126929821
 30
0.0
 11
361.988703594056
 21
288.8114126929822
 31
0.0
  0
LINE
  5
132F
330
18
100
AcDbEntity
  8
外形線
100
AcDbLine
 10
361.1887035940559
 20
292.5114126929821
 30
0.0
 11
361.188703594056
 21
288.8114126929822
 31
0.0
  0
LINE
  5
1330
330
18
100
AcDbEntity
  8
外形線
100
AcDbLine
 10
360.3887035940559
 20
292.5114126929821
 30
0.0
 11
360.3887035940559
 21
288.8114126929822
 31
0.0
  0
LINE
  5
1331
330
18
100
AcDbEntity
  8
外形線
100
AcDbLine
 10
359.688703594056
 20
292.5114126929821
 30
0.0
 11
359.688703594056
 21
288.8114126929822
 31
0.0
  0
LINE
  5
1336
330
18
100
AcDbEntity
  8
外形線
100
AcDbLine
 10
391.488703594056
 20
287.8114126929822
 30
0.0
 11
391.488703594056
 21
287.3751546615746
 31
0.0
  0
LINE
  5
1339
330
18
100
AcDbEntity
  8
外形線
100
AcDbLine
 10
361.4887035940559
 20
287.8114126929822
 30
0.0
 11
361.4887035940559
 21
287.3751546615748
 31
0.0
  0
ARC
  5
133C
330
18
100
AcDbEntity
  8
外形線
100
AcDbCircle
 10
376.4887035940559
 20
232.9961230769979
 30
0.0
 40
62.37903158457702
100
AcDbArc
 50
76.4545064755762
 51
103.5454935244236
  0
LINE
  5
1343
330
18
100
AcDbEntity
  8
外形線
100
AcDbLine
 10
391.4818472194988
 20
293.1539433308714
 30
0.0
 11
391.4818472194988
 21
293.0114126929823
 31
0.0
  0
ARC
  5
1345
330
18
100
AcDbEntity
  8
外形線
100
AcDbCircle
 10
390.9818472194987
 20
293.1539433308715
 30
0.0
 40
0.5
100
AcDbArc
 50
359.9999999999935
 51
76.45450647557509
  0
ARC
  5
1346
330
18
100
AcDbEntity
  8
外形線
100
AcDbCircle
 10
361.9955599686132
 20
293.1539433308715
 30
0.0
 40
0.5
100
AcDbArc
 50
103.5454935244249
 51
180.0000000000065
  0
LINE
  5
1347
330
18
100
AcDbEntity
  8
外形線
100
AcDbLine
 10
361.4955599686131
 20
293.1539433308714
 30
0.0
 11
361.4955599686131
 21
293.0114126929823
 31
0.0
  0
POINT
  5
14D3
330
18
100
AcDbEntity
  8
DEFPOINTS
  6
ByBlock
 62
     0
100
AcDbPoint
 10
368.6387035940557
 20
242.375154661575
 30
0.0
  0
POINT
  5
14D4
330
18
100
AcDbEntity
  8
DEFPOINTS
  6
ByBlock
 62
     0
100
AcDbPoint
 10
368.6387035940557
 20
242.375154661575
 30
0.0
  0
CIRCLE
  5
14E2
102
{ACAD_REACTORS
330
14E5
102
}
330
18
100
AcDbEntity
  8
外形線
100
AcDbCircle
 10
363.7038090322795
 20
260.4077292257019
 30
0.0
 40
0.222687898198611
  0
HATCH
  5
14E5
330
18
100
AcDbEntity
  8
外形線
100
AcDbHatch
 10
0.0
 20
0.0
 30
0.0
210
0.0
220
0.0
230
1.0
  2
SOLID
 70
     1
 71
     1
 91
        1
 92
        7
 72
     1
 73
     1
 93
        2
 10
363.9264969304781
 20
260.4077292257019
 42
1.0
 10
363.4811211340809
 20
260.4077292257019
 42
1.0
 97
        1
330
14E2
 75
     0
 76
     1
 47
0.0124670341605454
 98
        1
 10
363.7617863336259
 20
260.3845572856108
450
        0
451
        0
460
0.0
461
0.0
452
        0
462
0.0
453
        0
470

  0
TEXT
  5
14EC
330
18
100
AcDbEntity
  8
寸法線
 62
     6
100
AcDbText
 10
384.4343484133781
 20
243.9586754208488
 30
0.0
 40
2.5
  1
B
  7
STYLE3
100
AcDbText
  0
CIRCLE
  5
14EE
102
{ACAD_REACTORS
330
14F1
102
}
330
18
100
AcDbEntity
  8
外形線
100
AcDbCircle
 10
379.2149705003284
 20
249.9000071538571
 30
0.0
 40
0.222687898198611
  0
HATCH
  5
14F1
330
18
100
AcDbEntity
  8
外形線
100
AcDbHatch
 10
0.0
 20
0.0
 30
0.0
210
0.0
220
0.0
230
1.0
  2
SOLID
 70
     1
 71
     1
 91
        1
 92
        7
 72
     1
 73
     1
 93
        2
 10
379.4376583985271
 20
249.9000071538571
 42
1.0
 10
378.9922826021298
 20
249.9000071538571
 42
1.0
 97
        1
330
14EE
 75
     0
 76
     1
 47
0.0200805185115556
 98
        1
 10
379.3394866037441
 20
249.7832207258789
450
        0
451
        0
460
0.0
461
0.0
452
        0
462
0.0
453
        0
470

  0
LINE
  5
157C
330
18
100
AcDbEntity
  8
外形線
100
AcDbLine
 10
464.6789633114909
 20
251.8652035744945
 30
0.0
 11
477.5593566314027
 21
251.8652035744945
 31
0.0
  0
LINE
  5
157F
330
18
100
AcDbEntity
  8
外形線
100
AcDbLine
 10
453.8842191998164
 20
255.1652035744945
 30
0.0
 11
466.5842191998165
 21
255.1652035744945
 31
0.0
  0
LINE
  5
1584
330
18
100
AcDbEntity
  8
外形線
100
AcDbLine
 10
464.6789633114909
 20
251.8652035744945
 30
0.0
 11
466.5842191998165
 21
255.1652035744945
 31
0.0
  0
LINE
  5
1585
330
18
100
AcDbEntity
  8
外形線
100
AcDbLine
 10
455.7894750881422
 20
251.8652035744945
 30
0.0
 11
453.8842191998164
 21
255.1652035744945
 31
0.0
  0
LINE
  5
1586
330
18
100
AcDbEntity
  8
外形線
100
AcDbLine
 10
455.7894750881422
 20
251.8652035744945
 30
0.0
 11
442.9090817682304
 21
251.8652035744945
 31
0.0
  0
CIRCLE
  5
1588
330
18
100
AcDbEntity
  8
外形線
100
AcDbCircle
 10
453.1942191998163
 20
253.3652035744944
 30
0.0
 40
1.5
  0
CIRCLE
  5
1589
330
18
100
AcDbEntity
  8
外形線
100
AcDbCircle
 10
467.2742191998166
 20
253.3652035744944
 30
0.0
 40
1.5
  0
LINE
  5
158C
330
18
100
AcDbEntity
  8
中心線
100
AcDbLine
 10
450.2574136952673
 20
253.3652035744944
 30
0.0
 11
456.3344778757791
 21
253.3652035744944
 31
0.0
  0
LINE
  5
158D
330
18
100
AcDbEntity
  8
中心線
100
AcDbLine
 10
467.2742191998166
 20
256.7816256886359
 30
0.0
 11
467.2742191998166
 21
249.6409760048042
 31
0.0
  0
LINE
  5
158E
330
18
100
AcDbEntity
  8
中心線
100
AcDbLine
 10
453.1942191998163
 20
256.7816256886359
 30
0.0
 11
453.1942191998163
 21
249.6409760048042
 31
0.0
  0
LINE
  5
1591
330
18
100
AcDbEntity
  8
中心線
100
AcDbLine
 10
464.36574091771
 20
253.3652035744945
 30
0.0
 11
470.5989608599948
 21
253.3652035744944
 31
0.0
  0
LINE
  5
15A3
330
18
100
AcDbEntity
  8
寸法線
100
AcDbLine
 10
442.9090817682304
 20
249.696447440253
 30
0.0
 11
445.0778379024718
 21
251.8652035744945
 31
0.0
  0
LINE
  5
15A4
330
18
100
AcDbEntity
  8
寸法線
100
AcDbLine
 10
442.9090817682304
 20
245.2063193797183
 30
0.0
 11
449.5679659630065
 21
251.8652035744945
 31
0.0
  0
LINE
  5
15A5
330
18
100
AcDbEntity
  8
寸法線
100
AcDbLine
 10
445.9637671013445
 20
243.7708766522979
 30
0.0
 11
454.0580940235411
 21
251.8652035744945
 31
0.0
  0
LINE
  5
15A6
330
18
100
AcDbEntity
  8
寸法線
100
AcDbLine
 10
455.1557456348668
 20
252.9628551858203
 30
0.0
 11
457.3580940235411
 21
255.1652035744945
 31
0.0
  0
LINE
  5
15A7
330
18
100
AcDbEntity
  8
寸法線
100
AcDbLine
 10
450.453895161879
 20
243.7708766522979
 30
0.0
 11
461.8482220840758
 21
255.1652035744946
 31
0.0
  0
LINE
  5
15A8
330
18
100
AcDbEntity
  8
寸法線
100
AcDbLine
 10
454.9440232224136
 20
243.7708766522979
 30
0.0
 11
466.3383501446103
 21
255.1652035744946
 31
0.0
  0
LINE
  5
15A9
330
18
100
AcDbEntity
  8
寸法線
100
AcDbLine
 10
459.4341512829481
 20
243.7708766522979
 30
0.0
 11
467.5284782051448
 21
251.8652035744946
 31
0.0
  0
LINE
  5
15AA
330
18
100
AcDbEntity
  8
寸法線
100
AcDbLine
 10
463.9242793434829
 20
243.7708766522979
 30
0.0
 11
472.0186062656794
 21
251.8652035744945
 31
0.0
  0
LINE
  5
15AB
330
18
100
AcDbEntity
  8
寸法線
100
AcDbLine
 10
468.4144074040172
 20
243.7708766522979
 30
0.0
 11
476.5087343262139
 21
251.8652035744945
 31
0.0
  0
LINE
  5
15AC
330
18
100
AcDbEntity
  8
寸法線
100
AcDbLine
 10
472.904535464552
 20
243.770876652298
 30
0.0
 11
477.5593566314027
 21
248.4256978191486
 31
0.0
  0
LINE
  5
1634
330
18
100
AcDbEntity
  8
0
  6
ByBlock
 62
     2
100
AcDbLine
 10
466.5842191998165
 20
255.1652035744945
 30
0.0
 11
478.2041129088187
 21
275.2914498570371
 31
0.0
  0
LINE
  5
1635
330
18
100
AcDbEntity
  8
0
  6
ByBlock
 62
     2
100
AcDbLine
 10
453.8842191998164
 20
255.1652035744945
 30
0.0
 11
442.2643254908141
 21
275.2914498570369
 31
0.0
  0
ARC
  5
1636
330
18
100
AcDbEntity
  8
0
  6
ByBlock
 62
     2
100
AcDbCircle
 10
460.2342191998165
 20
244.1666809464317
 30
0.0
 40
34.6897874180055
100
AcDbArc
 50
64.13004734756665
 51
115.869952652434
  0
INSERT
  5
1637
330
18
100
AcDbEntity
  8
0
  6
ByBlock
 62
     2
100
AcDbBlockReference
  2
_OPEN
 10
477.5791129088187
 20
274.2089181023065
 30
0.0
 41
2.5
 42
2.5
 43
2.5
 50
332.0650236737839
  0
INSERT
  5
1638
330
18
100
AcDbEntity
  8
0
  6
ByBlock
 62
     2
100
AcDbBlockReference
  2
_OPEN
 10
442.8893254908141
 20
274.2089181023064
 30
0.0
 41
2.5
 42
2.5
 43
2.5
 50
207.9349763262168
  0
MTEXT
  5
1639
330
18
100
AcDbEntity
  8
0
  6
ByBlock
 62
     6
100
AcDbMText
 10
461.7286802980397
 20
280.7314683644372
 30
0.0
 40
2.5
 41
0.0
 71
     5
 72
     1
  1
\A1;60°
  7
STYLE3
 73
     1
 44
1.0
  0
POINT
  5
163A
330
18
100
AcDbEntity
  8
DEFPOINTS
  6
ByBlock
 62
     0
100
AcDbPoint
 10
466.2580375686061
 20
278.3294525460289
 30
0.0
  0
POINT
  5
163B
330
18
100
AcDbEntity
  8
DEFPOINTS
  6
ByBlock
 62
     0
100
AcDbPoint
 10
455.7894750881422
 20
251.8652035744945
 30
0.0
  0
POINT
  5
163C
330
18
100
AcDbEntity
  8
DEFPOINTS
  6
ByBlock
 62
     0
100
AcDbPoint
 10
464.6789633114909
 20
251.8652035744945
 30
0.0
  0
POINT
  5
163D
330
18
100
AcDbEntity
  8
DEFPOINTS
  6
ByBlock
 62
     0
100
AcDbPoint
 10
466.5842191998165
 20
255.1652035744945
 30
0.0
  0
POINT
  5
163E
330
18
100
AcDbEntity
  8
DEFPOINTS
  6
ByBlock
 62
     0
100
AcDbPoint
 10
453.8842191998164
 20
255.1652035744945
 30
0.0
  0
LINE
  5
164E
330
18
100
AcDbEntity
  8
0
  6
ByBlock
 62
     2
100
AcDbLine
 10
450.9618242495291
 20
260.2269401081751
 30
0.0
 11
442.2643254908142
 21
275.291449857037
 31
0.0
  0
LINE
  5
164F
330
18
100
AcDbEntity
  8
0
  6
ByBlock
 62
     2
100
AcDbLine
 10
451.8951810941397
 20
252.6152035744944
 30
0.0
 11
439.6683645217313
 21
273.7926710927313
 31
0.0
  0
LINE
  5
1651
330
18
100
AcDbEntity
  8
0
  6
ByBlock
 62
     2
100
AcDbLine
 10
438.1283010122701
 20
271.4601393380007
 30
0.0
 11
435.963237502809
 21
270.2101393380007
 31
0.0
  0
LINE
  5
1652
330
18
100
AcDbEntity
  8
0
  6
ByBlock
 62
     2
100
AcDbLine
 10
442.8893254908141
 20
274.2089181023064
 30
0.0
 11
440.2933645217313
 21
272.7101393380007
 31
0.0
  0
INSERT
  5
1654
330
18
100
AcDbEntity
  8
0
  6
ByBlock
 62
     2
100
AcDbBlockReference
  2
_OPEN
 10
440.2933645217313
 20
272.7101393380007
 30
0.0
 41
2.5
 42
2.5
 43
2.5
 50
29.99999999999951
  0
MTEXT
  5
1655
330
18
100
AcDbEntity
  8
0
  6
ByBlock
 62
     6
100
AcDbMText
 10
438.3450930976399
 20
275.0833263522494
 30
0.0
 40
2.5
 41
0.0
 71
     5
 72
     1
  1
φ1.5
  7
STYLE3
 11
0.8660254037844429
 21
0.4999999999999926
 31
0.0
 73
     1
 44
1.0
  0
POINT
  5
1656
330
18
100
AcDbEntity
  8
DEFPOINTS
  6
ByBlock
 62
     0
100
AcDbPoint
 10
450.9618242495291
 20
260.2269401081751
 30
0.0
 50
60.00000000000049
  0
POINT
  5
1657
330
18
100
AcDbEntity
  8
DEFPOINTS
  6
ByBlock
 62
     0
100
AcDbPoint
 10
451.8951810941397
 20
252.6152035744944
 30
0.0
 50
60.00000000000049
  0
POINT
  5
1658
330
18
100
AcDbEntity
  8
DEFPOINTS
  6
ByBlock
 62
     0
100
AcDbPoint
 10
440.2933645217313
 20
272.7101393380007
 30
0.0
 50
60.00000000000049
  0
LINE
  5
1664
330
18
100
AcDbEntity
  8
0
  6
ByBlock
 62
     2
100
AcDbLine
 10
466.5842191998165
 20
255.1652035744945
 30
0.0
 11
484.3403689535425
 21
255.1652035744945
 31
0.0
  0
LINE
  5
1665
330
18
100
AcDbEntity
  8
0
  6
ByBlock
 62
     2
100
AcDbLine
 10
477.5593566314027
 20
251.8652035744945
 30
0.0
 11
484.3403689535425
 21
251.8652035744945
 31
0.0
  0
LINE
  5
1666
330
18
100
AcDbEntity
  8
0
  6
ByBlock
 62
     2
100
AcDbLine
 10
483.0903689535425
 20
257.6652035744944
 30
0.0
 11
483.0903689535425
 21
260.1652035744944
 31
0.0
  0
LINE
  5
1667
330
18
100
AcDbEntity
  8
0
  6
ByBlock
 62
     2
100
AcDbLine
 10
483.0903689535425
 20
249.3652035744945
 30
0.0
 11
483.0903689535425
 21
240.9922715324988
 31
0.0
  0
LINE
  5
1668
330
18
100
AcDbEntity
  8
0
  6
ByBlock
 62
     2
100
AcDbLine
 10
483.0903689535425
 20
255.1652035744945
 30
0.0
 11
483.0903689535425
 21
251.8652035744945
 31
0.0
  0
INSERT
  5
1669
330
18
100
AcDbEntity
  8
0
  6
ByBlock
 62
     2
100
AcDbBlockReference
  2
_OPEN
 10
483.0903689535425
 20
255.1652035744945
 30
0.0
 41
2.5
 42
2.5
 43
2.5
 50
270.0
  0
INSERT
  5
166A
330
18
100
AcDbEntity
  8
0
  6
ByBlock
 62
     2
100
AcDbBlockReference
  2
_OPEN
 10
483.0903689535425
 20
251.8652035744945
 30
0.0
 41
2.5
 42
2.5
 43
2.5
 50
90.0
  0
MTEXT
  5
166B
330
18
100
AcDbEntity
  8
0
  6
ByBlock
 62
     6
100
AcDbMText
 10
481.2153689535425
 20
244.8523782557158
 30
0.0
 40
2.5
 41
0.0
 71
     5
 72
     1
  1
\A1;1.65
  7
STYLE3
 11
0.0000000000000001
 21
1.0
 31
0.0
 73
     1
 44
1.0
  0
POINT
  5
166C
330
18
100
AcDbEntity
  8
DEFPOINTS
  6
ByBlock
 62
     0
100
AcDbPoint
 10
466.5842191998165
 20
255.1652035744945
 30
0.0
  0
POINT
  5
166D
330
18
100
AcDbEntity
  8
DEFPOINTS
  6
ByBlock
 62
     0
100
AcDbPoint
 10
477.5593566314027
 20
251.8652035744945
 30
0.0
  0
POINT
  5
166E
330
18
100
AcDbEntity
  8
DEFPOINTS
  6
ByBlock
 62
     0
100
AcDbPoint
 10
483.0903689535425
 20
251.8652035744945
 30
0.0
  0
TEXT
  5
166F
330
18
100
AcDbEntity
  8
文字
100
AcDbText
 10
438.3580597110999
 20
230.2994229138317
 30
0.0
 40
4.0
  1
A.B.C 断面図 
  7
STYLE3
100
AcDbText
  0
TEXT
  5
1670
330
18
100
AcDbEntity
  8
文字
100
AcDbText
 10
472.5008066140295
 20
230.4116472897107
 30
0.0
 40
3.0
  1
S=2／1
  7
STYLE3
100
AcDbText
  0
LINE
  5
1671
330
18
100
AcDbEntity
  8
外形線
100
AcDbLine
 10
438.0211243738712
 20
229.6260766585581
 30
0.0
 11
487.887504945639
 21
229.6260766585581
 31
0.0
  0
LINE
  5
1700
330
18
100
AcDbEntity
  8
中心線
 48
0.5
100
AcDbLine
 10
368.6387035940557
 20
247.3871231023969
 30
0.0
 11
368.6387035940557
 21
218.0449703570392
 31
0.0
  0
LINE
  5
1715
330
18
100
AcDbEntity
  8
外形線
100
AcDbLine
 10
361.988703594056
 20
286.8751546615749
 30
0.0
 11
390.988703594056
 21
286.8751546615746
 31
0.0
  0
ARC
  5
1717
330
18
100
AcDbEntity
  8
外形線
100
AcDbCircle
 10
368.6387035940557
 20
242.3751546615749
 30
0.0
 40
4.0
100
AcDbArc
 50
180.0
 51
332.6209851501372
  0
LINE
  5
1718
330
18
100
AcDbEntity
  8
外形線
100
AcDbLine
 10
362.9887035940559
 20
286.7751546615748
 30
0.0
 11
362.9887035940557
 21
248.3774720181713
 31
0.0
  0
LINE
  5
171A
330
18
100
AcDbEntity
  8
外形線
100
AcDbLine
 10
376.8471721170103
 20
245.0984488668396
 30
0.0
 11
375.2163252710721
 21
245.4749595281641
 31
0.0
  0
LINE
  5
171B
330
18
100
AcDbEntity
  8
外形線
100
AcDbLine
 10
364.6387035940557
 20
286.8751546615747
 30
0.0
 11
364.6387035940557
 21
242.3751546615749
 31
0.0
  0
LINE
  5
171E
330
18
100
AcDbEntity
  8
外形線
100
AcDbLine
 10
389.9887035940559
 20
286.7751546615746
 30
0.0
 11
389.9887035940558
 21
269.1443811730685
 31
0.0
  0
LINE
  5
1720
330
18
100
AcDbEntity
  8
外形線
100
AcDbLine
 10
388.3387035940558
 20
286.8751546615747
 30
0.0
 11
388.3387035940559
 21
263.390147340731
 31
0.0
  0
LINE
  5
1721
330
18
100
AcDbEntity
  8
外形線
100
AcDbLine
 10
389.9735084036715
 20
269.0913892466452
 30
0.0
 11
372.8244143235333
 21
241.6471018484264
 31
0.0
  0
LINE
  5
1722
330
18
100
AcDbEntity
  8
外形線
100
AcDbLine
 10
388.3235084036716
 20
263.3371554143077
 30
0.0
 11
376.9544720320603
 21
245.1428939468948
 31
0.0
  0
LINE
  5
1723
330
18
100
AcDbEntity
  8
外形線
100
AcDbLine
 10
372.1906391074179
 20
240.535656330802
 30
0.0
 11
372.8244143235334
 21
241.6471018484268
 31
0.0
  0
LINE
  5
1725
330
18
100
AcDbEntity
  8
外形線
100
AcDbLine
 10
364.6387035940557
 20
247.9169959111473
 30
0.0
 11
363.0662084886214
 21
248.2800350116928
 31
0.0
  0
ARC
  5
173A
330
18
100
AcDbEntity
  8
外形線
100
AcDbCircle
 10
389.8887035940559
 20
286.7751546615746
 30
0.0
 40
0.1
100
AcDbArc
 50
0.0
 51
89.99999999999987
  0
ARC
  5
173B
330
18
100
AcDbEntity
  8
外形線
100
AcDbCircle
 10
389.8887035940558
 20
269.1443811730685
 30
0.0
 40
0.1
100
AcDbArc
 50
328.0000000000001
 51
359.9999999999998
  0
ARC
  5
173C
330
18
100
AcDbEntity
  8
外形線
100
AcDbCircle
 10
388.2387035940559
 20
263.390147340731
 30
0.0
 40
0.1
100
AcDbArc
 50
327.9999999999997
 51
0.0
  0
ARC
  5
173D
330
18
100
AcDbEntity
  8
外形線
100
AcDbCircle
 10
376.8696672224446
 20
245.1958858733181
 30
0.0
 40
0.1
100
AcDbArc
 50
257.0000000000014
 51
327.9999999999998
  0
ARC
  5
173E
330
18
100
AcDbEntity
  8
外形線
100
AcDbCircle
 10
363.0887035940558
 20
248.3774720181713
 30
0.0
 40
0.1
100
AcDbArc
 50
179.9999999999999
 51
256.9999999999995
  0
ARC
  5
173F
330
18
100
AcDbEntity
  8
外形線
100
AcDbCircle
 10
363.0887035940558
 20
286.7751546615748
 30
0.0
 40
0.1
100
AcDbArc
 50
89.99999999999976
 51
179.9999999999998
  0
LINE
  5
1741
330
18
100
AcDbEntity
  8
外形線
100
AcDbLine
 10
376.0570056308905
 20
246.8203293358683
 30
0.0
 11
364.6387035940557
 21
249.4564520728375
 31
0.0
  0
LINE
  5
1742
330
18
100
AcDbEntity
  8
中心線
 48
0.5
100
AcDbLine
 10
366.8887035940558
 20
282.5969513490192
 30
0.0
 11
366.8887035940558
 21
277.2151273799816
 31
0.0
  0
LINE
  5
1743
330
18
100
AcDbEntity
  8
中心線
 48
0.5
100
AcDbLine
 10
364.0879037055407
 20
279.8751546615749
 30
0.0
 11
369.5730375075224
 21
279.8751546615749
 31
0.0
  0
CIRCLE
  5
1744
330
18
100
AcDbEntity
  8
外形線
100
AcDbCircle
 10
366.8887035940558
 20
279.8751546615749
 30
0.0
 40
1.5
  0
LINE
  5
1745
330
18
100
AcDbEntity
  8
外形線
100
AcDbLine
 10
366.2449287090739
 20
279.3349633930255
 30
0.0
 11
367.5324784790376
 21
280.4153459301243
 31
0.0
  0
LINE
  5
1746
330
18
100
AcDbEntity
  8
外形線
100
AcDbLine
 10
367.4288948626052
 20
279.2313797765931
 30
0.0
 11
366.3485123255063
 21
280.5189295465567
 31
0.0
  0
LINE
  5
1758
330
18
100
AcDbEntity
  8
中心線
 48
0.5
100
AcDbLine
 10
366.8887035940557
 20
254.5969513490192
 30
0.0
 11
366.8887035940557
 21
249.2151273799816
 31
0.0
  0
CIRCLE
  5
1759
330
18
100
AcDbEntity
  8
外形線
100
AcDbCircle
 10
366.8887035940557
 20
251.8751546615749
 30
0.0
 40
1.5
  0
LINE
  5
175A
330
18
100
AcDbEntity
  8
中心線
 48
0.5
100
AcDbLine
 10
364.0879037055406
 20
251.8751546615749
 30
0.0
 11
369.5730375075223
 21
251.8751546615749
 31
0.0
  0
LINE
  5
175B
330
18
100
AcDbEntity
  8
外形線
100
AcDbLine
 10
367.4288948626051
 20
251.2313797765931
 30
0.0
 11
366.3485123255062
 21
252.5189295465568
 31
0.0
  0
LINE
  5
175C
330
18
100
AcDbEntity
  8
外形線
100
AcDbLine
 10
366.2449287090738
 20
251.3349633930255
 30
0.0
 11
367.5324784790375
 21
252.4153459301244
 31
0.0
  0
LINE
  5
175F
330
18
100
AcDbEntity
  8
中心線
 48
0.5
100
AcDbLine
 10
386.1387035940559
 20
285.596951349019
 30
0.0
 11
386.1387035940559
 21
280.2151273799814
 31
0.0
  0
CIRCLE
  5
1760
330
18
100
AcDbEntity
  8
外形線
100
AcDbCircle
 10
386.1387035940559
 20
282.8751546615747
 30
0.0
 40
1.5
  0
LINE
  5
1761
330
18
100
AcDbEntity
  8
中心線
 48
0.5
100
AcDbLine
 10
383.3379037055408
 20
282.8751546615748
 30
0.0
 11
388.8230375075224
 21
282.8751546615748
 31
0.0
  0
LINE
  5
1762
330
18
100
AcDbEntity
  8
外形線
100
AcDbLine
 10
386.6788948626052
 20
282.2313797765929
 30
0.0
 11
385.5985123255064
 21
283.5189295465566
 31
0.0
  0
LINE
  5
1763
330
18
100
AcDbEntity
  8
外形線
100
AcDbLine
 10
385.494928709074
 20
282.3349633930253
 30
0.0
 11
386.7824784790376
 21
283.4153459301242
 31
0.0
  0
LINE
  5
1793
330
18
100
AcDbEntity
  8
中心線
 48
0.5
100
AcDbLine
 10
382.3887035940557
 20
263.5969513490191
 30
0.0
 11
382.3887035940557
 21
258.2151273799815
 31
0.0
  0
LINE
  5
1794
330
18
100
AcDbEntity
  8
中心線
 48
0.5
100
AcDbLine
 10
379.5879037055406
 20
260.8751546615748
 30
0.0
 11
385.0730375075223
 21
260.8751546615748
 31
0.0
  0
CIRCLE
  5
1795
330
18
100
AcDbEntity
  8
外形線
100
AcDbCircle
 10
382.3887035940557
 20
260.8751546615748
 30
0.0
 40
1.5
  0
LINE
  5
1796
330
18
100
AcDbEntity
  8
外形線
100
AcDbLine
 10
381.7449287090738
 20
260.3349633930254
 30
0.0
 11
383.0324784790375
 21
261.4153459301243
 31
0.0
  0
LINE
  5
1797
330
18
100
AcDbEntity
  8
外形線
100
AcDbLine
 10
382.9288948626051
 20
260.231379776593
 30
0.0
 11
381.8485123255062
 21
261.5189295465567
 31
0.0
  0
LINE
  5
17C6
330
18
100
AcDbEntity
  8
中心線
 48
0.5
100
AcDbLine
 10
376.4887035940559
 20
282.4896261267353
 30
0.0
 11
376.4887035940559
 21
298.8414506138457
 31
0.0
  0
LINE
  5
17F3
330
18
100
AcDbEntity
  8
中心線
 48
0.5
100
AcDbLine
 10
382.8921885643278
 20
276.875154661575
 30
0.0
 11
409.632333825871
 21
276.875154661575
 31
0.0
  0
CIRCLE
  5
17F6
330
18
100
AcDbEntity
  8
外形線
100
AcDbCircle
 10
379.2149705003284
 20
249.9000071538571
 30
0.0
 40
0.222687898198611
  0
TEXT
  5
17F9
330
18
100
AcDbEntity
  8
寸法線
 62
     6
100
AcDbText
 10
394.7303619569295
 20
265.8987180291526
 30
0.0
 40
2.5
  1
C
  7
STYLE3
100
AcDbText
  0
HATCH
  5
17FA
330
18
100
AcDbEntity
  8
外形線
100
AcDbHatch
 10
0.0
 20
0.0
 30
0.0
210
0.0
220
0.0
230
1.0
  2
SOLID
 70
     1
 71
     1
 91
        1
 92
        7
 72
     1
 73
     1
 93
        2
 10
389.7336719420784
 20
271.8400497621609
 42
1.0
 10
389.2882961456812
 20
271.8400497621609
 42
1.0
 97
        1
330
17FB
 75
     0
 76
     1
 47
0.0200805185115556
 98
        1
 10
389.6355001472954
 20
271.7232633341827
450
        0
451
        0
460
0.0
461
0.0
452
        0
462
0.0
453
        0
470

  0
CIRCLE
  5
17FB
102
{ACAD_REACTORS
330
17FA
102
}
330
18
100
AcDbEntity
  8
外形線
100
AcDbCircle
 10
389.5109840438798
 20
271.8400497621609
 30
0.0
 40
0.222687898198611
  0
CIRCLE
  5
17FC
330
18
100
AcDbEntity
  8
外形線
100
AcDbCircle
 10
389.5109840438798
 20
271.8400497621609
 30
0.0
 40
0.222687898198611
  0
INSERT
  5
1B90
330
18
100
AcDbEntity
  8
文字
100
AcDbBlockReference
  2
ROGO1
 10
672.0508208725629
 20
502.0409291508207
 30
0.0
  0
INSERT
  5
1B91
330
18
100
AcDbEntity
  8
文字
100
AcDbBlockReference
  2
ROGO1
 10
672.0269440607548
 20
502.0677242768627
 30
0.0
  0
INSERT
  5
1BCE
330
18
100
AcDbEntity
  8
文字
100
AcDbBlockReference
  2
ROGO1
 10
949.9778714937193
 20
509.6781307223479
 30
0.0
  0
INSERT
  5
1BCF
330
18
100
AcDbEntity
  8
文字
100
AcDbBlockReference
  2
ROGO1
 10
949.9539946819114
 20
509.7049258483899
 30
0.0
  0
ARC
  5
1DEC
330
18
100
AcDbEntity
  8
外形線
100
AcDbCircle
 10
361.988703594056
 20
287.3751546615748
 30
0.0
 40
0.5
100
AcDbArc
 50
180.0
 51
269.9999999999996
  0
ARC
  5
1DED
330
18
100
AcDbEntity
  8
外形線
100
AcDbCircle
 10
390.988703594056
 20
287.3751546615746
 30
0.0
 40
0.5
100
AcDbArc
 50
269.9999999999996
 51
0.0
  0
LINE
  5
1DEE
330
18
100
AcDbEntity
  8
中心線
 48
0.5
100
AcDbLine
 10
296.0789101518102
 20
298.4418807481051
 30
0.0
 11
296.0789101518102
 21
217.9581600719373
 31
0.0
  0
LINE
  5
1DF2
330
18
100
AcDbEntity
  8
外形線
100
AcDbLine
 10
313.5789101518103
 20
289.1614126929823
 30
0.0
 11
313.2289101518102
 21
288.8114126929822
 31
0.0
  0
LINE
  5
1DF3
330
18
100
AcDbEntity
  8
外形線
100
AcDbLine
 10
313.3789101518102
 20
292.5114126929821
 30
0.0
 11
278.7789101518104
 21
292.5114126929823
 31
0.0
  0
LINE
  5
1DF4
330
18
100
AcDbEntity
  8
外形線
100
AcDbLine
 10
281.5789101518102
 20
286.8751546615749
 30
0.0
 11
310.5789101518102
 21
286.8751546615746
 31
0.0
  0
ARC
  5
1DF5
330
18
100
AcDbEntity
  8
外形線
100
AcDbCircle
 10
296.0789101518102
 20
232.9961230769979
 30
0.0
 40
62.37903158457702
100
AcDbArc
 50
76.4545064755762
 51
103.5454935244236
  0
LINE
  5
1DF6
330
18
100
AcDbEntity
  8
外形線
100
AcDbLine
 10
312.5789101518102
 20
293.0114126929822
 30
0.0
 11
279.5789101518103
 21
293.0114126929822
 31
0.0
  0
LINE
  5
1DF7
330
18
100
AcDbEntity
  8
外形線
100
AcDbLine
 10
313.2289101518102
 20
287.8114126929822
 30
0.0
 11
278.9289101518103
 21
287.8114126929822
 31
0.0
  0
LINE
  5
1DF8
330
18
100
AcDbEntity
  8
外形線
100
AcDbLine
 10
313.2289101518102
 20
288.8114126929822
 30
0.0
 11
278.9289101518103
 21
288.8114126929822
 31
0.0
  0
LINE
  5
1DF9
330
18
100
AcDbEntity
  8
外形線
100
AcDbLine
 10
281.0789101518103
 20
287.8114126929822
 30
0.0
 11
281.0789101518103
 21
287.3751546615748
 31
0.0
  0
ARC
  5
1DFA
330
18
100
AcDbEntity
  8
外形線
100
AcDbCircle
 10
281.5789101518102
 20
287.3751546615748
 30
0.0
 40
0.5
100
AcDbArc
 50
180.0
 51
269.9999999999996
  0
LINE
  5
1DFC
330
18
100
AcDbEntity
  8
外形線
100
AcDbLine
 10
279.2789101518102
 20
292.5114126929821
 30
0.0
 11
279.2789101518102
 21
288.8114126929822
 31
0.0
  0
LINE
  5
1DFD
330
18
100
AcDbEntity
  8
外形線
100
AcDbLine
 10
279.5789101518102
 20
293.0114126929822
 30
0.0
 11
279.0789101518102
 21
292.5114126929821
 31
0.0
  0
LINE
  5
1DFE
330
18
100
AcDbEntity
  8
外形線
100
AcDbLine
 10
278.9289101518103
 20
288.8114126929822
 30
0.0
 11
278.9289101518103
 21
287.8114126929822
 31
0.0
  0
LINE
  5
1DFF
330
18
100
AcDbEntity
  8
外形線
100
AcDbLine
 10
278.5789101518103
 20
292.3114126929822
 30
0.0
 11
278.5789101518103
 21
289.1614126929823
 31
0.0
  0
LINE
  5
1E00
330
18
100
AcDbEntity
  8
外形線
 48
0.5
100
AcDbLine
 10
278.7789101518102
 20
292.5114126929822
 30
0.0
 11
278.5789101518103
 21
292.3114126929822
 31
0.0
  0
LINE
  5
1E01
330
18
100
AcDbEntity
  8
外形線
100
AcDbLine
 10
278.5789101518103
 20
289.1614126929823
 30
0.0
 11
278.9289101518103
 21
288.8114126929822
 31
0.0
  0
LINE
  5
1E02
330
18
100
AcDbEntity
  8
外形線
100
AcDbLine
 10
281.0857665263674
 20
293.1539433308714
 30
0.0
 11
281.0857665263674
 21
293.0114126929823
 31
0.0
  0
ARC
  5
1E03
330
18
100
AcDbEntity
  8
外形線
100
AcDbCircle
 10
281.5857665263675
 20
293.1539433308715
 30
0.0
 40
0.5
100
AcDbArc
 50
103.5454935244249
 51
180.0000000000065
  0
LINE
  5
1E04
330
18
100
AcDbEntity
  8
外形線
100
AcDbLine
 10
279.9789101518102
 20
292.5114126929821
 30
0.0
 11
279.9789101518102
 21
288.8114126929822
 31
0.0
  0
LINE
  5
1E05
330
18
100
AcDbEntity
  8
外形線
100
AcDbLine
 10
280.7789101518102
 20
292.5114126929821
 30
0.0
 11
280.7789101518103
 21
288.8114126929822
 31
0.0
  0
LINE
  5
1E06
330
18
100
AcDbEntity
  8
外形線
100
AcDbLine
 10
281.5789101518102
 20
292.5114126929821
 30
0.0
 11
281.5789101518102
 21
288.8114126929822
 31
0.0
  0
LINE
  5
1E07
330
18
100
AcDbEntity
  8
外形線
100
AcDbLine
 10
282.4789101518102
 20
292.5114126929821
 30
0.0
 11
282.4789101518102
 21
288.8114126929822
 31
0.0
  0
LINE
  5
1E08
330
18
100
AcDbEntity
  8
外形線
100
AcDbLine
 10
311.0789101518102
 20
287.8114126929822
 30
0.0
 11
311.0789101518102
 21
287.3751546615746
 31
0.0
  0
ARC
  5
1E09
330
18
100
AcDbEntity
  8
外形線
100
AcDbCircle
 10
310.5789101518102
 20
287.3751546615746
 30
0.0
 40
0.5
100
AcDbArc
 50
269.9999999999996
 51
0.0
  0
LINE
  5
1E0B
330
18
100
AcDbEntity
  8
外形線
100
AcDbLine
 10
296.0789101518102
 20
292.5114126929823
 30
0.0
 11
296.0789101518102
 21
288.8114126929823
 31
0.0
  0
LINE
  5
1E0C
330
18
100
AcDbEntity
  8
外形線
100
AcDbLine
 10
294.5789101518102
 20
292.5114126929822
 30
0.0
 11
294.5789101518102
 21
288.8114126929822
 31
0.0
  0
LINE
  5
1E0D
330
18
100
AcDbEntity
  8
外形線
100
AcDbLine
 10
297.5789101518103
 20
292.5114126929822
 30
0.0
 11
297.5789101518103
 21
288.8114126929822
 31
0.0
  0
LINE
  5
1E0E
330
18
100
AcDbEntity
  8
外形線
100
AcDbLine
 10
295.3789101518103
 20
292.5114126929822
 30
0.0
 11
295.3789101518103
 21
288.8114126929822
 31
0.0
  0
LINE
  5
1E0F
330
18
100
AcDbEntity
  8
外形線
100
AcDbLine
 10
296.7789101518103
 20
292.5114126929822
 30
0.0
 11
296.7789101518103
 21
288.8114126929822
 31
0.0
  0
ARC
  5
1E10
330
18
100
AcDbEntity
  8
外形線
100
AcDbCircle
 10
310.572053777253
 20
293.1539433308715
 30
0.0
 40
0.5
100
AcDbArc
 50
359.9999999999935
 51
76.45450647557509
  0
LINE
  5
1E11
330
18
100
AcDbEntity
  8
外形線
100
AcDbLine
 10
311.0720537772531
 20
293.1539433308714
 30
0.0
 11
311.0720537772531
 21
293.0114126929823
 31
0.0
  0
LINE
  5
1E12
330
18
100
AcDbEntity
  8
外形線
100
AcDbLine
 10
309.6789101518103
 20
292.5114126929821
 30
0.0
 11
309.6789101518103
 21
288.8114126929822
 31
0.0
  0
LINE
  5
1E13
330
18
100
AcDbEntity
  8
外形線
100
AcDbLine
 10
310.5789101518102
 20
292.5114126929821
 30
0.0
 11
310.5789101518102
 21
288.8114126929822
 31
0.0
  0
LINE
  5
1E14
330
18
100
AcDbEntity
  8
外形線
100
AcDbLine
 10
311.3789101518102
 20
292.5114126929821
 30
0.0
 11
311.3789101518102
 21
288.8114126929822
 31
0.0
  0
LINE
  5
1E15
330
18
100
AcDbEntity
  8
外形線
100
AcDbLine
 10
312.1789101518103
 20
292.5114126929821
 30
0.0
 11
312.1789101518103
 21
288.8114126929822
 31
0.0
  0
LINE
  5
1E16
330
18
100
AcDbEntity
  8
外形線
100
AcDbLine
 10
312.8789101518103
 20
292.5114126929821
 30
0.0
 11
312.8789101518103
 21
288.8114126929822
 31
0.0
  0
LINE
  5
1E17
330
18
100
AcDbEntity
  8
外形線
100
AcDbLine
 10
312.5789101518102
 20
293.0114126929822
 30
0.0
 11
313.0789101518102
 21
292.5114126929821
 31
0.0
  0
LINE
  5
1E18
330
18
100
AcDbEntity
  8
外形線
100
AcDbLine
 10
313.2289101518102
 20
288.8114126929822
 30
0.0
 11
313.2289101518102
 21
287.8114126929822
 31
0.0
  0
LINE
  5
1E19
330
18
100
AcDbEntity
  8
外形線
 48
0.5
100
AcDbLine
 10
313.3789101518102
 20
292.5114126929822
 30
0.0
 11
313.5789101518103
 21
292.3114126929822
 31
0.0
  0
LINE
  5
1E1A
330
18
100
AcDbEntity
  8
外形線
100
AcDbLine
 10
313.5789101518103
 20
292.3114126929822
 30
0.0
 11
313.5789101518103
 21
289.1614126929823
 31
0.0
  0
INSERT
  5
21C9
330
18
100
AcDbEntity
  8
文字
100
AcDbBlockReference
  2
ROGO1
 10
640.8034148246161
 20
480.7357935989958
 30
0.0
  0
INSERT
  5
21CA
330
18
100
AcDbEntity
  8
文字
100
AcDbBlockReference
  2
ROGO1
 10
640.7795380128082
 20
480.7625887250378
 30
0.0
  0
LINE
  5
21DB
330
18
100
AcDbEntity
  8
外形線
100
AcDbLine
 10
291.0789101518102
 20
244.375154661575
 30
0.0
 11
291.0789101518102
 21
240.375154661575
 31
0.0
  0
LINE
  5
21DC
330
18
100
AcDbEntity
  8
外形線
100
AcDbLine
 10
291.5789101518101
 20
245.375154661575
 30
0.0
 11
291.5789101518101
 21
239.375154661575
 31
0.0
  0
LINE
  5
21DD
330
18
100
AcDbEntity
  8
外形線
100
AcDbLine
 10
291.5789101518101
 20
240.375154661575
 30
0.0
 11
291.0789101518102
 21
240.375154661575
 31
0.0
  0
LINE
  5
21DE
330
18
100
AcDbEntity
  8
外形線
100
AcDbLine
 10
292.0789101518102
 20
239.375154661575
 30
0.0
 11
291.5789101518101
 21
239.375154661575
 31
0.0
  0
LINE
  5
21DF
330
18
100
AcDbEntity
  8
外形線
100
AcDbLine
 10
291.5789101518101
 20
244.375154661575
 30
0.0
 11
291.0789101518102
 21
244.375154661575
 31
0.0
  0
LINE
  5
21E0
330
18
100
AcDbEntity
  8
外形線
100
AcDbLine
 10
292.0789101518102
 20
245.375154661575
 30
0.0
 11
291.5789101518101
 21
245.375154661575
 31
0.0
  0
INSERT
  5
21E1
330
18
100
AcDbEntity
  8
文字
100
AcDbBlockReference
  2
ROGO1
 10
918.7304654457726
 20
488.372995170523
 30
0.0
  0
INSERT
  5
21E2
330
18
100
AcDbEntity
  8
文字
100
AcDbBlockReference
  2
ROGO1
 10
918.7065886339647
 20
488.399790296565
 30
0.0
  0
LINE
  5
2230
330
18
100
AcDbEntity
  8
外形線
100
AcDbLine
 10
300.5789101518102
 20
245.375154661575
 30
0.0
 11
300.5789101518102
 21
239.375154661575
 31
0.0
  0
LINE
  5
2231
330
18
100
AcDbEntity
  8
外形線
100
AcDbLine
 10
301.0789101518102
 20
244.375154661575
 30
0.0
 11
301.0789101518102
 21
240.375154661575
 31
0.0
  0
LINE
  5
2232
330
18
100
AcDbEntity
  8
外形線
100
AcDbLine
 10
300.0789101518102
 20
239.375154661575
 30
0.0
 11
300.5789101518102
 21
239.375154661575
 31
0.0
  0
LINE
  5
2233
330
18
100
AcDbEntity
  8
外形線
100
AcDbLine
 10
300.5789101518102
 20
240.375154661575
 30
0.0
 11
301.0789101518102
 21
240.375154661575
 31
0.0
  0
LINE
  5
2234
330
18
100
AcDbEntity
  8
外形線
100
AcDbLine
 10
300.0789101518102
 20
245.375154661575
 30
0.0
 11
300.5789101518102
 21
245.375154661575
 31
0.0
  0
LINE
  5
2235
330
18
100
AcDbEntity
  8
外形線
100
AcDbLine
 10
300.5789101518102
 20
244.375154661575
 30
0.0
 11
301.0789101518102
 21
244.375154661575
 31
0.0
  0
LINE
  5
22A7
330
18
100
AcDbEntity
  8
外形線
100
AcDbLine
 10
298.4289101518101
 20
238.3751546615751
 30
0.0
 11
300.0789101518102
 21
238.3751546615749
 31
0.0
  0
LINE
  5
22A8
330
18
100
AcDbEntity
  8
外形線
100
AcDbLine
 10
292.0789101518102
 20
286.8751546615748
 30
0.0
 11
292.0789101518102
 21
238.3751546615749
 31
0.0
  0
LINE
  5
22AA
330
18
100
AcDbEntity
  8
中心線
 48
0.5
100
AcDbLine
 10
287.9508644323822
 20
242.375154661575
 30
0.0
 11
304.1673862636002
 21
242.375154661575
 31
0.0
  0
LINE
  5
22AB
330
18
100
AcDbEntity
  8
外形線
100
AcDbLine
 10
298.4289101518101
 20
238.3751546615751
 30
0.0
 11
298.3405364589654
 21
245.8869185533753
 31
0.0
  0
ARC
  5
22AC
330
18
100
AcDbEntity
  8
外形線
100
AcDbCircle
 10
297.3406056559347
 20
245.875154661575
 30
0.0
 40
1.0
100
AcDbArc
 50
0.674036897984668
 51
90.0
  0
LINE
  5
22AD
330
18
100
AcDbEntity
  8
外形線
100
AcDbLine
 10
293.72891015181
 20
238.3751546615751
 30
0.0
 11
293.8172838446547
 21
245.8869185533753
 31
0.0
  0
LINE
  5
22AE
330
18
100
AcDbEntity
  8
外形線
100
AcDbLine
 10
293.72891015181
 20
238.3751546615751
 30
0.0
 11
292.0789101518102
 21
238.3751546615749
 31
0.0
  0
ARC
  5
22AF
330
18
100
AcDbEntity
  8
外形線
100
AcDbCircle
 10
294.8172146476855
 20
245.875154661575
 30
0.0
 40
1.0
100
AcDbArc
 50
90.0
 51
179.3259631020153
  0
LINE
  5
22B0
330
18
100
AcDbEntity
  8
外形線
100
AcDbLine
 10
300.0789101518102
 20
286.8751546615747
 30
0.0
 11
300.0789101518102
 21
238.3751546615749
 31
0.0
  0
INSERT
  5
22B4
330
18
100
AcDbEntity
  8
ASHADE
 62
     1
100
AcDbBlockReference
  2
AVE_RENDER
 10
339.669957065396
 20
205.618925633319
 30
0.0
1001
AVE_RENDER
1002
{
1070
     7
1000
Pref
1070
    30
1070
    20
1070
     1
1070
     0
1000

1070
    10
1070
     1
1070
    10
1040
1.0
1070
     1
1040
0.3
1040
0.7
1040
0.0
1040
10.0
1010
-1.0
1020
-1.0
1030
-1.0
1040
0.3
1070
    49
1070
     0
1070
     0
1010
1.0
1020
1.0
1030
1.0
1040
45.0
1070
     1
1070
     0
1000
WCS
1040
0.0
1070
     0
1040
10.0
1002
}
  0
INSERT
  5
22B5
330
18
100
AcDbEntity
  8
ASHADE
 62
     3
100
AcDbBlockReference
  2
AVE_RENDER
 10
339.669957065396
 20
205.618925633319
 30
0.0
1001
AVE_RENDER
1002
{
1070
     0
1000
Full Opt
1070
     0
1070
     1
1070
     1
1070
     1
1070
     0
1070
     0
1070
     0
1070
     1
1070
     1
1040
0.0001
1040
0.0001
1002
}
  0
INSERT
  5
22B6
330
18
100
AcDbEntity
  8
ASHADE
 62
     4
100
AcDbBlockReference
  2
AVE_RENDER
 10
339.669957065396
 20
205.618925633319
 30
0.0
1001
AVE_RENDER
1002
{
1070
     0
1000
Quick Opt
1070
     0
1070
     1
1070
     1
1070
     1
1070
     0
1070
     0
1070
     1
1002
}
  0
INSERT
  5
22B7
330
18
100
AcDbEntity
  8
ASHADE
 62
     5
100
AcDbBlockReference
  2
AVE_RENDER
 10
339.669957065396
 20
205.618925633319
 30
0.0
1001
AVE_RENDER
1002
{
1070
     1
1000
Scanl Opt
1070
     2
1070
     0
1070
     2
1040
2.0
1040
4.0
1070
     0
1070
     1
1070
     0
1040
0.03
1002
}
  0
INSERT
  5
22B8
330
18
100
AcDbEntity
  8
ASHADE
 62
     6
100
AcDbBlockReference
  2
AVE_RENDER
 10
339.669957065396
 20
205.618925633319
 30
0.0
1001
AVE_RENDER
1002
{
1070
     2
1000
Raytr Opt
1070
     2
1070
     0
1070
     2
1040
2.0
1040
4.0
1070
     0
1070
     1
1070
     1
1040
0.03
1070
     3
1040
0.03
1002
}
  0
INSERT
  5
22B9
330
18
100
AcDbEntity
  8
ASHADE
 62
     7
100
AcDbBlockReference
  2
AVE_RENDER
 10
339.669957065396
 20
205.618925633319
 30
0.0
1001
AVE_RENDER
1002
{
1070
     0
1000
RFile Opt
1070
     1
1070
   640
1070
   480
1070
 10000
1070
     1
1070
     8
1070
     8
1070
     0
1070
     0
1070
     0
1070
     0
1070
     0
1070
     0
1070
     0
1002
}
  0
INSERT
  5
22BA
330
18
100
AcDbEntity
  8
ASHADE
 62
     8
100
AcDbBlockReference
  2
AVE_RENDER
 10
339.669957065396
 20
205.618925633319
 30
0.0
1001
AVE_RENDER
1002
{
1070
     0
1000
Fog Opt
1070
     0
1070
     0
1040
0.0
1040
1.0
1040
0.0
1040
1.0
1010
0.5
1020
0.5
1030
0.5
1002
}
  0
INSERT
  5
22BB
330
18
100
AcDbEntity
  8
ASHADE
 62
     9
100
AcDbBlockReference
  2
AVE_RENDER
 10
339.669957065396
 20
205.618925633319
 30
0.0
1001
AVE_RENDER
1002
{
1070
     0
1000
BG Opt
1070
     0
1070
     1
1010
0.0
1020
0.0
1030
0.0
1010
1.0
1020
0.0
1030
0.0
1010
0.0
1020
1.0
1030
0.0
1010
0.0
1020
0.0
1030
1.0
1040
0.5
1040
0.33
1040
0.0
1000

1070
     1
1000

1070
     1
1070
     1
1040
1.0
1040
1.0
1040
0.0
1040
0.0
1070
     0
1002
}
  0
INSERT
  5
22BC
330
18
100
AcDbEntity
  8
ASHADE
 62
     1
100
AcDbBlockReference
  2
AVE_GLOBAL
 10
339.669957065396
 20
205.618925633319
 30
0.0
1001
AVE_MATERIAL
1002
{
1000
*GLOBAL*
1000
1
1000
Global finish.
1002
{
1002
}
1002
{
1070
    63
1002
{
1002
{
1010
-1.0
1020
-1.0
1030
-1.0
1002
}
1040
0.1000000014901161
1000

1040
0.0
1002
{
1002
}
1040
0.0
1002
{
1002
}
1040
0.0
1002
}
1002
{
1002
{
1010
-1.0
1020
-1.0
1030
-1.0
1002
}
1040
0.6999999880790711
1000

1040
0.0
1002
{
1002
}
1040
0.0
1002
{
1002
}
1040
0.0
1002
}
1002
{
1002
{
1010
-1.0
1020
-1.0
1030
-1.0
1002
}
1040
0.2000000029802322
1000

1040
0.0
1002
{
1002
}
1040
0.0
1002
{
1002
}
1040
0.0
1002
}
1002
{
1070
     0
1002
{
1070
     1
1002
{
1040
1.0
1040
1.0
1000

1040
0.0
1002
{
1002
}
1040
0.0
1002
{
1002
}
1040
0.0
1002
}
1002
}
1040
1.0
1040
0.0
1040
0.0
1002
}
1002
{
1040
1.0
1040
1.0
1000

1040
0.0
1002
{
1002
}
1040
0.0
1002
{
1002
}
1040
0.0
1002
}
1002
{
1040
0.5
1040
1.0
1000

1040
0.0
1002
{
1002
}
1040
0.0
1002
{
1002
}
1040
0.0
1002
}
1002
{
1070
     0
1040
0.0
1002
{
1002
}
1040
1.0
1002
{
1002
}
1040
0.0
1002
}
1002
{
1040
0.0
1002
{
1002
{
1010
0.0
1020
0.0
1030
0.0
1002
}
1040
1.0
1000

1040
0.0
1002
{
1002
}
1040
0.0
1002
{
1002
}
1040
0.0
1002
}
1002
}
1002
{
1002
{
1070
     1
1002
{
1040
0.0
1040
1.0
1000

1040
0.0
1002
{
1002
}
1040
0.0
1002
{
1002
}
1040
0.0
1002
}
1002
}
1040
0.0
1002
{
1002
}
1010
1.0
1020
0.0
1030
0.0
1010
0.0
1020
1.0
1030
0.0
1010
0.0
1020
0.0
1030
1.0
1070
     0
1002
}
1002
{
1002
{
1040
1.0
1040
1.0
1002
{
1070
     1
1002
{
1040
1.0
1040
1.0
1000

1040
0.0
1002
{
1002
}
1040
0.0
1002
{
1002
}
1040
0.0
1002
}
1002
}
1002
}
1070
     0
1040
0.0
1002
{
1002
}
1002
}
1002
{
1002
}
1002
}
1002
{
1071
        3
1070
     3
1070
     0
1002
{
1070
     2
1070
     0
1070
     0
1040
0.0
1002
}
1070
     0
1070
     2
1002
{
1002
}
1002
}
1002
{
1040
8030.0
1040
190.3000030517578
1040
0.3050000071525574
1040
228.0
1040
545.0
1040
14.0
1040
17.39999961853027
1040
0.4560000002384186
1002
}
1002
}
  0
LINE
  5
22CD
330
18
100
AcDbEntity
  8
外形線
100
AcDbLine
 10
298.9789101518102
 20
246.875154661575
 30
0.0
 11
293.1789101518102
 21
246.8751546615749
 31
0.0
  0
LINE
  5
22D1
330
18
100
AcDbEntity
  8
中心線
 48
0.5
100
AcDbLine
 10
296.2174457546669
 20
248.375154661575
 30
0.0
 11
298.4432948320168
 21
248.375154661575
 31
0.0
  0
LINE
  5
22D2
330
18
100
AcDbEntity
  8
中心線
 48
0.5
100
AcDbLine
 10
297.2789101518101
 20
249.6074580609753
 30
0.0
 11
297.2789101518102
 21
247.2593920224559
 31
0.0
  0
LINE
  5
2305
330
18
100
AcDbEntity
  8
外形線
100
AcDbLine
 10
296.0789101518102
 20
238.615154661575
 30
0.0
 11
297.8789101518101
 21
238.615154661575
 31
0.0
  0
LINE
  5
2306
330
18
100
AcDbEntity
  8
外形線
100
AcDbLine
 10
296.0789101518102
 20
238.615154661575
 30
0.0
 11
294.5789101518101
 21
238.615154661575
 31
0.0
  0
LINE
  5
2308
330
18
100
AcDbEntity
  8
外形線
100
AcDbLine
 10
297.0789101518102
 20
246.8751546615751
 30
0.0
 11
297.0789101518101
 21
238.715154661575
 31
0.0
  0
LINE
  5
2309
330
18
100
AcDbEntity
  8
外形線
100
AcDbLine
 10
294.4789101518102
 20
246.115154661575
 30
0.0
 11
294.4789101518101
 21
238.715154661575
 31
0.0
  0
LINE
  5
230A
330
18
100
AcDbEntity
  8
外形線
100
AcDbLine
 10
294.5789101518102
 20
246.215154661575
 30
0.0
 11
296.9789101518102
 21
246.215154661575
 31
0.0
  0
LINE
  5
230B
330
18
100
AcDbEntity
  8
外形線
100
AcDbLine
 10
294.4789101518102
 20
246.115154661575
 30
0.0
 11
294.5789101518102
 21
246.215154661575
 31
0.0
  0
LINE
  5
230C
330
18
100
AcDbEntity
  8
外形線
100
AcDbLine
 10
296.9789101518102
 20
246.215154661575
 30
0.0
 11
297.0789101518102
 21
246.115154661575
 31
0.0
  0
LINE
  5
230D
330
18
100
AcDbEntity
  8
外形線
100
AcDbLine
 10
294.4789101518101
 20
238.715154661575
 30
0.0
 11
294.5789101518101
 21
238.615154661575
 31
0.0
  0
LINE
  5
230E
330
18
100
AcDbEntity
  8
外形線
100
AcDbLine
 10
297.0789101518101
 20
238.715154661575
 30
0.0
 11
296.9789101518101
 21
238.615154661575
 31
0.0
  0
LINE
  5
230F
330
18
100
AcDbEntity
  8
外形線
100
AcDbLine
 10
297.8789101518101
 20
246.7179050811657
 30
0.0
 11
297.8789101518101
 21
238.615154661575
 31
0.0
  0
LINE
  5
2310
330
18
100
AcDbEntity
  8
外形線
100
AcDbLine
 10
294.0759897358669
 20
244.375154661575
 30
0.0
 11
294.0759897358669
 21
240.375154661575
 31
0.0
  0
LINE
  5
2311
330
18
100
AcDbEntity
  8
外形線
100
AcDbLine
 10
294.0759897358669
 20
244.375154661575
 30
0.0
 11
293.7994983871042
 21
244.375154661575
 31
0.0
  0
LINE
  5
2312
330
18
100
AcDbEntity
  8
外形線
100
AcDbLine
 10
294.0759897358669
 20
240.375154661575
 30
0.0
 11
293.7524395635747
 21
240.375154661575
 31
0.0
  0
LINE
  5
2313
330
18
100
AcDbEntity
  8
外形線
100
AcDbLine
 10
294.0759897358669
 20
243.025154661575
 30
0.0
 11
294.4789101518101
 21
243.025154661575
 31
0.0
  0
LINE
  5
2314
330
18
100
AcDbEntity
  8
外形線
100
AcDbLine
 10
294.0759897358669
 20
241.725154661575
 30
0.0
 11
294.4789101518101
 21
241.725154661575
 31
0.0
  0
LINE
  5
2315
330
18
100
AcDbEntity
  8
外形線
100
AcDbLine
 10
297.8789101518101
 20
243.025154661575
 30
0.0
 11
298.3742042694572
 21
243.025154661575
 31
0.0
  0
LINE
  5
2316
330
18
100
AcDbEntity
  8
外形線
100
AcDbLine
 10
297.8789101518101
 20
241.725154661575
 30
0.0
 11
298.3894983871043
 21
241.725154661575
 31
0.0
  0
LINE
  5
2461
330
18
100
AcDbEntity
  8
外形線
100
AcDbLine
 10
293.0789101518102
 20
286.8751546615748
 30
0.0
 11
293.0789101518102
 21
246.975154661575
 31
0.0
  0
LINE
  5
2462
330
18
100
AcDbEntity
  8
外形線
100
AcDbLine
 10
299.0789101518102
 20
286.8751546615747
 30
0.0
 11
299.0789101518103
 21
246.975154661575
 31
0.0
  0
ARC
  5
2463
330
18
100
AcDbEntity
  8
外形線
100
AcDbCircle
 10
293.1789101518102
 20
246.975154661575
 30
0.0
 40
0.1
100
AcDbArc
 50
180.0
 51
270.0000000000005
  0
ARC
  5
2464
330
18
100
AcDbEntity
  8
外形線
100
AcDbCircle
 10
298.9789101518102
 20
246.975154661575
 30
0.0
 40
0.1
100
AcDbArc
 50
270.0000000000011
 51
0.0
  0
CIRCLE
  5
2465
330
18
100
AcDbEntity
  8
外形線
100
AcDbCircle
 10
297.2789101518102
 20
248.375154661575
 30
0.0
 40
0.5
  0
LINE
  5
2482
330
18
100
AcDbEntity
  8
外形線
100
AcDbLine
 10
369.8887035940558
 20
234.375154661575
 30
0.0
 11
369.2387035940557
 21
221.8751546615749
 31
0.0
  0
LINE
  5
2483
330
18
100
AcDbEntity
  8
外形線
100
AcDbLine
 10
367.3887035940558
 20
234.3751546615749
 30
0.0
 11
368.0387035940557
 21
221.8751546615749
 31
0.0
  0
LINE
  5
2484
330
18
100
AcDbEntity
  8
中心線
 48
0.5
100
AcDbLine
 10
366.255301349071
 20
221.0751546615749
 30
0.0
 11
371.5994515593031
 21
221.0751546615749
 31
0.0
  0
LINE
  5
2485
330
18
100
AcDbEntity
  8
外形線
100
AcDbLine
 10
368.0387035940557
 20
221.8751546615749
 30
0.0
 11
369.2387035940557
 21
221.8751546615749
 31
0.0
  0
LINE
  5
2486
330
18
100
AcDbEntity
  8
隠れ線
 62
     4
 48
0.3
100
AcDbLine
 10
368.6387035940557
 20
222.0747764913526
 30
0.0
 11
368.0387035940557
 21
221.8751546615749
 31
0.0
  0
ARC
  5
2487
330
18
100
AcDbEntity
  8
外形線
100
AcDbCircle
 10
368.6387035940557
 20
221.0751546615749
 30
0.0
 40
1.0
100
AcDbArc
 50
126.869897645842
 51
53.13010235415791
  0
LINE
  5
2488
330
18
100
AcDbEntity
  8
隠れ線
 62
     4
 48
0.3
100
AcDbLine
 10
368.6387035940557
 20
222.0747764913526
 30
0.0
 11
369.2387035940557
 21
221.8751546615749
 31
0.0
  0
LINE
  5
2489
330
18
100
AcDbEntity
  8
外形線
100
AcDbLine
 10
369.8887035940558
 20
234.375154661575
 30
0.0
 11
367.3887035940558
 21
234.3751546615749
 31
0.0
  0
LINE
  5
248A
330
18
100
AcDbEntity
  8
外形線
100
AcDbLine
 10
369.8887035940558
 20
237.1151546615749
 30
0.0
 11
367.3887035940558
 21
237.1151546615749
 31
0.0
  0
LINE
  5
248B
330
18
100
AcDbEntity
  8
外形線
100
AcDbLine
 10
369.8887035940558
 20
236.5151546615749
 30
0.0
 11
367.3887035940558
 21
236.5151546615749
 31
0.0
  0
LINE
  5
248C
330
18
100
AcDbEntity
  8
外形線
 62
     4
100
AcDbLine
 10
369.3690883517853
 20
236.8151546615748
 30
0.0
 11
367.9083188363264
 21
236.8151546615748
 31
0.0
  0
LINE
  5
248D
330
18
100
AcDbEntity
  8
外形線
100
AcDbLine
 10
367.3887035940558
 20
238.5151546615748
 30
0.0
 11
367.3887035940558
 21
237.1151546615749
 31
0.0
  0
LINE
  5
248E
330
18
100
AcDbEntity
  8
外形線
100
AcDbLine
 10
367.3887035940558
 20
236.5151546615749
 30
0.0
 11
367.9083188363264
 21
236.8151546615749
 31
0.0
  0
LINE
  5
248F
330
18
100
AcDbEntity
  8
外形線
100
AcDbLine
 10
367.3887035940558
 20
237.1151546615749
 30
0.0
 11
367.9083188363265
 21
236.8151546615749
 31
0.0
  0
LINE
  5
2490
330
18
100
AcDbEntity
  8
外形線
100
AcDbLine
 10
367.3887035940558
 20
236.5151546615749
 30
0.0
 11
367.3887035940558
 21
234.3751546615749
 31
0.0
  0
LINE
  5
2491
330
18
100
AcDbEntity
  8
外形線
100
AcDbLine
 10
367.3887035940558
 20
238.5151546615748
 30
0.0
 11
367.43432618123
 21
238.5607772487491
 31
0.0
  0
LINE
  5
2492
330
18
100
AcDbEntity
  8
外形線
100
AcDbLine
 10
367.3887035940558
 20
238.5151546615749
 30
0.0
 11
367.5897040706999
 21
238.5151546615749
 31
0.0
  0
LINE
  5
2493
330
18
100
AcDbEntity
  8
外形線
100
AcDbLine
 10
369.8887035940558
 20
238.5151546615748
 30
0.0
 11
369.8887035940558
 21
237.1151546615748
 31
0.0
  0
LINE
  5
2494
330
18
100
AcDbEntity
  8
外形線
100
AcDbLine
 10
369.8887035940558
 20
237.1151546615749
 30
0.0
 11
369.369088351785
 21
236.8151546615749
 31
0.0
  0
LINE
  5
2495
330
18
100
AcDbEntity
  8
外形線
100
AcDbLine
 10
369.8887035940558
 20
236.5151546615749
 30
0.0
 11
369.3690883517851
 21
236.8151546615749
 31
0.0
  0
LINE
  5
2496
330
18
100
AcDbEntity
  8
外形線
100
AcDbLine
 10
369.8887035940558
 20
236.5151546615749
 30
0.0
 11
369.8887035940558
 21
234.375154661575
 31
0.0
  0
LINE
  5
2497
330
18
100
AcDbEntity
  8
外形線
100
AcDbLine
 10
369.6877031174116
 20
238.5151546615749
 30
0.0
 11
369.8887035940558
 21
238.5151546615749
 31
0.0
  0
LINE
  5
2498
330
18
100
AcDbEntity
  8
外形線
100
AcDbLine
 10
369.8430810068815
 20
238.560777248749
 30
0.0
 11
369.8887035940558
 21
238.5151546615748
 31
0.0
  0
LINE
  5
2499
330
18
100
AcDbEntity
  8
中心線
 48
0.5
100
AcDbLine
 10
293.6955079068255
 20
221.075154661575
 30
0.0
 11
299.0396581170575
 21
221.075154661575
 31
0.0
  0
TEXT
  5
249D
330
18
100
AcDbEntity
  8
文字
100
AcDbText
 10
291.7754152125166
 20
329.8849824595111
 30
0.0
 40
0.8
  1
MADE IN JAPAN
  7
STYLE3
100
AcDbText
  0
TEXT
  5
249E
330
18
100
AcDbEntity
  8
文字
100
AcDbText
 10
284.1683521857639
 20
329.7054997096806
 30
0.0
 40
1.8
  1
10
  7
STYLE3
100
AcDbText
  0
TEXT
  5
249F
330
18
100
AcDbEntity
  8
文字
100
AcDbText
 10
304.4081987488775
 20
329.2387349169116
 30
0.0
 40
1.8
  1
10
  7
STYLE3
100
AcDbText
  0
CIRCLE
  5
24A0
330
18
100
AcDbEntity
  8
外形線
100
AcDbCircle
 10
296.0789101518102
 20
326.8713504036758
 30
0.0
 40
15.0
  0
TEXT
  5
24A4
330
18
100
AcDbEntity
  8
文字
100
AcDbText
 10
293.618903100023
 20
319.8897541950681
 30
0.0
 40
1.0
  1
PCN-5
  7
STYLE3
100
AcDbText
  0
TEXT
  5
24A5
330
18
100
AcDbEntity
  8
文字
100
AcDbText
 10
294.3803502473198
 20
314.8464244382874
 30
0.0
 40
1.8
  1
25
  7
STYLE3
100
AcDbText
  0
LINE
  5
24A6
330
18
100
AcDbEntity
  8
目盛
100
AcDbLine
 10
287.262131367423
 20
314.7360954880516
 30
0.0
 11
288.7315944981542
 21
316.758637973989
 31
0.0
  0
LINE
  5
24A7
330
18
100
AcDbEntity
  8
目盛
100
AcDbLine
 10
292.3485618443373
 20
312.3426029867463
 30
0.0
 11
292.7215966750845
 21
313.7954777284393
 31
0.0
  0
LINE
  5
24A8
330
18
100
AcDbEntity
  8
目盛
100
AcDbLine
 10
288.8526050402844
 20
313.7267502030178
 30
0.0
 11
289.575235551437
 21
315.0412102230837
 31
0.0
  0
LINE
  5
24A9
330
18
100
AcDbEntity
  8
目盛
100
AcDbLine
 10
290.5570418615399
 20
312.924703115352
 30
0.0
 11
291.109228690567
 21
314.3193678441845
 31
0.0
  0
LINE
  5
24AA
330
18
100
AcDbEntity
  8
目盛
100
AcDbLine
 10
296.0789101518101
 20
311.8713504036758
 30
0.0
 11
296.0789101518101
 21
314.3713504036758
 31
0.0
  0
LINE
  5
24AB
330
18
100
AcDbEntity
  8
目盛
100
AcDbLine
 10
294.1989116483455
 20
311.9896298839586
 30
0.0
 11
294.3869114986919
 21
313.4778019359304
 31
0.0
  0
TEXT
  5
24AC
330
18
100
AcDbEntity
  8
文字
100
AcDbText
 10
283.8963242425856
 20
322.5731029067854
 30
0.0
 40
1.8
  1
15
  7
STYLE3
100
AcDbText
  0
LINE
  5
24AD
330
18
100
AcDbEntity
  8
目盛
100
AcDbLine
 10
281.8130624073827
 20
322.2360954880516
 30
0.0
 11
284.1907036981207
 21
323.0086379739889
 31
0.0
  0
LINE
  5
24AE
330
18
100
AcDbEntity
  8
目盛
100
AcDbLine
 10
282.5065043648198
 20
320.4846610301997
 30
0.0
 11
283.8637449435188
 21
321.1233299675473
 31
0.0
  0
LINE
  5
24AF
330
18
100
AcDbEntity
  8
目盛
100
AcDbLine
 10
283.4139912692798
 20
318.8339484789908
 30
0.0
 11
284.6804831575329
 21
319.6376886714593
 31
0.0
  0
LINE
  5
24B0
330
18
100
AcDbEntity
  8
目盛
100
AcDbLine
 10
284.5212115101732
 20
317.3099905574454
 30
0.0
 11
285.6769813743371
 21
318.2661265420685
 31
0.0
  0
LINE
  5
24B1
330
18
100
AcDbEntity
  8
目盛
100
AcDbLine
 10
285.8107035628798
 20
315.9368209923546
 30
0.0
 11
286.8375242217727
 21
317.0302739334867
 31
0.0
  0
LINE
  5
24B2
330
18
100
AcDbEntity
  8
目盛
100
AcDbLine
 10
281.3446013908798
 20
329.6820701224616
 30
0.0
 11
282.8180322669729
 21
329.400998150583
 31
0.0
  0
LINE
  5
24B3
330
18
100
AcDbEntity
  8
目盛
100
AcDbLine
 10
281.108509225386
 20
327.8132081966155
 30
0.0
 11
282.6055493180285
 21
327.7190224173216
 31
0.0
  0
LINE
  5
24B4
330
18
100
AcDbEntity
  8
目盛
100
AcDbLine
 10
281.108509225386
 20
325.9294926107361
 30
0.0
 11
282.6055493180285
 21
326.0236783900301
 31
0.0
  0
LINE
  5
24B5
330
18
100
AcDbEntity
  8
目盛
100
AcDbLine
 10
281.3446013908798
 20
324.0606306848899
 30
0.0
 11
282.8180322669729
 21
324.3417026567686
 31
0.0
  0
TEXT
  5
24B6
330
18
100
AcDbEntity
  8
文字
100
AcDbText
 10
288.2221124377278
 20
317.5013442290013
 30
0.0
 40
1.8
  1
20
  7
STYLE3
100
AcDbText
  0
TEXT
  5
24B7
330
18
100
AcDbEntity
  8
文字
100
AcDbText
 10
289.1384756670678
 20
326.4972993544263
 30
0.0
 40
0.8
  1
Jeweled
  7
STYLE3
100
AcDbText
  0
CIRCLE
  5
24BA
330
18
100
AcDbEntity
  8
外形線
 62
     4
100
AcDbCircle
 10
296.0789101518102
 20
326.8713504036758
 30
0.0
 40
0.25
  0
POINT
  5
24BB
330
18
100
AcDbEntity
  8
DEFPOINTS
  6
ByBlock
 62
     0
100
AcDbPoint
 10
296.0789101518102
 20
326.8713504036758
 30
0.0
  0
POINT
  5
24BC
330
18
100
AcDbEntity
  8
DEFPOINTS
  6
ByBlock
 62
     0
100
AcDbPoint
 10
296.0789101518102
 20
326.8713504036758
 30
0.0
  0
POINT
  5
24BD
330
18
100
AcDbEntity
  8
DEFPOINTS
  6
ByBlock
 62
     0
100
AcDbPoint
 10
296.0789101518102
 20
326.8713504036758
 30
0.0
  0
POINT
  5
24BE
330
18
100
AcDbEntity
  8
DEFPOINTS
  6
ByBlock
 62
     0
100
AcDbPoint
 10
296.0789101518102
 20
326.8713504036758
 30
0.0
  0
LINE
  5
24BF
330
18
100
AcDbEntity
  8
目盛
100
AcDbLine
 10
304.8956889361972
 20
314.7360954880516
 30
0.0
 11
303.4262258054661
 21
316.758637973989
 31
0.0
  0
LINE
  5
24C0
330
18
100
AcDbEntity
  8
目盛
100
AcDbLine
 10
297.9589086552747
 20
311.9896298839586
 30
0.0
 11
297.7709088049284
 21
313.4778019359304
 31
0.0
  0
LINE
  5
24C1
330
18
100
AcDbEntity
  8
目盛
100
AcDbLine
 10
299.8092584592829
 20
312.3426029867463
 30
0.0
 11
299.4362236285357
 21
313.7954777284392
 31
0.0
  0
LINE
  5
24C2
330
18
100
AcDbEntity
  8
目盛
100
AcDbLine
 10
301.6007784420803
 20
312.924703115352
 30
0.0
 11
301.0485916130532
 21
314.3193678441844
 31
0.0
  0
LINE
  5
24C3
330
18
100
AcDbEntity
  8
目盛
100
AcDbLine
 10
303.305215263336
 20
313.7267502030178
 30
0.0
 11
302.5825847521833
 21
315.0412102230836
 31
0.0
  0
TEXT
  5
24C4
330
18
100
AcDbEntity
  8
文字
100
AcDbText
 10
304.3167237980441
 20
322.5262051847993
 30
0.0
 40
1.8
  1
15
  7
STYLE3
100
AcDbText
  0
LINE
  5
24C5
330
18
100
AcDbEntity
  8
目盛
100
AcDbLine
 10
307.636608793447
 20
317.3099905574455
 30
0.0
 11
306.4808389292832
 21
318.2661265420685
 31
0.0
  0
TEXT
  5
24C6
330
18
100
AcDbEntity
  8
文字
100
AcDbText
 10
300.9528056041337
 20
317.5867549246039
 30
0.0
 40
1.8
  1
20
  7
STYLE3
100
AcDbText
  0
LINE
  5
24C7
330
18
100
AcDbEntity
  8
目盛
100
AcDbLine
 10
306.3471167407405
 20
315.9368209923546
 30
0.0
 11
305.3202960818473
 21
317.0302739334867
 31
0.0
  0
TEXT
  5
24C8
330
18
100
AcDbEntity
  8
文字
100
AcDbText
 10
299.7337087954589
 20
326.4620106191006
 30
0.0
 40
0.8
  1
0.01mm
  7
STYLE3
100
AcDbText
  0
LINE
  5
24C9
330
18
100
AcDbEntity
  8
目盛
100
AcDbLine
 10
310.3447578962374
 20
322.2360954880516
 30
0.0
 11
307.9671166054995
 21
323.0086379739889
 31
0.0
  0
LINE
  5
24CA
330
18
100
AcDbEntity
  8
目盛
100
AcDbLine
 10
308.7438290343404
 20
318.8339484789909
 30
0.0
 11
307.4773371460873
 21
319.6376886714593
 31
0.0
  0
LINE
  5
24CB
330
18
100
AcDbEntity
  8
目盛
100
AcDbLine
 10
309.6513159388004
 20
320.4846610301997
 30
0.0
 11
308.2940753601014
 21
321.1233299675472
 31
0.0
  0
LINE
  5
24CC
330
18
100
AcDbEntity
  8
目盛
100
AcDbLine
 10
310.8132189127405
 20
324.0606306848899
 30
0.0
 11
309.3397880366474
 21
324.3417026567685
 31
0.0
  0
LINE
  5
24CD
330
18
100
AcDbEntity
  8
目盛
100
AcDbLine
 10
311.0493110782341
 20
325.929492610736
 30
0.0
 11
309.5522709855917
 21
326.02367839003
 31
0.0
  0
LINE
  5
24CE
330
18
100
AcDbEntity
  8
目盛
100
AcDbLine
 10
311.0493110782341
 20
327.8132081966155
 30
0.0
 11
309.5522709855917
 21
327.7190224173215
 31
0.0
  0
LINE
  5
24CF
330
18
100
AcDbEntity
  8
目盛
100
AcDbLine
 10
310.8132189127405
 20
329.6820701224616
 30
0.0
 11
309.3397880366475
 21
329.4009981505829
 31
0.0
  0
TEXT
  5
24D0
330
18
100
AcDbEntity
  8
文字
100
AcDbText
 10
288.4544995949102
 20
331.3713504036758
 30
0.0
 40
1.5
  1
NEW PIC-TEST
  7
STYLE3
100
AcDbText
  0
LINE
  5
24D2
330
18
100
AcDbEntity
  8
目盛
100
AcDbLine
 10
287.262131367423
 20
339.0066053192999
 30
0.0
 11
288.7315944981543
 21
336.9840628333625
 31
0.0
  0
LINE
  5
24D3
330
18
100
AcDbEntity
  8
目盛
100
AcDbLine
 10
285.8107035628798
 20
337.8058798149969
 30
0.0
 11
286.8375242217729
 21
336.7124268738648
 31
0.0
  0
LINE
  5
24D4
330
18
100
AcDbEntity
  8
目盛
100
AcDbLine
 10
281.8130624073829
 20
331.5066053193
 30
0.0
 11
284.1907036981207
 21
330.7340628333626
 31
0.0
  0
LINE
  5
24D5
330
18
100
AcDbEntity
  8
目盛
100
AcDbLine
 10
282.5065043648198
 20
333.2580397771518
 30
0.0
 11
283.8637449435189
 21
332.6193708398043
 31
0.0
  0
LINE
  5
24D6
330
18
100
AcDbEntity
  8
目盛
100
AcDbLine
 10
284.5212115101732
 20
336.4327102499061
 30
0.0
 11
285.6769813743371
 21
335.476574265283
 31
0.0
  0
LINE
  5
24D7
330
18
100
AcDbEntity
  8
目盛
100
AcDbLine
 10
283.4139912692798
 20
334.9087523283607
 30
0.0
 11
284.6804831575329
 21
334.1050121358922
 31
0.0
  0
TEXT
  5
24D8
330
18
100
AcDbEntity
  8
文字
100
AcDbText
 10
288.8662166191405
 20
335.0382815640762
 30
0.0
 40
1.8
  1
5
  7
STYLE3
100
AcDbText
  0
LINE
  5
24D9
330
18
100
AcDbEntity
  8
目盛
100
AcDbLine
 10
292.3485618443373
 20
341.4000978206052
 30
0.0
 11
292.7215966750847
 21
339.9472230789123
 31
0.0
  0
LINE
  5
24DA
330
18
100
AcDbEntity
  8
目盛
100
AcDbLine
 10
290.5570418615399
 20
340.8179976919995
 30
0.0
 11
291.109228690567
 21
339.4233329631671
 31
0.0
  0
LINE
  5
24DB
330
18
100
AcDbEntity
  8
目盛
100
AcDbLine
 10
288.8526050402844
 20
340.0159506043337
 30
0.0
 11
289.575235551437
 21
338.7014905842679
 31
0.0
  0
TEXT
  5
24DC
330
18
100
AcDbEntity
  8
文字
100
AcDbText
 10
295.2785011385389
 20
337.143421638796
 30
0.0
 40
1.8
  1
0
  7
STYLE3
100
AcDbText
  0
LINE
  5
24DD
330
18
100
AcDbEntity
  8
目盛
100
AcDbLine
 10
294.1989116483457
 20
341.7530709233929
 30
0.0
 11
294.386911498692
 21
340.2648988714212
 31
0.0
  0
LINE
  5
24DE
330
18
100
AcDbEntity
  8
目盛
100
AcDbLine
 10
296.0789101518102
 20
341.8713504036757
 30
0.0
 11
296.0789101518102
 21
339.3713504036758
 31
0.0
  0
LINE
  5
24DF
330
18
100
AcDbEntity
  8
目盛
100
AcDbLine
 10
307.636608793447
 20
336.4327102499061
 30
0.0
 11
306.4808389292833
 21
335.476574265283
 31
0.0
  0
LINE
  5
24E0
330
18
100
AcDbEntity
  8
目盛
100
AcDbLine
 10
304.8956889361972
 20
339.0066053193
 30
0.0
 11
303.4262258054661
 21
336.9840628333626
 31
0.0
  0
LINE
  5
24E1
330
18
100
AcDbEntity
  8
目盛
100
AcDbLine
 10
306.3471167407405
 20
337.8058798149969
 30
0.0
 11
305.3202960818475
 21
336.7124268738648
 31
0.0
  0
TEXT
  5
24E2
330
18
100
AcDbEntity
  8
文字
100
AcDbText
 10
301.8184068358884
 20
334.8313429716321
 30
0.0
 40
1.8
  1
5
  7
STYLE3
100
AcDbText
  0
LINE
  5
24E3
330
18
100
AcDbEntity
  8
目盛
100
AcDbLine
 10
301.6007784420803
 20
340.8179976919996
 30
0.0
 11
301.0485916130533
 21
339.4233329631671
 31
0.0
  0
LINE
  5
24E4
330
18
100
AcDbEntity
  8
目盛
100
AcDbLine
 10
299.8092584592829
 20
341.4000978206053
 30
0.0
 11
299.4362236285357
 21
339.9472230789123
 31
0.0
  0
LINE
  5
24E5
330
18
100
AcDbEntity
  8
目盛
100
AcDbLine
 10
297.9589086552747
 20
341.7530709233929
 30
0.0
 11
297.7709088049284
 21
340.2648988714212
 31
0.0
  0
LINE
  5
24E6
330
18
100
AcDbEntity
  8
目盛
100
AcDbLine
 10
303.3052152633359
 20
340.0159506043337
 30
0.0
 11
302.5825847521833
 21
338.7014905842679
 31
0.0
  0
LINE
  5
24E7
330
18
100
AcDbEntity
  8
目盛
100
AcDbLine
 10
309.6513159388004
 20
333.2580397771518
 30
0.0
 11
308.2940753601014
 21
332.6193708398043
 31
0.0
  0
LINE
  5
24E8
330
18
100
AcDbEntity
  8
目盛
100
AcDbLine
 10
308.7438290343404
 20
334.9087523283607
 30
0.0
 11
307.4773371460873
 21
334.1050121358922
 31
0.0
  0
LINE
  5
24E9
330
18
100
AcDbEntity
  8
目盛
100
AcDbLine
 10
310.3447578962374
 20
331.5066053193
 30
0.0
 11
307.9671166054997
 21
330.7340628333626
 31
0.0
  0
LINE
  5
24EA
330
18
100
AcDbEntity
  8
中心線
100
AcDbLine
 10
296.0789101518102
 20
305.7439589946834
 30
0.0
 11
296.0789101518102
 21
345.9703522611834
 31
0.0
  0
LINE
  5
24EB
330
18
100
AcDbEntity
  8
中心線
100
AcDbLine
 10
274.8900010616172
 20
326.8713504036758
 30
0.0
 11
316.2476649717099
 21
326.8713504036758
 31
0.0
  0
LINE
  5
2622
330
18
100
AcDbEntity
  8
0
  6
ByBlock
 62
     2
100
AcDbLine
 10
389.9887035940558
 20
269.1443811730685
 30
0.0
 11
389.9887035940558
 21
212.5664502440101
 31
0.0
  0
LINE
  5
2623
330
18
100
AcDbEntity
  8
0
  6
ByBlock
 62
     2
100
AcDbLine
 10
385.8387035940559
 20
213.8164502440101
 30
0.0
 11
383.3387035940559
 21
213.8164502440101
 31
0.0
  0
LINE
  5
2624
330
18
100
AcDbEntity
  8
0
  6
ByBlock
 62
     2
100
AcDbLine
 10
392.4887035940558
 20
213.8164502440101
 30
0.0
 11
401.2009607459222
 21
213.8164502440101
 31
0.0
  0
MTEXT
  5
2625
330
18
100
AcDbEntity
  8
0
  6
ByBlock
 62
     6
100
AcDbMText
 10
397.101721483088
 20
215.6656925835566
 30
0.0
 40
2.5
 41
0.0
 71
     5
 72
     1
  1
\A1;1.65
  7
STYLE3
 73
     1
 44
1.0
  0
LINE
  5
2626
330
18
100
AcDbEntity
  8
0
  6
ByBlock
 62
     2
100
AcDbLine
 10
388.3387035940559
 20
213.8164502440101
 30
0.0
 11
389.9887035940558
 21
213.8164502440101
 31
0.0
  0
LINE
  5
2627
330
18
100
AcDbEntity
  8
0
  6
ByBlock
 62
     2
100
AcDbLine
 10
388.3387035940559
 20
213.8164502440101
 30
0.0
 11
389.9887035940558
 21
213.8164502440101
 31
0.0
  0
INSERT
  5
2628
330
18
100
AcDbEntity
  8
0
  6
ByBlock
 62
     2
100
AcDbBlockReference
  2
_OPEN
 10
388.3387035940559
 20
213.8164502440101
 30
0.0
 41
2.5
 42
2.5
 43
2.5
  0
INSERT
  5
2629
330
18
100
AcDbEntity
  8
0
  6
ByBlock
 62
     2
100
AcDbBlockReference
  2
_OPEN
 10
389.9887035940558
 20
213.8164502440101
 30
0.0
 41
2.5
 42
2.5
 43
2.5
 50
180.0
  0
POINT
  5
262A
330
18
100
AcDbEntity
  8
DEFPOINTS
  6
ByBlock
 62
     0
100
AcDbPoint
 10
388.3387035940559
 20
263.390147340731
 30
0.0
  0
POINT
  5
262B
330
18
100
AcDbEntity
  8
DEFPOINTS
  6
ByBlock
 62
     0
100
AcDbPoint
 10
389.9887035940558
 20
269.1443811730685
 30
0.0
  0
POINT
  5
262C
330
18
100
AcDbEntity
  8
DEFPOINTS
  6
ByBlock
 62
     0
100
AcDbPoint
 10
389.9887035940558
 20
213.8164502440101
 30
0.0
  0
LINE
  5
262D
330
18
100
AcDbEntity
  8
0
  6
ByBlock
 62
     2
100
AcDbLine
 10
362.9887035940557
 20
248.3774720181713
 30
0.0
 11
362.9887035940557
 21
212.5664502440101
 31
0.0
  0
LINE
  5
262E
330
18
100
AcDbEntity
  8
0
  6
ByBlock
 62
     2
100
AcDbLine
 10
364.6387035940557
 20
242.3751546615749
 30
0.0
 11
364.6387035940557
 21
212.5664502440101
 31
0.0
  0
LINE
  5
262F
330
18
100
AcDbEntity
  8
0
  6
ByBlock
 62
     2
100
AcDbLine
 10
367.1387035940558
 20
213.8164502440101
 30
0.0
 11
369.6387035940558
 21
213.8164502440101
 31
0.0
  0
LINE
  5
2630
330
18
100
AcDbEntity
  8
0
  6
ByBlock
 62
     2
100
AcDbLine
 10
360.4887035940557
 20
213.8164502440101
 30
0.0
 11
351.7132105061218
 21
213.8164502440101
 31
0.0
  0
LINE
  5
2631
330
18
100
AcDbEntity
  8
0
  6
ByBlock
 62
     2
100
AcDbLine
 10
364.6387035940557
 20
213.8164502440101
 30
0.0
 11
362.9887035940557
 21
213.8164502440101
 31
0.0
  0
INSERT
  5
2632
330
18
100
AcDbEntity
  8
0
  6
ByBlock
 62
     2
100
AcDbBlockReference
  2
_OPEN
 10
364.6387035940557
 20
213.8164502440101
 30
0.0
 41
2.5
 42
2.5
 43
2.5
 50
180.0
  0
INSERT
  5
2633
330
18
100
AcDbEntity
  8
0
  6
ByBlock
 62
     2
100
AcDbBlockReference
  2
_OPEN
 10
362.9887035940557
 20
213.8164502440101
 30
0.0
 41
2.5
 42
2.5
 43
2.5
  0
MTEXT
  5
2634
330
18
100
AcDbEntity
  8
0
  6
ByBlock
 62
     6
100
AcDbMText
 10
355.9691628870742
 20
215.6914502440101
 30
0.0
 40
2.5
 41
0.0
 71
     5
 72
     1
  1
\A1;1.65
  7
STYLE3
 73
     1
 44
1.0
  0
POINT
  5
2635
330
18
100
AcDbEntity
  8
DEFPOINTS
  6
ByBlock
 62
     0
100
AcDbPoint
 10
362.9887035940557
 20
248.3774720181713
 30
0.0
  0
POINT
  5
2636
330
18
100
AcDbEntity
  8
DEFPOINTS
  6
ByBlock
 62
     0
100
AcDbPoint
 10
364.6387035940557
 20
242.3751546615749
 30
0.0
  0
POINT
  5
2637
330
18
100
AcDbEntity
  8
DEFPOINTS
  6
ByBlock
 62
     0
100
AcDbPoint
 10
364.6387035940557
 20
213.8164502440101
 30
0.0
  0
LINE
  5
2694
330
18
100
AcDbEntity
  8
0
  6
ByBlock
 62
     2
100
AcDbLine
 10
405.1848560167624
 20
279.875154661575
 30
0.0
 11
419.1762705402696
 21
279.875154661575
 31
0.0
  0
LINE
  5
2695
330
18
100
AcDbEntity
  8
0
  6
ByBlock
 62
     2
100
AcDbLine
 10
405.1848560167624
 20
273.875154661575
 30
0.0
 11
419.1762705402696
 21
273.875154661575
 31
0.0
  0
LINE
  5
2696
330
18
100
AcDbEntity
  8
0
  6
ByBlock
 62
     2
100
AcDbLine
 10
417.9262705402696
 20
282.375154661575
 30
0.0
 11
417.9262705402696
 21
284.875154661575
 31
0.0
  0
LINE
  5
2697
330
18
100
AcDbEntity
  8
0
  6
ByBlock
 62
     2
100
AcDbLine
 10
417.9262705402696
 20
271.375154661575
 30
0.0
 11
417.9262705402696
 21
268.875154661575
 31
0.0
  0
LINE
  5
2698
330
18
100
AcDbEntity
  8
0
  6
ByBlock
 62
     2
100
AcDbLine
 10
417.9262705402696
 20
279.875154661575
 30
0.0
 11
417.9262705402696
 21
273.875154661575
 31
0.0
  0
INSERT
  5
2699
330
18
100
AcDbEntity
  8
0
  6
ByBlock
 62
     2
100
AcDbBlockReference
  2
_OPEN
 10
417.9262705402696
 20
279.875154661575
 30
0.0
 41
2.5
 42
2.5
 43
2.5
 50
270.0
  0
INSERT
  5
269A
330
18
100
AcDbEntity
  8
0
  6
ByBlock
 62
     2
100
AcDbBlockReference
  2
_OPEN
 10
417.9262705402696
 20
273.875154661575
 30
0.0
 41
2.5
 42
2.5
 43
2.5
 50
90.0
  0
MTEXT
  5
269B
330
18
100
AcDbEntity
  8
0
  6
ByBlock
 62
     6
100
AcDbMText
 10
421.5300528519011
 20
276.4020491230042
 30
0.0
 40
2.5
 41
0.0
 71
     5
 72
     1
  1
\A1;φ6.0
  7
STYLE3
 11
0.0000000000000001
 21
1.0
 31
0.0
 73
     1
 44
1.0
  0
POINT
  5
269C
330
18
100
AcDbEntity
  8
DEFPOINTS
  6
ByBlock
 62
     0
100
AcDbPoint
 10
405.1848560167624
 20
279.875154661575
 30
0.0
  0
POINT
  5
269D
330
18
100
AcDbEntity
  8
DEFPOINTS
  6
ByBlock
 62
     0
100
AcDbPoint
 10
405.1848560167624
 20
273.875154661575
 30
0.0
  0
POINT
  5
269E
330
18
100
AcDbEntity
  8
DEFPOINTS
  6
ByBlock
 62
     0
100
AcDbPoint
 10
417.9262705402696
 20
273.875154661575
 30
0.0
  0
TEXT
  5
269F
330
18
100
AcDbEntity
  8
文字
100
AcDbText
 10
420.2248015155234
 20
282.7394671764275
 30
0.0
 40
1.5
  1
0
 50
90.0
  7
STYLE3
100
AcDbText
  0
TEXT
  5
26A0
330
18
100
AcDbEntity
  8
文字
100
AcDbText
 10
421.930671793321
 20
280.8861279762544
 30
0.0
 40
1.5
  1
-0.03
 50
90.0
  7
STYLE3
100
AcDbText
  0
LINE
  5
2826
330
18
100
AcDbEntity
  8
0
  6
ByBlock
 62
     2
100
AcDbLine
 10
362.9887035940557
 20
212.5664502440101
 30
0.0
 11
362.9887035940557
 21
206.7185001686454
 31
0.0
  0
LINE
  5
2827
330
18
100
AcDbEntity
  8
0
  6
ByBlock
 62
     2
100
AcDbLine
 10
389.9887035940558
 20
212.5664502440101
 30
0.0
 11
389.9887035940558
 21
206.7185001686454
 31
0.0
  0
LINE
  5
2828
330
18
100
AcDbEntity
  8
0
  6
ByBlock
 62
     2
100
AcDbLine
 10
365.4887035940557
 20
207.9685001686454
 30
0.0
 11
387.4887035940558
 21
207.9685001686454
 31
0.0
  0
INSERT
  5
2829
330
18
100
AcDbEntity
  8
0
  6
ByBlock
 62
     2
100
AcDbBlockReference
  2
_OPEN
 10
362.9887035940557
 20
207.9685001686454
 30
0.0
 41
2.5
 42
2.5
 43
2.5
 50
180.0
  0
INSERT
  5
282A
330
18
100
AcDbEntity
  8
0
  6
ByBlock
 62
     2
100
AcDbBlockReference
  2
_OPEN
 10
389.9887035940558
 20
207.9685001686454
 30
0.0
 41
2.5
 42
2.5
 43
2.5
  0
MTEXT
  5
282B
330
18
100
AcDbEntity
  8
0
  6
ByBlock
 62
     6
100
AcDbMText
 10
376.4887035940558
 20
209.8435001686454
 30
0.0
 40
2.5
 41
0.0
 71
     5
 72
     1
  1
\A1;27
  7
STYLE3
 73
     1
 44
1.0
  0
POINT
  5
282C
330
18
100
AcDbEntity
  8
DEFPOINTS
  6
ByBlock
 62
     0
100
AcDbPoint
 10
362.9887035940557
 20
212.5664502440101
 30
0.0
  0
POINT
  5
282D
330
18
100
AcDbEntity
  8
DEFPOINTS
  6
ByBlock
 62
     0
100
AcDbPoint
 10
389.9887035940558
 20
212.5664502440101
 30
0.0
  0
POINT
  5
282E
330
18
100
AcDbEntity
  8
DEFPOINTS
  6
ByBlock
 62
     0
100
AcDbPoint
 10
389.9887035940558
 20
207.9685001686454
 30
0.0
  0
LINE
  5
282F
330
18
100
AcDbEntity
  8
0
  6
ByBlock
 62
     2
100
AcDbLine
 10
388.3387035940559
 20
263.390147340731
 30
0.0
 11
388.3387035940559
 21
212.5664502440101
 31
0.0
  0
LINE
  5
2830
330
18
100
AcDbEntity
  8
0
  6
ByBlock
 62
     2
100
AcDbLine
 10
367.1387035940558
 20
213.8164502440101
 30
0.0
 11
385.8387035940559
 21
213.8164502440101
 31
0.0
  0
INSERT
  5
2831
330
18
100
AcDbEntity
  8
0
  6
ByBlock
 62
     2
100
AcDbBlockReference
  2
_OPEN
 10
364.6387035940557
 20
213.8164502440101
 30
0.0
 41
2.5
 42
2.5
 43
2.5
 50
180.0
  0
INSERT
  5
2832
330
18
100
AcDbEntity
  8
0
  6
ByBlock
 62
     2
100
AcDbBlockReference
  2
_OPEN
 10
388.3387035940559
 20
213.8164502440101
 30
0.0
 41
2.5
 42
2.5
 43
2.5
  0
MTEXT
  5
2833
330
18
100
AcDbEntity
  8
0
  6
ByBlock
 62
     6
100
AcDbMText
 10
376.4887035940558
 20
215.6914502440101
 30
0.0
 40
2.5
 41
0.0
 71
     5
 72
     1
  1
\A1;23.7
  7
STYLE3
 73
     1
 44
1.0
  0
POINT
  5
2834
330
18
100
AcDbEntity
  8
DEFPOINTS
  6
ByBlock
 62
     0
100
AcDbPoint
 10
364.6387035940557
 20
242.3751546615749
 30
0.0
  0
POINT
  5
2835
330
18
100
AcDbEntity
  8
DEFPOINTS
  6
ByBlock
 62
     0
100
AcDbPoint
 10
388.3387035940559
 20
263.390147340731
 30
0.0
  0
POINT
  5
2836
330
18
100
AcDbEntity
  8
DEFPOINTS
  6
ByBlock
 62
     0
100
AcDbPoint
 10
388.3387035940559
 20
213.8164502440101
 30
0.0
  0
LINE
  5
2837
330
18
100
AcDbEntity
  8
0
  6
ByBlock
 62
     2
100
AcDbLine
 10
409.632333825871
 20
276.875154661575
 30
0.0
 11
412.8171277875382
 21
276.875154661575
 31
0.0
  0
LINE
  5
2838
330
18
100
AcDbEntity
  8
0
  6
ByBlock
 62
     2
100
AcDbLine
 10
371.5994515593031
 20
221.0751546615749
 30
0.0
 11
412.8171277875382
 21
221.0751546615749
 31
0.0
  0
LINE
  5
2839
330
18
100
AcDbEntity
  8
0
  6
ByBlock
 62
     2
100
AcDbLine
 10
411.5671277875382
 20
274.375154661575
 30
0.0
 11
411.5671277875382
 21
223.5751546615749
 31
0.0
  0
INSERT
  5
283A
330
18
100
AcDbEntity
  8
0
  6
ByBlock
 62
     2
100
AcDbBlockReference
  2
_OPEN
 10
411.5671277875382
 20
276.875154661575
 30
0.0
 41
2.5
 42
2.5
 43
2.5
 50
90.0
  0
INSERT
  5
283B
330
18
100
AcDbEntity
  8
0
  6
ByBlock
 62
     2
100
AcDbBlockReference
  2
_OPEN
 10
411.5671277875382
 20
221.0751546615749
 30
0.0
 41
2.5
 42
2.5
 43
2.5
 50
270.0
  0
MTEXT
  5
283C
330
18
100
AcDbEntity
  8
0
  6
ByBlock
 62
     6
100
AcDbMText
 10
409.6921277875382
 20
248.9751546615749
 30
0.0
 40
2.5
 41
0.0
 71
     5
 72
     1
  1
\A1;55.8
  7
STYLE3
 11
0.0000000000000001
 21
1.0
 31
0.0
 73
     1
 44
1.0
  0
POINT
  5
283D
330
18
100
AcDbEntity
  8
DEFPOINTS
  6
ByBlock
 62
     0
100
AcDbPoint
 10
409.632333825871
 20
276.875154661575
 30
0.0
  0
POINT
  5
283E
330
18
100
AcDbEntity
  8
DEFPOINTS
  6
ByBlock
 62
     0
100
AcDbPoint
 10
371.5994515593031
 20
221.0751546615749
 30
0.0
  0
POINT
  5
283F
330
18
100
AcDbEntity
  8
DEFPOINTS
  6
ByBlock
 62
     0
100
AcDbPoint
 10
411.5671277875382
 20
221.0751546615749
 30
0.0
  0
LINE
  5
2840
330
18
100
AcDbEntity
  8
0
  6
ByBlock
 62
     2
100
AcDbLine
 10
358.9887035940559
 20
292.3114126929822
 30
0.0
 11
358.9887035940559
 21
306.8623083634012
 31
0.0
  0
LINE
  5
2841
330
18
100
AcDbEntity
  8
0
  6
ByBlock
 62
     2
100
AcDbLine
 10
393.9887035940559
 20
292.3114126929822
 30
0.0
 11
393.9887035940559
 21
306.8623083634012
 31
0.0
  0
LINE
  5
2842
330
18
100
AcDbEntity
  8
0
  6
ByBlock
 62
     2
100
AcDbLine
 10
361.4887035940559
 20
305.6123083634012
 30
0.0
 11
391.488703594056
 21
305.6123083634012
 31
0.0
  0
INSERT
  5
2843
330
18
100
AcDbEntity
  8
0
  6
ByBlock
 62
     2
100
AcDbBlockReference
  2
_OPEN
 10
358.9887035940559
 20
305.6123083634012
 30
0.0
 41
2.5
 42
2.5
 43
2.5
 50
180.0
  0
INSERT
  5
2844
330
18
100
AcDbEntity
  8
0
  6
ByBlock
 62
     2
100
AcDbBlockReference
  2
_OPEN
 10
393.9887035940559
 20
305.6123083634012
 30
0.0
 41
2.5
 42
2.5
 43
2.5
  0
MTEXT
  5
2845
330
18
100
AcDbEntity
  8
0
  6
ByBlock
 62
     6
100
AcDbMText
 10
376.488703594056
 20
307.4873083634011
 30
0.0
 40
2.5
 41
0.0
 71
     5
 72
     1
  1
\A1;φ35
  7
STYLE3
 73
     1
 44
1.0
  0
POINT
  5
2846
330
18
100
AcDbEntity
  8
DEFPOINTS
  6
ByBlock
 62
     0
100
AcDbPoint
 10
358.9887035940559
 20
292.3114126929822
 30
0.0
  0
POINT
  5
2847
330
18
100
AcDbEntity
  8
DEFPOINTS
  6
ByBlock
 62
     0
100
AcDbPoint
 10
393.9887035940559
 20
292.3114126929822
 30
0.0
  0
POINT
  5
2848
330
18
100
AcDbEntity
  8
DEFPOINTS
  6
ByBlock
 62
     0
100
AcDbPoint
 10
393.9887035940559
 20
305.6123083634012
 30
0.0
  0
LINE
  5
2849
330
18
100
AcDbEntity
  8
寸法線
 62
     2
100
AcDbLine
 10
379.2149705003284
 20
249.9000071538571
 30
0.0
 11
383.001494223677
 21
243.3496889386962
 31
0.0
1001
ACAD
1000
DSTYLE
1002
{
1070
   271
1070
     2
1002
}
  0
LINE
  5
284A
330
18
100
AcDbEntity
  8
寸法線
 62
     2
100
AcDbLine
 10
383.001494223677
 20
243.3496889386962
 30
0.0
 11
388.031256128439
 21
243.3496889386962
 31
0.0
1001
ACAD
1000
DSTYLE
1002
{
1070
   271
1070
     2
1002
}
  0
LINE
  5
284B
330
18
100
AcDbEntity
  8
0
  6
ByBlock
 62
     2
100
AcDbLine
 10
291.0789101518102
 20
240.375154661575
 30
0.0
 11
291.0789101518102
 21
231.4111650347343
 31
0.0
  0
LINE
  5
284C
330
18
100
AcDbEntity
  8
0
  6
ByBlock
 62
     2
100
AcDbLine
 10
301.0789101518102
 20
240.375154661575
 30
0.0
 11
301.0789101518102
 21
231.4111650347343
 31
0.0
  0
LINE
  5
284D
330
18
100
AcDbEntity
  8
0
  6
ByBlock
 62
     2
100
AcDbLine
 10
293.5789101518102
 20
232.6611650347343
 30
0.0
 11
298.5789101518102
 21
232.6611650347343
 31
0.0
  0
LINE
  5
284E
330
18
100
AcDbEntity
  8
0
  6
ByBlock
 62
     2
100
AcDbLine
 10
301.0789101518102
 20
232.6611650347343
 30
0.0
 11
308.5193863422864
 21
232.6611650347343
 31
0.0
  0
INSERT
  5
284F
330
18
100
AcDbEntity
  8
0
  6
ByBlock
 62
     2
100
AcDbBlockReference
  2
_OPEN
 10
291.0789101518102
 20
232.6611650347343
 30
0.0
 41
2.5
 42
2.5
 43
2.5
 50
180.0
  0
INSERT
  5
2850
330
18
100
AcDbEntity
  8
0
  6
ByBlock
 62
     2
100
AcDbBlockReference
  2
_OPEN
 10
301.0789101518102
 20
232.6611650347343
 30
0.0
 41
2.5
 42
2.5
 43
2.5
  0
MTEXT
  5
2851
330
18
100
AcDbEntity
  8
0
  6
ByBlock
 62
     6
100
AcDbMText
 10
306.0491482470482
 20
234.5361650347343
 30
0.0
 40
2.5
 41
0.0
 71
     5
 72
     1
  1
\A1;10
  7
STYLE3
 73
     1
 44
1.0
  0
POINT
  5
2852
330
18
100
AcDbEntity
  8
DEFPOINTS
  6
ByBlock
 62
     0
100
AcDbPoint
 10
291.0789101518102
 20
240.375154661575
 30
0.0
  0
POINT
  5
2853
330
18
100
AcDbEntity
  8
DEFPOINTS
  6
ByBlock
 62
     0
100
AcDbPoint
 10
301.0789101518102
 20
240.375154661575
 30
0.0
  0
POINT
  5
2854
330
18
100
AcDbEntity
  8
DEFPOINTS
  6
ByBlock
 62
     0
100
AcDbPoint
 10
301.0789101518102
 20
232.6611650347343
 30
0.0
  0
LINE
  5
2855
330
18
100
AcDbEntity
  8
0
  6
ByBlock
 62
     2
100
AcDbLine
 10
299.0396581170575
 20
221.075154661575
 30
0.0
 11
328.9888294550282
 21
221.075154661575
 31
0.0
  0
LINE
  5
2856
330
18
100
AcDbEntity
  8
0
  6
ByBlock
 62
     2
100
AcDbLine
 10
327.7388294550282
 20
239.875154661575
 30
0.0
 11
327.7388294550282
 21
223.575154661575
 31
0.0
  0
INSERT
  5
2857
330
18
100
AcDbEntity
  8
0
  6
ByBlock
 62
     2
100
AcDbBlockReference
  2
_OPEN
 10
327.7388294550282
 20
242.375154661575
 30
0.0
 41
2.5
 42
2.5
 43
2.5
 50
90.0
  0
INSERT
  5
2858
330
18
100
AcDbEntity
  8
0
  6
ByBlock
 62
     2
100
AcDbBlockReference
  2
_OPEN
 10
327.7388294550282
 20
221.075154661575
 30
0.0
 41
2.5
 42
2.5
 43
2.5
 50
270.0
  0
MTEXT
  5
2859
330
18
100
AcDbEntity
  8
0
  6
ByBlock
 62
     6
100
AcDbMText
 10
325.8638294550282
 20
231.725154661575
 30
0.0
 40
2.5
 41
0.0
 71
     5
 72
     1
  1
\A1;21.3
  7
STYLE3
 11
0.0000000000000001
 21
1.0
 31
0.0
 73
     1
 44
1.0
  0
POINT
  5
285A
330
18
100
AcDbEntity
  8
DEFPOINTS
  6
ByBlock
 62
     0
100
AcDbPoint
 10
322.6758305028112
 20
242.375154661575
 30
0.0
  0
POINT
  5
285B
330
18
100
AcDbEntity
  8
DEFPOINTS
  6
ByBlock
 62
     0
100
AcDbPoint
 10
299.0396581170575
 20
221.075154661575
 30
0.0
  0
POINT
  5
285C
330
18
100
AcDbEntity
  8
DEFPOINTS
  6
ByBlock
 62
     0
100
AcDbPoint
 10
327.7388294550282
 20
221.075154661575
 30
0.0
  0
LINE
  5
285D
330
18
100
AcDbEntity
  8
0
  6
ByBlock
 62
     2
100
AcDbLine
 10
304.1673862636002
 20
242.375154661575
 30
0.0
 11
322.6758305028112
 21
242.375154661575
 31
0.0
  0
LINE
  5
285E
330
18
100
AcDbEntity
  8
0
  6
ByBlock
 62
     2
100
AcDbLine
 10
321.4258305028112
 20
284.3751546615747
 30
0.0
 11
321.4258305028112
 21
244.875154661575
 31
0.0
  0
INSERT
  5
285F
330
18
100
AcDbEntity
  8
0
  6
ByBlock
 62
     2
100
AcDbBlockReference
  2
_OPEN
 10
321.4258305028112
 20
286.8751546615746
 30
0.0
 41
2.5
 42
2.5
 43
2.5
 50
90.0
  0
INSERT
  5
2860
330
18
100
AcDbEntity
  8
0
  6
ByBlock
 62
     2
100
AcDbBlockReference
  2
_OPEN
 10
321.4258305028112
 20
242.375154661575
 30
0.0
 41
2.5
 42
2.5
 43
2.5
 50
270.0
  0
MTEXT
  5
2861
330
18
100
AcDbEntity
  8
0
  6
ByBlock
 62
     6
100
AcDbMText
 10
319.5508305028112
 20
264.6251546615748
 30
0.0
 40
2.5
 41
0.0
 71
     5
 72
     1
  1
\A1;44.5
  7
STYLE3
 11
0.0000000000000001
 21
1.0
 31
0.0
 73
     1
 44
1.0
  0
POINT
  5
2862
330
18
100
AcDbEntity
  8
DEFPOINTS
  6
ByBlock
 62
     0
100
AcDbPoint
 10
310.5789101518102
 20
286.8751546615746
 30
0.0
  0
POINT
  5
2863
330
18
100
AcDbEntity
  8
DEFPOINTS
  6
ByBlock
 62
     0
100
AcDbPoint
 10
304.1673862636002
 20
242.375154661575
 30
0.0
  0
POINT
  5
2864
330
18
100
AcDbEntity
  8
DEFPOINTS
  6
ByBlock
 62
     0
100
AcDbPoint
 10
321.4258305028112
 20
242.375154661575
 30
0.0
  0
LINE
  5
2865
330
18
100
AcDbEntity
  8
0
  6
ByBlock
 62
     2
100
AcDbLine
 10
296.0789101518102
 20
295.375154661575
 30
0.0
 11
322.6758305028112
 21
295.375154661575
 31
0.0
  0
LINE
  5
2866
330
18
100
AcDbEntity
  8
0
  6
ByBlock
 62
     2
100
AcDbLine
 10
310.5789101518102
 20
286.8751546615746
 30
0.0
 11
322.6758305028112
 21
286.8751546615746
 31
0.0
  0
LINE
  5
2867
330
18
100
AcDbEntity
  8
0
  6
ByBlock
 62
     2
100
AcDbLine
 10
321.4258305028112
 20
292.875154661575
 30
0.0
 11
321.4258305028112
 21
289.3751546615746
 31
0.0
  0
INSERT
  5
2868
330
18
100
AcDbEntity
  8
0
  6
ByBlock
 62
     2
100
AcDbBlockReference
  2
_OPEN
 10
321.4258305028112
 20
295.375154661575
 30
0.0
 41
2.5
 42
2.5
 43
2.5
 50
90.0
  0
INSERT
  5
2869
330
18
100
AcDbEntity
  8
0
  6
ByBlock
 62
     2
100
AcDbBlockReference
  2
_OPEN
 10
321.4258305028112
 20
286.8751546615746
 30
0.0
 41
2.5
 42
2.5
 43
2.5
 50
270.0
  0
MTEXT
  5
286A
330
18
100
AcDbEntity
  8
0
  6
ByBlock
 62
     6
100
AcDbMText
 10
319.5508305028112
 20
291.1251546615748
 30
0.0
 40
2.5
 41
0.0
 71
     5
 72
     1
  1
\A1;8.5
  7
STYLE3
 11
0.0000000000000001
 21
1.0
 31
0.0
 73
     1
 44
1.0
  0
POINT
  5
286B
330
18
100
AcDbEntity
  8
DEFPOINTS
  6
ByBlock
 62
     0
100
AcDbPoint
 10
296.0789101518102
 20
295.375154661575
 30
0.0
  0
POINT
  5
286C
330
18
100
AcDbEntity
  8
DEFPOINTS
  6
ByBlock
 62
     0
100
AcDbPoint
 10
310.5789101518102
 20
286.8751546615746
 30
0.0
  0
POINT
  5
286D
330
18
100
AcDbEntity
  8
DEFPOINTS
  6
ByBlock
 62
     0
100
AcDbPoint
 10
321.4258305028112
 20
286.8751546615746
 30
0.0
  0
LINE
  5
286E
330
18
100
AcDbEntity
  8
0
  6
ByBlock
 62
     2
100
AcDbLine
 10
453.8842191998164
 20
255.1652035744945
 30
0.0
 11
453.8842191998164
 21
266.1909678032393
 31
0.0
  0
LINE
  5
286F
330
18
100
AcDbEntity
  8
0
  6
ByBlock
 62
     2
100
AcDbLine
 10
466.3383501446103
 20
255.1652035744946
 30
0.0
 11
466.3383501446103
 21
266.1909678032393
 31
0.0
  0
LINE
  5
2870
330
18
100
AcDbEntity
  8
0
  6
ByBlock
 62
     2
100
AcDbLine
 10
456.3842191998165
 20
264.9409678032394
 30
0.0
 11
463.8383501446103
 21
264.9409678032394
 31
0.0
  0
INSERT
  5
2871
330
18
100
AcDbEntity
  8
0
  6
ByBlock
 62
     2
100
AcDbBlockReference
  2
_OPEN
 10
453.8842191998164
 20
264.9409678032394
 30
0.0
 41
2.5
 42
2.5
 43
2.5
 50
180.0
  0
INSERT
  5
2872
330
18
100
AcDbEntity
  8
0
  6
ByBlock
 62
     2
100
AcDbBlockReference
  2
_OPEN
 10
466.3383501446103
 20
264.9409678032394
 30
0.0
 41
2.5
 42
2.5
 43
2.5
  0
MTEXT
  5
2873
330
18
100
AcDbEntity
  8
0
  6
ByBlock
 62
     6
100
AcDbMText
 10
460.1112846722133
 20
267.4707297080012
 30
0.0
 40
2.5
 41
0.0
 71
     5
 72
     1
  1
\A1;(6.35)
  7
STYLE3
 73
     1
 44
1.0
  0
POINT
  5
2874
330
18
100
AcDbEntity
  8
DEFPOINTS
  6
ByBlock
 62
     0
100
AcDbPoint
 10
453.8842191998164
 20
255.1652035744945
 30
0.0
  0
POINT
  5
2875
330
18
100
AcDbEntity
  8
DEFPOINTS
  6
ByBlock
 62
     0
100
AcDbPoint
 10
466.3383501446103
 20
255.1652035744946
 30
0.0
  0
POINT
  5
2876
330
18
100
AcDbEntity
  8
DEFPOINTS
  6
ByBlock
 62
     0
100
AcDbPoint
 10
466.3383501446103
 20
264.9409678032394
 30
0.0
  0
LINE
  5
2877
330
18
100
AcDbEntity
  8
0
  6
ByBlock
 62
     2
100
AcDbLine
 10
451.6942191998164
 20
253.3652035744944
 30
0.0
 11
451.6942191998164
 21
272.7909492056418
 31
0.0
  0
LINE
  5
2878
330
18
100
AcDbEntity
  8
0
  6
ByBlock
 62
     2
100
AcDbLine
 10
468.7742191998165
 20
253.3652035744944
 30
0.0
 11
468.7742191998165
 21
272.7909492056418
 31
0.0
  0
LINE
  5
2879
330
18
100
AcDbEntity
  8
0
  6
ByBlock
 62
     2
100
AcDbLine
 10
454.1942191998164
 20
271.5409492056418
 30
0.0
 11
466.2742191998165
 21
271.5409492056418
 31
0.0
  0
INSERT
  5
287A
330
18
100
AcDbEntity
  8
0
  6
ByBlock
 62
     2
100
AcDbBlockReference
  2
_OPEN
 10
451.6942191998164
 20
271.5409492056418
 30
0.0
 41
2.5
 42
2.5
 43
2.5
 50
180.0
  0
INSERT
  5
287B
330
18
100
AcDbEntity
  8
0
  6
ByBlock
 62
     2
100
AcDbBlockReference
  2
_OPEN
 10
468.7742191998165
 20
271.5409492056418
 30
0.0
 41
2.5
 42
2.5
 43
2.5
  0
MTEXT
  5
287C
330
18
100
AcDbEntity
  8
0
  6
ByBlock
 62
     6
100
AcDbMText
 10
460.2342191998165
 20
273.4159492056418
 30
0.0
 40
2.5
 41
0.0
 71
     5
 72
     1
  1
\A1;8.54
  7
STYLE3
 73
     1
 44
1.0
  0
POINT
  5
287D
330
18
100
AcDbEntity
  8
DEFPOINTS
  6
ByBlock
 62
     0
100
AcDbPoint
 10
451.6942191998164
 20
253.3652035744944
 30
0.0
  0
POINT
  5
287E
330
18
100
AcDbEntity
  8
DEFPOINTS
  6
ByBlock
 62
     0
100
AcDbPoint
 10
468.7742191998165
 20
253.3652035744944
 30
0.0
  0
POINT
  5
287F
330
18
100
AcDbEntity
  8
DEFPOINTS
  6
ByBlock
 62
     0
100
AcDbPoint
 10
468.7742191998165
 20
271.5409492056418
 30
0.0
  0
LINE
  5
2880
330
18
100
AcDbEntity
  8
0
  6
ByBlock
 62
     2
100
AcDbLine
 10
292.0789101518102
 20
238.3751546615749
 30
0.0
 11
282.072367199048
 21
238.3751546615749
 31
0.0
  0
LINE
  5
2881
330
18
100
AcDbEntity
  8
0
  6
ByBlock
 62
     2
100
AcDbLine
 10
293.6955079068255
 20
221.075154661575
 30
0.0
 11
282.072367199048
 21
221.075154661575
 31
0.0
  0
LINE
  5
2882
330
18
100
AcDbEntity
  8
0
  6
ByBlock
 62
     2
100
AcDbLine
 10
283.322367199048
 20
235.8751546615749
 30
0.0
 11
283.322367199048
 21
223.575154661575
 31
0.0
  0
INSERT
  5
2883
330
18
100
AcDbEntity
  8
0
  6
ByBlock
 62
     2
100
AcDbBlockReference
  2
_OPEN
 10
283.322367199048
 20
238.3751546615749
 30
0.0
 41
2.5
 42
2.5
 43
2.5
 50
90.0
  0
INSERT
  5
2884
330
18
100
AcDbEntity
  8
0
  6
ByBlock
 62
     2
100
AcDbBlockReference
  2
_OPEN
 10
283.322367199048
 20
221.075154661575
 30
0.0
 41
2.5
 42
2.5
 43
2.5
 50
270.0
  0
MTEXT
  5
2885
330
18
100
AcDbEntity
  8
0
  6
ByBlock
 62
     6
100
AcDbMText
 10
281.447367199048
 20
229.725154661575
 30
0.0
 40
2.5
 41
0.0
 71
     5
 72
     1
  1
\A1;17.3
  7
STYLE3
 11
0.0000000000000001
 21
1.0
 31
0.0
 73
     1
 44
1.0
  0
POINT
  5
2886
330
18
100
AcDbEntity
  8
DEFPOINTS
  6
ByBlock
 62
     0
100
AcDbPoint
 10
292.0789101518102
 20
238.3751546615749
 30
0.0
  0
POINT
  5
2887
330
18
100
AcDbEntity
  8
DEFPOINTS
  6
ByBlock
 62
     0
100
AcDbPoint
 10
293.6955079068255
 20
221.075154661575
 30
0.0
  0
POINT
  5
2888
330
18
100
AcDbEntity
  8
DEFPOINTS
  6
ByBlock
 62
     0
100
AcDbPoint
 10
283.322367199048
 20
221.075154661575
 30
0.0
  0
LINE
  5
2889
330
18
100
AcDbEntity
  8
外形線
100
AcDbLine
 10
297.3289101518102
 20
234.3751546615751
 30
0.0
 11
296.6789101518102
 21
221.875154661575
 31
0.0
  0
LINE
  5
288A
330
18
100
AcDbEntity
  8
外形線
100
AcDbLine
 10
294.8289101518102
 20
234.375154661575
 30
0.0
 11
295.4789101518102
 21
221.875154661575
 31
0.0
  0
ARC
  5
288B
330
18
100
AcDbEntity
  8
外形線
100
AcDbCircle
 10
296.0789101518102
 20
221.075154661575
 30
0.0
 40
1.0
100
AcDbArc
 50
126.869897645842
 51
53.13010235415791
  0
LINE
  5
288C
330
18
100
AcDbEntity
  8
外形線
100
AcDbLine
 10
295.4789101518102
 20
221.875154661575
 30
0.0
 11
296.6789101518102
 21
221.875154661575
 31
0.0
  0
LINE
  5
288D
330
18
100
AcDbEntity
  8
隠れ線
 62
     4
 48
0.3
100
AcDbLine
 10
296.0789101518102
 20
222.0747764913527
 30
0.0
 11
295.4789101518102
 21
221.875154661575
 31
0.0
  0
LINE
  5
288E
330
18
100
AcDbEntity
  8
隠れ線
 62
     4
 48
0.3
100
AcDbLine
 10
296.0789101518102
 20
222.0747764913527
 30
0.0
 11
296.6789101518102
 21
221.875154661575
 31
0.0
  0
LINE
  5
288F
330
18
100
AcDbEntity
  8
外形線
100
AcDbLine
 10
297.3289101518102
 20
238.5151546615749
 30
0.0
 11
297.3289101518102
 21
237.1151546615749
 31
0.0
  0
LINE
  5
2890
330
18
100
AcDbEntity
  8
外形線
100
AcDbLine
 10
294.8289101518102
 20
238.5151546615749
 30
0.0
 11
294.8289101518102
 21
237.115154661575
 31
0.0
  0
LINE
  5
2891
330
18
100
AcDbEntity
  8
外形線
100
AcDbLine
 10
297.3289101518102
 20
234.3751546615751
 30
0.0
 11
294.8289101518102
 21
234.375154661575
 31
0.0
  0
LINE
  5
2892
330
18
100
AcDbEntity
  8
外形線
100
AcDbLine
 10
297.3289101518102
 20
236.515154661575
 30
0.0
 11
294.8289101518102
 21
236.515154661575
 31
0.0
  0
LINE
  5
2893
330
18
100
AcDbEntity
  8
外形線
 62
     4
100
AcDbLine
 10
296.8092949095397
 20
236.8151546615749
 30
0.0
 11
295.3485253940808
 21
236.8151546615749
 31
0.0
  0
LINE
  5
2894
330
18
100
AcDbEntity
  8
外形線
100
AcDbLine
 10
297.3289101518102
 20
237.115154661575
 30
0.0
 11
294.8289101518102
 21
237.115154661575
 31
0.0
  0
LINE
  5
2895
330
18
100
AcDbEntity
  8
外形線
100
AcDbLine
 10
294.8289101518102
 20
236.515154661575
 30
0.0
 11
294.8289101518102
 21
234.375154661575
 31
0.0
  0
LINE
  5
2896
330
18
100
AcDbEntity
  8
外形線
100
AcDbLine
 10
294.8289101518102
 20
236.515154661575
 30
0.0
 11
295.3485253940808
 21
236.8151546615751
 31
0.0
  0
LINE
  5
2897
330
18
100
AcDbEntity
  8
外形線
100
AcDbLine
 10
294.8289101518102
 20
237.115154661575
 30
0.0
 11
295.3485253940809
 21
236.8151546615751
 31
0.0
  0
LINE
  5
2898
330
18
100
AcDbEntity
  8
外形線
100
AcDbLine
 10
297.3289101518102
 20
236.515154661575
 30
0.0
 11
297.3289101518102
 21
234.3751546615751
 31
0.0
  0
LINE
  5
2899
330
18
100
AcDbEntity
  8
外形線
100
AcDbLine
 10
297.3289101518102
 20
236.515154661575
 30
0.0
 11
296.8092949095395
 21
236.8151546615751
 31
0.0
  0
LINE
  5
289A
330
18
100
AcDbEntity
  8
外形線
100
AcDbLine
 10
297.3289101518102
 20
237.115154661575
 30
0.0
 11
296.8092949095395
 21
236.8151546615751
 31
0.0
  0
LINE
  5
289B
330
18
100
AcDbEntity
  8
外形線
100
AcDbLine
 10
294.8289101518102
 20
238.515154661575
 30
0.0
 11
296.0789101518102
 21
238.515154661575
 31
0.0
  0
LINE
  5
289C
330
18
100
AcDbEntity
  8
外形線
100
AcDbLine
 10
294.4789101518101
 20
238.715154661575
 30
0.0
 11
294.5789101518101
 21
238.615154661575
 31
0.0
  0
LINE
  5
289D
330
18
100
AcDbEntity
  8
外形線
100
AcDbLine
 10
294.9289101518104
 20
238.615154661575
 30
0.0
 11
294.8289101518102
 21
238.5151546615749
 31
0.0
  0
LINE
  5
289E
330
18
100
AcDbEntity
  8
外形線
100
AcDbLine
 10
297.0789101518101
 20
238.715154661575
 30
0.0
 11
296.9789101518101
 21
238.615154661575
 31
0.0
  0
LINE
  5
289F
330
18
100
AcDbEntity
  8
外形線
100
AcDbLine
 10
296.0789101518102
 20
238.515154661575
 30
0.0
 11
297.3289101518102
 21
238.515154661575
 31
0.0
  0
LINE
  5
28A0
330
18
100
AcDbEntity
  8
外形線
100
AcDbLine
 10
297.22891015181
 20
238.615154661575
 30
0.0
 11
297.3289101518102
 21
238.5151546615749
 31
0.0
  0
LINE
  5
28A1
330
18
100
AcDbEntity
  8
0
  6
ByBlock
 62
     2
100
AcDbLine
 10
292.0789101518102
 20
266.046529285545
 30
0.0
 11
292.0789101518102
 21
268.5024908445151
 31
0.0
  0
LINE
  5
28A2
330
18
100
AcDbEntity
  8
0
  6
ByBlock
 62
     2
100
AcDbLine
 10
300.0789101518102
 20
264.7084524034852
 30
0.0
 11
300.0789101518102
 21
268.5024908445151
 31
0.0
  0
LINE
  5
28A3
330
18
100
AcDbEntity
  8
0
  6
ByBlock
 62
     2
100
AcDbLine
 10
294.5789101518102
 20
267.2524908445151
 30
0.0
 11
297.5789101518102
 21
267.2524908445151
 31
0.0
  0
LINE
  5
28A4
330
18
100
AcDbEntity
  8
0
  6
ByBlock
 62
     2
100
AcDbLine
 10
300.0789101518102
 20
267.2524908445151
 30
0.0
 11
305.4955768184769
 21
267.2524908445151
 31
0.0
  0
INSERT
  5
28A5
330
18
100
AcDbEntity
  8
0
  6
ByBlock
 62
     2
100
AcDbBlockReference
  2
_OPEN
 10
292.0789101518102
 20
267.2524908445151
 30
0.0
 41
2.5
 42
2.5
 43
2.5
 50
180.0
  0
INSERT
  5
28A6
330
18
100
AcDbEntity
  8
0
  6
ByBlock
 62
     2
100
AcDbBlockReference
  2
_OPEN
 10
300.0789101518102
 20
267.2524908445151
 30
0.0
 41
2.5
 42
2.5
 43
2.5
  0
MTEXT
  5
28A7
330
18
100
AcDbEntity
  8
0
  6
ByBlock
 62
     6
100
AcDbMText
 10
304.0372434851435
 20
269.1274908445151
 30
0.0
 40
2.5
 41
0.0
 71
     5
 72
     1
  1
\A1;8
  7
STYLE3
 73
     1
 44
1.0
  0
POINT
  5
28A8
330
18
100
AcDbEntity
  8
DEFPOINTS
  6
ByBlock
 62
     0
100
AcDbPoint
 10
292.0789101518102
 20
266.046529285545
 30
0.0
  0
POINT
  5
28A9
330
18
100
AcDbEntity
  8
DEFPOINTS
  6
ByBlock
 62
     0
100
AcDbPoint
 10
300.0789101518102
 20
264.7084524034852
 30
0.0
  0
POINT
  5
28AA
330
18
100
AcDbEntity
  8
DEFPOINTS
  6
ByBlock
 62
     0
100
AcDbPoint
 10
300.0789101518102
 20
267.2524908445151
 30
0.0
  0
LINE
  5
28AB
330
18
100
AcDbEntity
  8
0
  6
ByBlock
 62
     2
100
AcDbLine
 10
328.9888294550282
 20
295.375154661575
 30
0.0
 11
334.8509004850849
 21
295.375154661575
 31
0.0
  0
LINE
  5
28AC
330
18
100
AcDbEntity
  8
0
  6
ByBlock
 62
     2
100
AcDbLine
 10
328.9888294550282
 20
221.075154661575
 30
0.0
 11
334.8509004850849
 21
221.075154661575
 31
0.0
  0
LINE
  5
28AD
330
18
100
AcDbEntity
  8
0
  6
ByBlock
 62
     2
100
AcDbLine
 10
333.6009004850849
 20
292.875154661575
 30
0.0
 11
333.6009004850849
 21
223.575154661575
 31
0.0
  0
INSERT
  5
28AE
330
18
100
AcDbEntity
  8
0
  6
ByBlock
 62
     2
100
AcDbBlockReference
  2
_OPEN
 10
333.6009004850849
 20
295.375154661575
 30
0.0
 41
2.5
 42
2.5
 43
2.5
 50
90.0
  0
INSERT
  5
28AF
330
18
100
AcDbEntity
  8
0
  6
ByBlock
 62
     2
100
AcDbBlockReference
  2
_OPEN
 10
333.6009004850849
 20
221.075154661575
 30
0.0
 41
2.5
 42
2.5
 43
2.5
 50
270.0
  0
MTEXT
  5
28B0
330
18
100
AcDbEntity
  8
0
  6
ByBlock
 62
     6
100
AcDbMText
 10
331.7259004850849
 20
258.225154661575
 30
0.0
 40
2.5
 41
0.0
 71
     5
 72
     1
  1
\A1;74.3
  7
STYLE3
 11
0.0000000000000001
 21
1.0
 31
0.0
 73
     1
 44
1.0
  0
POINT
  5
28B1
330
18
100
AcDbEntity
  8
DEFPOINTS
  6
ByBlock
 62
     0
100
AcDbPoint
 10
328.9888294550282
 20
295.375154661575
 30
0.0
  0
POINT
  5
28B2
330
18
100
AcDbEntity
  8
DEFPOINTS
  6
ByBlock
 62
     0
100
AcDbPoint
 10
328.9888294550282
 20
221.075154661575
 30
0.0
  0
POINT
  5
28B3
330
18
100
AcDbEntity
  8
DEFPOINTS
  6
ByBlock
 62
     0
100
AcDbPoint
 10
333.6009004850849
 20
221.075154661575
 30
0.0
  0
LINE
  5
28B4
330
18
100
AcDbEntity
  8
0
  6
ByBlock
 62
     2
100
AcDbLine
 10
322.6758305028112
 20
295.375154661575
 30
0.0
 11
328.9888294550282
 21
295.375154661575
 31
0.0
  0
LINE
  5
28B5
330
18
100
AcDbEntity
  8
0
  6
ByBlock
 62
     2
100
AcDbLine
 10
322.6758305028112
 20
242.375154661575
 30
0.0
 11
328.9888294550282
 21
242.375154661575
 31
0.0
  0
LINE
  5
28B6
330
18
100
AcDbEntity
  8
0
  6
ByBlock
 62
     2
100
AcDbLine
 10
327.7388294550282
 20
292.875154661575
 30
0.0
 11
327.7388294550282
 21
244.875154661575
 31
0.0
  0
INSERT
  5
28B7
330
18
100
AcDbEntity
  8
0
  6
ByBlock
 62
     2
100
AcDbBlockReference
  2
_OPEN
 10
327.7388294550282
 20
295.375154661575
 30
0.0
 41
2.5
 42
2.5
 43
2.5
 50
90.0
  0
INSERT
  5
28B8
330
18
100
AcDbEntity
  8
0
  6
ByBlock
 62
     2
100
AcDbBlockReference
  2
_OPEN
 10
327.7388294550282
 20
242.375154661575
 30
0.0
 41
2.5
 42
2.5
 43
2.5
 50
270.0
  0
MTEXT
  5
28B9
330
18
100
AcDbEntity
  8
0
  6
ByBlock
 62
     6
100
AcDbMText
 10
325.8638294550282
 20
268.875154661575
 30
0.0
 40
2.5
 41
0.0
 71
     5
 72
     1
  1
\A1;53
  7
STYLE3
 11
0.0000000000000001
 21
1.0
 31
0.0
 73
     1
 44
1.0
  0
POINT
  5
28BA
330
18
100
AcDbEntity
  8
DEFPOINTS
  6
ByBlock
 62
     0
100
AcDbPoint
 10
322.6758305028112
 20
295.375154661575
 30
0.0
  0
POINT
  5
28BB
330
18
100
AcDbEntity
  8
DEFPOINTS
  6
ByBlock
 62
     0
100
AcDbPoint
 10
322.6758305028112
 20
242.375154661575
 30
0.0
  0
POINT
  5
28BC
330
18
100
AcDbEntity
  8
DEFPOINTS
  6
ByBlock
 62
     0
100
AcDbPoint
 10
327.7388294550282
 20
242.375154661575
 30
0.0
  0
LINE
  5
28BD
330
18
100
AcDbEntity
  8
文字
 62
     2
100
AcDbLine
 10
363.7038090322795
 20
260.4077292257019
 30
0.0
 11
356.947764703915
 21
248.4807764137185
 31
0.0
1001
ACAD
1000
DSTYLE
1002
{
1070
   271
1070
     2
1002
}
  0
LINE
  5
28BE
330
18
100
AcDbEntity
  8
文字
 62
     2
100
AcDbLine
 10
356.947764703915
 20
248.4807764137185
 30
0.0
 11
352.0370504182007
 21
248.4807764137185
 31
0.0
1001
ACAD
1000
DSTYLE
1002
{
1070
   271
1070
     2
1002
}
  0
TEXT
  5
28BF
330
18
100
AcDbEntity
  8
ﾊｯﾁﾝｸ
 62
     6
100
AcDbText
 10
353.2254947005001
 20
249.181279254161
 30
0.0
 40
2.5
  1
A
  7
STYLE3
100
AcDbText
  0
LINE
  5
28C9
330
18
100
AcDbEntity
  8
ROGO
 62
     4
100
AcDbLine
 10
294.7230451948523
 20
323.2906041247826
 30
0.0
 11
295.2722915221914
 21
323.2906041247826
 31
0.0
  0
LINE
  5
28CA
330
18
100
AcDbEntity
  8
ROGO
 62
     4
100
AcDbLine
 10
291.2215431580524
 20
321.9545107364697
 30
0.0
 11
300.0528455103348
 21
321.9545107364697
 31
0.0
  0
LINE
  5
28D7
330
18
100
AcDbEntity
  8
ROGO
 62
     4
100
AcDbLine
 10
291.2089957171805
 20
323.2906041247826
 30
0.0
 11
292.3759539685941
 21
323.2906041247826
 31
0.0
  0
LINE
  5
28D9
330
18
100
AcDbEntity
  8
ROGO
 62
     4
100
AcDbLine
 10
291.9122798967799
 20
322.6703833690282
 30
0.0
 11
291.5557466402366
 21
322.6703833690282
 31
0.0
  0
LINE
  5
28F5
330
18
100
AcDbEntity
  8
ROGO
 62
     4
100
AcDbLine
 10
294.8321503839438
 20
322.7120583665412
 30
0.0
 11
295.1631863330998
 21
322.7120583665412
 31
0.0
  0
LINE
  5
28FD
330
18
100
AcDbEntity
  8
ROGO
 62
     4
100
AcDbLine
 10
298.2655428488146
 20
322.809940906316
 30
0.0
 11
298.2528961203659
 21
322.7194604285724
 31
0.0
  0
LINE
  5
28FF
330
18
100
AcDbEntity
  8
ROGO
 62
     4
100
AcDbLine
 10
298.11558941794
 20
322.6714990195668
 30
0.0
 11
298.1500283061682
 21
322.6666853926015
 31
0.0
  0
ARC
  5
2902
330
18
100
AcDbEntity
  8
ROGO
 62
     4
100
AcDbCircle
 10
298.1213172214083
 20
322.7671665074219
 30
0.0
 40
0.0958388019806556
100
AcDbArc
 50
188.5583509056651
 51
266.5736774635929
  0
ARC
  5
2903
330
18
100
AcDbEntity
  8
ROGO
 62
     4
100
AcDbCircle
 10
298.1706418895084
 20
322.7531471346891
 30
0.0
 40
0.0888850530907803
100
AcDbArc
 50
256.5902863289752
 51
337.7287536965499
  0
LINE
  5
2904
330
18
100
AcDbEntity
  8
ROGO
 62
     4
100
AcDbLine
 10
297.9396956593939
 20
323.2906041247826
 30
0.0
 11
298.2090090685403
 21
323.2906041247826
 31
0.0
  0
LINE
  5
2905
330
18
100
AcDbEntity
  8
ROGO
 62
     4
100
AcDbLine
 10
297.9396956593937
 20
323.2906041247826
 30
0.0
 11
298.3239696591716
 21
323.2906041247826
 31
0.0
  0
LINE
  5
2911
330
18
100
AcDbEntity
  8
ROGO
 62
     4
100
AcDbLine
 10
301.1853987909109
 20
323.1284793254393
 30
0.0
 11
301.4415965711383
 21
323.2906041247826
 31
0.0
  0
HATCH
  5
2912
330
18
100
AcDbEntity
  8
ROGO
 62
     4
100
AcDbHatch
 10
0.0
 20
0.0
 30
0.0
210
0.0
220
0.0
230
1.0
  2
SOLID
 70
     1
 71
     1
 91
        1
 92
        7
 72
     0
 73
     1
 93
       11
 10
299.9786277509862
 20
321.8852387076076
 10
300.5258023774463
 20
321.8852387076077
 10
300.7190648255471
 20
322.2728238064193
 10
300.912327273648
 20
321.8852387076076
 10
301.4594899283673
 20
321.8852387076077
 10
301.0892713910868
 20
322.6277067336714
 10
301.9887592258575
 20
323.3701747597353
 10
301.4415965711383
 20
323.3701747597353
 10
301.1853987909108
 20
323.2080499603919
 10
301.2662394520071
 20
323.3701747597353
 10
300.7190648255471
 20
323.3701747597353
 97
       11
330
2960
330
2963
330
2962
330
2961
330
2917
330
2914
330
295D
330
295C
330
295E
330
295B
330
295F
 75
     0
 76
     1
 47
0.0514683685270805
 98
        1
 10
300.6719730380337
 20
322.733108256601
450
        0
451
        0
460
0.0
461
0.0
452
        0
462
0.0
453
        0
470

  0
HATCH
  5
2913
330
18
100
AcDbEntity
  8
ROGO
 62
     4
100
AcDbHatch
 10
0.0
 20
0.0
 30
0.0
210
0.0
220
0.0
230
1.0
  2
SOLID
 70
     1
 71
     1
 91
        1
 92
        5
 93
        8
 72
     4
 94
        3
 73
     0
 74
     0
 95
       26
 96
       22
 40
0.0
 40
0.0
 40
0.0
 40
0.0
 40
0.1723984759424608
 40
0.2878059064036966
 40
0.3710240621887089
 40
0.4331603664333254
 40
0.5137544142124919
 40
0.5725802121924054
 40
0.6788058922658106
 40
0.7652720686804376
 40
0.8240829233522745
 40
0.8817499774613301
 40
0.9849051260984159
 40
1.057848128260901
 40
1.097133570529046
 40
1.152937380796406
 40
1.193234564309729
 40
1.251611879021428
 40
1.28464838962433
 40
1.356539542405973
 40
1.389365667278776
 40
1.389365667278776
 40
1.389365667278776
 40
1.389365667278776
 10
299.568342574814
 20
323.3701747597353
 10
299.5098278683754
 20
323.366683672007
 10
299.4121420968949
 20
323.3608555713669
 10
299.3048837140595
 20
323.2956972556642
 10
299.2262999435443
 20
323.2578170742899
 10
299.1702540937158
 20
323.2063221948909
 10
299.1291722585986
 20
323.1531317461013
 10
299.077380893133
 20
323.0897557163709
 10
299.0351465145359
 20
323.0159568943305
 10
299.0136391131096
 20
322.934617726861
 10
298.9945880610534
 20
322.8697899384429
 10
298.9804594819161
 20
322.7975478284498
 10
298.9840541924237
 20
322.719500936212
 10
298.9892019823869
 20
322.6470149782871
 10
299.012185612796
 20
322.5952708569649
 10
299.0383598967294
 20
322.5584326082286
 10
299.0704099489509
 20
322.51785936131
 10
299.1054797148522
 20
322.4909878312571
 10
299.1344852738459
 20
322.4423082488429
 10
299.1852585263808
 20
322.4360963830473
 10
299.217532025629
 20
322.4237329161204
 10
299.2276489226696
 20
322.4198572929349
 72
     1
 10
299.2276489226695
 20
322.4198572929349
 11
300.0461698668587
 21
322.4198572929349
 72
     1
 10
300.0461698668587
 20
322.4198572929349
 11
300.2224742636379
 21
322.7734332603207
 72
     1
 10
300.2224742636379
 20
322.7734332603207
 11
299.6148006382012
 21
322.7734332603207
 72
     4
 94
        3
 73
     0
 74
     0
 95
       16
 96
       12
 40
0.0
 40
0.0
 40
0.0
 40
0.0
 40
0.0520638816757735
 40
0.1046647644702252
 40
0.1360388269655266
 40
0.1661200957203178
 40
0.1991564750639878
 40
0.2222266184462555
 40
0.2441181822786244
 40
0.2885111307736901
 40
0.379400594332445
 40
0.379400594332445
 40
0.379400594332445
 40
0.379400594332445
 10
299.6148006382012
 20
322.7734332603207
 10
299.5964710601827
 20
322.7788260909337
 10
299.5596228478635
 20
322.7896673752898
 10
299.5565389500484
 20
322.8422219390815
 10
299.5607403146589
 20
322.8796713663083
 10
299.5783356390315
 20
322.9069367362354
 10
299.5996818193635
 20
322.9267758802641
 10
299.6076299490306
 20
322.9526132633902
 10
299.6309927520367
 20
322.9721237201889
 10
299.6724212617016
 20
323.0049180726376
 10
299.7182340216907
 20
323.011902536967
 10
299.7490133160302
 20
323.0165950480369
 72
     1
 10
299.7490133160303
 20
323.016595048037
 11
300.343722584388
 21
323.0165950480371
 72
     1
 10
300.343722584388
 20
323.0165950480371
 11
300.5200288482024
 21
323.3701747597353
 72
     1
 10
300.5200288482024
 20
323.3701747597353
 11
299.568342574814
 21
323.3701747597353
 97
        8
330
2915
330
2939
330
2945
330
293E
330
2959
330
2958
330
295A
330
2916
 75
     0
 76
     1
 47
0.0514683685270805
 98
        1
 10
299.7325617648919
 20
323.1961683992535
450
        0
451
        0
460
0.0
461
0.0
452
        0
462
0.0
453
        0
470

  0
LINE
  5
2914
102
{ACAD_REACTORS
330
2912
330
291D
102
}
330
18
100
AcDbEntity
  8
ROGO
 62
     4
100
AcDbLine
 10
290.4742631686421
 20
321.8852387076077
 30
0.0
 11
300.5258023774463
 21
321.8852387076077
 31
0.0
  0
LINE
  5
2915
102
{ACAD_REACTORS
330
2913
102
}
330
18
100
AcDbEntity
  8
ROGO
 62
     4
100
AcDbLine
 10
299.5683425748143
 20
323.3701747597353
 30
0.0
 11
300.5200288482024
 21
323.3701747597353
 31
0.0
  0
LINE
  5
2916
102
{ACAD_REACTORS
330
2913
102
}
330
18
100
AcDbEntity
  8
ROGO
 62
     4
100
AcDbLine
 10
300.5200288482024
 20
323.3701747597353
 30
0.0
 11
300.3437225843879
 21
323.016595048037
 31
0.0
  0
LINE
  5
2917
102
{ACAD_REACTORS
330
2912
102
}
330
18
100
AcDbEntity
  8
ROGO
 62
     4
100
AcDbLine
 10
300.7190648255471
 20
323.3701747597353
 30
0.0
 11
299.9786277509862
 21
321.8852387076077
 31
0.0
  0
HATCH
  5
2918
330
18
100
AcDbEntity
  8
ROGO
 62
     4
100
AcDbHatch
 10
0.0
 20
0.0
 30
0.0
210
0.0
220
0.0
230
1.0
  2
SOLID
 70
     1
 71
     0
 91
        1
 92
        7
 72
     0
 73
     1
 93
        4
 10
300.0528455103348
 20
322.0340813714223
 10
291.2318655546335
 20
322.0340813714223
 10
291.1645249114131
 20
321.8852387076075
 10
299.9786277509862
 20
321.8852387076075
 97
        0
 75
     0
 76
     1
 47
0.0514683685270805
 98
        1
 10
296.8015986639277
 20
321.9947148789179
450
        0
451
        0
460
0.0
461
0.0
452
        0
462
0.0
453
        0
470

  0
HATCH
  5
2919
330
18
100
AcDbEntity
  8
ROGO
 62
     4
100
AcDbHatch
 10
0.0
 20
0.0
 30
0.0
210
0.0
220
0.0
230
1.0
  2
SOLID
 70
     1
 71
     1
 91
        2
 92
        7
 72
     0
 73
     1
 93
        8
 10
295.2722915221915
 20
323.3701747597353
 10
294.7230451948522
 20
323.3701747597353
 10
294.0377528003378
 20
322.4198572929348
 10
294.564058579603
 20
322.4198572929349
 10
294.6945340114789
 20
322.6007918588116
 10
295.3008027055647
 20
322.6007918588116
 10
295.4312781374407
 20
322.4198572929349
 10
295.9575839167059
 20
322.4198572929349
 97
        8
330
291B
330
2923
330
2928
330
2924
330
291A
330
293C
330
2942
330
293B
 92
       22
 72
     0
 73
     1
 93
        3
 10
295.1631863331
 20
322.7916290014939
 10
294.8321503839438
 20
322.7916290014938
 10
294.9976683585218
 20
323.0211582120469
 97
        3
330
2947
330
2946
330
2948
 75
     0
 76
     1
 47
0.0514683685270805
 98
        2
 10
295.3361171134456
 20
322.8832898835874
 10
295.3361171134456
 20
322.8832898835874
450
        0
451
        0
460
0.0
461
0.0
452
        0
462
0.0
453
        0
470

  0
LINE
  5
291A
102
{ACAD_REACTORS
330
2919
102
}
330
18
100
AcDbEntity
  8
ROGO
 62
     4
100
AcDbLine
 10
294.694534011479
 20
322.6007918588116
 30
0.0
 11
295.3008027055647
 21
322.6007918588116
 31
0.0
  0
LINE
  5
291B
102
{ACAD_REACTORS
330
2919
102
}
330
18
100
AcDbEntity
  8
ROGO
 62
     4
100
AcDbLine
 10
294.7230451948523
 20
323.3701747597353
 30
0.0
 11
295.2722915221914
 21
323.3701747597353
 31
0.0
  0
LINE
  5
291C
330
18
100
AcDbEntity
  8
ROGO
 62
     4
100
AcDbLine
 10
291.2215431580524
 20
322.0340813714224
 30
0.0
 11
300.0528455103348
 21
322.0340813714224
 31
0.0
  0
HATCH
  5
291D
330
18
100
AcDbEntity
  8
ROGO
 62
     4
100
AcDbHatch
 10
0.0
 20
0.0
 30
0.0
210
0.0
220
0.0
230
1.0
  2
SOLID
 70
     1
 71
     1
 91
        2
 92
        5
 93
        6
 72
     1
 10
290.4742631686421
 20
321.8852387076077
 11
291.1645249114131
 21
321.8852387076077
 72
     1
 10
291.1645249114131
 20
321.8852387076077
 11
291.4064015245482
 21
322.4198572929348
 72
     1
 10
291.4064015245482
 20
322.4198572929348
 11
292.0516546805941
 21
322.4198572929349
 72
     4
 94
        3
 73
     0
 74
     0
 95
       18
 96
       14
 40
0.108740278791501
 40
0.108740278791501
 40
0.108740278791501
 40
0.108740278791501
 40
0.6623149649549278
 40
1.384304701649787
 40
2.097394834876493
 40
2.774073369849618
 40
3.428974823686337
 40
4.005208313035923
 40
4.455173659284313
 40
4.720999734343524
 40
5.086034088486724
 40
5.569973738255373
 40
6.060470601257719
 40
6.060470601257719
 40
6.060470601257719
 40
6.060470601257719
 10
292.051654680594
 20
322.4198572929349
 10
292.0970665316986
 20
322.4201954612398
 10
292.2017059653525
 20
322.4209746794186
 10
292.348095714237
 20
322.4991792999778
 10
292.4869150225019
 20
322.5988062886576
 10
292.5987245316254
 20
322.7232798169066
 10
292.6683852244892
 20
322.8655939711697
 10
292.6791754456281
 20
323.0019890161005
 10
292.67258828072
 20
323.1098758009631
 10
292.6255196788719
 20
323.1850755684074
 10
292.5765861235346
 20
323.2613956421803
 10
292.4868585297071
 20
323.327506924802
 10
292.4133397588446
 20
323.356473494109
 10
292.3759539685941
 20
323.3701747597354
 72
     1
 10
292.3759539685942
 20
323.3701747597354
 11
291.2089957171805
 21
323.3701747597353
 72
     1
 10
291.2089957171805
 20
323.3701747597353
 11
290.4742631686421
 21
321.8852387076077
 97
        6
330
291F
330
2929
330
2920
330
2914
330
2926
330
2925
 92
       20
 93
        4
 72
     1
 10
291.5557466402366
 20
322.7499540039809
 11
291.6700889813601
 21
323.002684269475
 72
     1
 10
291.6700889813601
 20
323.002684269475
 11
291.9639000661522
 21
323.002684269475
 72
     4
 94
        3
 73
     0
 74
     0
 95
       15
 96
       11
 40
0.0
 40
0.0
 40
0.0
 40
0.0
 40
0.1114278057886432
 40
0.1622327562563865
 40
0.2198997572250677
 40
0.2591851994932127
 40
0.3213155338880335
 40
0.3585299069783974
 40
0.4223775764185096
 40
0.4436601464819216
 40
0.4436601464819216
 40
0.4436601464819216
 40
0.4436601464819216
 10
291.9639000661522
 20
323.002684269475
 10
292.005750189169
 20
323.0028759653774
 10
292.0666816663585
 20
323.0031550640672
 10
292.1000011682198
 20
322.9277826505765
 10
292.0850657788063
 20
322.8792545742414
 10
292.0662907770594
 20
322.8294313649536
 10
292.0331110967159
 20
322.7955757428015
 10
291.9885791057696
 20
322.7629670713996
 10
291.9464942462342
 20
322.7590196457115
 10
291.9191227692912
 20
322.7517671330214
 10
291.9122798967799
 20
322.7499540039809
 72
     1
 10
291.9122798967798
 20
322.7499540039809
 11
291.5557466402366
 21
322.7499540039809
 97
        4
330
292C
330
292A
330
292E
330
292B
 75
     0
 76
     1
 47
0.0514683685270805
 98
        2
 10
291.2152329279829
 20
322.9083202388259
 10
291.2152329279829
 20
322.9083202388259
450
        0
451
        0
460
0.0
461
0.0
452
        0
462
0.0
453
        0
470

  0
HATCH
  5
291E
330
18
100
AcDbEntity
  8
ROGO
 62
     4
100
AcDbHatch
 10
0.0
 20
0.0
 30
0.0
210
0.0
220
0.0
230
1.0
  2
SOLID
 70
     1
 71
     1
 91
        1
 92
        1
 93
       12
 72
     1
 10
293.0653639483837
 20
323.3701747597353
 11
294.350707857664
 21
323.3701747597354
 72
     1
 10
294.350707857664
 20
323.3701747597353
 11
294.2429971757945
 21
323.1524853773534
 72
     1
 10
294.2429971757945
 20
323.1524853773534
 11
293.5674528969967
 21
323.1524853773534
 72
     1
 10
293.5674528969967
 20
323.1524853773534
 11
293.4832365285197
 21
322.9822793316578
 72
     1
 10
293.4832365285197
 20
322.9822793316578
 11
294.1587808073176
 21
322.9822793316578
 72
     1
 10
294.1587808073176
 20
322.9822793316578
 11
294.0724248108343
 21
322.8077489766999
 72
     1
 10
294.0724248108343
 20
322.8077489766999
 11
293.3968805320365
 21
322.8077489766999
 72
     1
 10
293.3968805320365
 20
322.8077489766999
 11
293.3126605982433
 21
322.6375357252985
 72
     1
 10
293.3126605982434
 20
322.6375357252985
 11
293.9882048770412
 21
322.6375357252985
 72
     1
 10
293.9882048770412
 20
322.6375357252985
 11
293.880499613139
 21
322.4198572929349
 72
     1
 10
293.880499613139
 20
322.4198572929349
 11
292.5951557038588
 21
322.4198572929349
 72
     1
 10
292.5951557038588
 20
322.4198572929349
 11
293.0653639483838
 21
323.3701747597353
 97
       12
330
292D
330
292F
330
2931
330
2930
330
2932
330
2935
330
2934
330
2936
330
2933
330
2922
330
2927
330
2921
 75
     0
 76
     1
 98
        1
 10
240.4887709713506
 20
257.6599742945695
450
        0
451
        0
460
0.0
461
0.0
452
        0
462
0.0
453
        0
470

  0
SPLINE
  5
291F
102
{ACAD_REACTORS
330
291D
102
}
330
18
100
AcDbEntity
  8
ROGO
 62
     4
100
AcDbSpline
210
0.0
220
0.0
230
1.0
 70
     8
 71
     3
 72
    18
 73
    14
 74
     0
 42
0.0000000001
 43
0.0000000001
 40
0.1087402787915014
 40
0.1087402787915014
 40
0.1087402787915014
 40
0.1087402787915014
 40
0.5992371417938475
 40
1.083176791562496
 40
1.448211145705696
 40
1.714037220764907
 40
2.164002567013297
 40
2.740236056362883
 40
3.395137510199602
 40
4.071816045172726
 40
4.784906178399433
 40
5.506895915094292
 40
6.060470601257719
 40
6.060470601257719
 40
6.060470601257719
 40
6.060470601257719
 10
292.3759539685941
 20
323.3701747597354
 30
0.0
 10
292.4133397588446
 20
323.356473494109
 30
0.0
 10
292.4868585297071
 20
323.327506924802
 30
0.0
 10
292.5765861235346
 20
323.2613956421803
 30
0.0
 10
292.6255196788719
 20
323.1850755684074
 30
0.0
 10
292.67258828072
 20
323.1098758009631
 30
0.0
 10
292.6791754456281
 20
323.0019890161005
 30
0.0
 10
292.6683852244892
 20
322.8655939711697
 30
0.0
 10
292.5987245316254
 20
322.7232798169066
 30
0.0
 10
292.4869150225019
 20
322.5988062886576
 30
0.0
 10
292.348095714237
 20
322.4991792999778
 30
0.0
 10
292.2017059653525
 20
322.4209746794186
 30
0.0
 10
292.0970665316986
 20
322.4201954612398
 30
0.0
 10
292.051654680594
 20
322.4198572929349
 30
0.0
  0
LINE
  5
2920
102
{ACAD_REACTORS
330
291D
102
}
330
18
100
AcDbEntity
  8
ROGO
 62
     4
100
AcDbLine
 10
291.2089957171805
 20
323.3701747597353
 30
0.0
 11
290.4742631686421
 21
321.8852387076077
 31
0.0
  0
LINE
  5
2921
102
{ACAD_REACTORS
330
291E
102
}
330
18
100
AcDbEntity
  8
ROGO
 62
     4
100
AcDbLine
 10
293.0653639483838
 20
323.3701747597353
 30
0.0
 11
292.5951557038588
 21
322.4198572929349
 31
0.0
  0
LINE
  5
2922
102
{ACAD_REACTORS
330
291E
102
}
330
18
100
AcDbEntity
  8
ROGO
 62
     4
100
AcDbLine
 10
293.9882048770412
 20
322.6375357252985
 30
0.0
 11
293.880499613139
 21
322.4198572929349
 31
0.0
  0
LINE
  5
2923
102
{ACAD_REACTORS
330
2919
102
}
330
18
100
AcDbEntity
  8
ROGO
 62
     4
100
AcDbLine
 10
294.7230451948523
 20
323.3701747597353
 30
0.0
 11
294.0377528003379
 21
322.4198572929349
 31
0.0
  0
LINE
  5
2924
102
{ACAD_REACTORS
330
2919
102
}
330
18
100
AcDbEntity
  8
ROGO
 62
     4
100
AcDbLine
 10
294.694534011479
 20
322.6007918588116
 30
0.0
 11
294.564058579603
 21
322.4198572929349
 31
0.0
  0
LINE
  5
2925
102
{ACAD_REACTORS
330
291D
102
}
330
18
100
AcDbEntity
  8
ROGO
 62
     4
100
AcDbLine
 10
292.0516546808176
 20
322.4198572929349
 30
0.0
 11
291.4064015245482
 21
322.4198572929349
 31
0.0
  0
LINE
  5
2926
102
{ACAD_REACTORS
330
291D
102
}
330
18
100
AcDbEntity
  8
ROGO
 62
     4
100
AcDbLine
 10
291.4064015245482
 20
322.4198572929349
 30
0.0
 11
291.1645249114131
 21
321.8852387076077
 31
0.0
  0
LINE
  5
2927
102
{ACAD_REACTORS
330
291E
102
}
330
18
100
AcDbEntity
  8
ROGO
 62
     4
100
AcDbLine
 10
292.5951557038588
 20
322.4198572929349
 30
0.0
 11
293.880499613139
 21
322.4198572929349
 31
0.0
  0
LINE
  5
2928
102
{ACAD_REACTORS
330
2919
102
}
330
18
100
AcDbEntity
  8
ROGO
 62
     4
100
AcDbLine
 10
294.0377528003379
 20
322.4198572929349
 30
0.0
 11
294.564058579603
 21
322.4198572929349
 31
0.0
  0
LINE
  5
2929
102
{ACAD_REACTORS
330
291D
102
}
330
18
100
AcDbEntity
  8
ROGO
 62
     4
100
AcDbLine
 10
291.2089957171805
 20
323.3701747597353
 30
0.0
 11
292.3759539685941
 21
323.3701747597353
 31
0.0
  0
LINE
  5
292A
102
{ACAD_REACTORS
330
291D
102
}
330
18
100
AcDbEntity
  8
ROGO
 62
     4
100
AcDbLine
 10
291.9639000661522
 20
323.002684269475
 30
0.0
 11
291.6700889813601
 21
323.002684269475
 31
0.0
  0
LINE
  5
292B
102
{ACAD_REACTORS
330
291D
102
}
330
18
100
AcDbEntity
  8
ROGO
 62
     4
100
AcDbLine
 10
291.9122798967799
 20
322.7499540039809
 30
0.0
 11
291.5557466402366
 21
322.7499540039809
 31
0.0
  0
LINE
  5
292C
102
{ACAD_REACTORS
330
291D
102
}
330
18
100
AcDbEntity
  8
ROGO
 62
     4
100
AcDbLine
 10
291.6700889813601
 20
323.002684269475
 30
0.0
 11
291.5557466402366
 21
322.7499540039809
 31
0.0
  0
LINE
  5
292D
102
{ACAD_REACTORS
330
291E
102
}
330
18
100
AcDbEntity
  8
ROGO
 62
     4
100
AcDbLine
 10
293.0653639483837
 20
323.3701747597353
 30
0.0
 11
294.350707857664
 21
323.3701747597354
 31
0.0
  0
SPLINE
  5
292E
102
{ACAD_REACTORS
330
291D
102
}
330
18
100
AcDbEntity
  8
ROGO
 62
     4
100
AcDbSpline
210
0.0
220
0.0
230
1.0
 70
     8
 71
     3
 72
    15
 73
    11
 74
     9
 42
0.0000000001
 43
0.0000000001
 44
0.0000000001
 40
0.0
 40
0.0
 40
0.0
 40
0.0
 40
0.1114278057886432
 40
0.1622327562563865
 40
0.2198997572250677
 40
0.2591851994932127
 40
0.3213155338880335
 40
0.3585299069783974
 40
0.4223775764185096
 40
0.4436601464819216
 40
0.4436601464819216
 40
0.4436601464819216
 40
0.4436601464819216
 10
291.9639000661522
 20
323.002684269475
 30
0.0
 10
292.005750189169
 20
323.0028759653774
 30
0.0
 10
292.0666816663585
 20
323.0031550640672
 30
0.0
 10
292.1000011682198
 20
322.9277826505765
 30
0.0
 10
292.0850657788063
 20
322.8792545742414
 30
0.0
 10
292.0662907770594
 20
322.8294313649536
 30
0.0
 10
292.0331110967159
 20
322.7955757428015
 30
0.0
 10
291.9885791057696
 20
322.7629670713996
 30
0.0
 10
291.9464942462342
 20
322.7590196457115
 30
0.0
 10
291.9191227692912
 20
322.7517671330214
 30
0.0
 10
291.9122798967799
 20
322.7499540039809
 30
0.0
 11
291.9639000661522
 21
323.002684269475
 31
0.0
 11
292.0723025108819
 21
322.9768953982417
 31
0.0
 11
292.0929506379961
 21
322.9304755981699
 31
0.0
 11
292.0826267228521
 21
322.8737402496046
 31
0.0
 11
292.0671407017231
 21
322.837635829878
 31
0.0
 11
292.0258444474947
 21
322.7912160298061
 31
0.0
 11
291.9948724052366
 21
322.7705849328195
 31
0.0
 11
291.9329280238941
 21
322.7551117782275
 31
0.0
 11
291.9122798967799
 21
322.7499540039809
 31
0.0
  0
LINE
  5
292F
102
{ACAD_REACTORS
330
291E
102
}
330
18
100
AcDbEntity
  8
ROGO
 62
     4
100
AcDbLine
 10
294.350707857664
 20
323.3701747597353
 30
0.0
 11
294.2429971757945
 21
323.1524853773534
 31
0.0
  0
LINE
  5
2930
102
{ACAD_REACTORS
330
291E
102
}
330
18
100
AcDbEntity
  8
ROGO
 62
     4
100
AcDbLine
 10
293.5674528969967
 20
323.1524853773534
 30
0.0
 11
293.4832365285197
 21
322.9822793316578
 31
0.0
  0
LINE
  5
2931
102
{ACAD_REACTORS
330
291E
102
}
330
18
100
AcDbEntity
  8
ROGO
 62
     4
100
AcDbLine
 10
293.5674528969967
 20
323.1524853773534
 30
0.0
 11
294.2429971757945
 21
323.1524853773534
 31
0.0
  0
LINE
  5
2932
102
{ACAD_REACTORS
330
291E
102
}
330
18
100
AcDbEntity
  8
ROGO
 62
     4
100
AcDbLine
 10
293.4832365285197
 20
322.9822793316578
 30
0.0
 11
294.1587808073176
 21
322.9822793316578
 31
0.0
  0
LINE
  5
2933
102
{ACAD_REACTORS
330
291E
102
}
330
18
100
AcDbEntity
  8
ROGO
 62
     4
100
AcDbLine
 10
293.3126605982434
 20
322.6375357252985
 30
0.0
 11
293.9882048770412
 21
322.6375357252985
 31
0.0
  0
LINE
  5
2934
102
{ACAD_REACTORS
330
291E
102
}
330
18
100
AcDbEntity
  8
ROGO
 62
     4
100
AcDbLine
 10
293.3968805320365
 20
322.8077489766999
 30
0.0
 11
294.0724248108343
 21
322.8077489766999
 31
0.0
  0
LINE
  5
2935
102
{ACAD_REACTORS
330
291E
102
}
330
18
100
AcDbEntity
  8
ROGO
 62
     4
100
AcDbLine
 10
294.1587808073176
 20
322.9822793316578
 30
0.0
 11
294.0724248108343
 21
322.8077489766999
 31
0.0
  0
LINE
  5
2936
102
{ACAD_REACTORS
330
291E
102
}
330
18
100
AcDbEntity
  8
ROGO
 62
     4
100
AcDbLine
 10
293.3968805320365
 20
322.8077489766999
 30
0.0
 11
293.3126605982433
 21
322.6375357252985
 31
0.0
  0
HATCH
  5
2937
330
18
100
AcDbEntity
  8
ROGO
 62
     4
100
AcDbHatch
 10
0.0
 20
0.0
 30
0.0
210
0.0
220
0.0
230
1.0
  2
SOLID
 70
     1
 71
     1
 91
        2
 92
        7
 72
     1
 73
     1
 93
        4
 10
298.3239696591716
 20
323.3701747597353
 42
0.0
 10
297.9396956593937
 20
323.3701747597353
 42
0.9597396185048657
 10
297.9396956593935
 20
322.4198572929349
 42
0.0
 10
298.3515852848985
 20
322.4198572929349
 42
0.9713627655752649
 97
        4
330
2957
330
293F
330
2944
330
2940
 92
       22
 72
     1
 73
     1
 93
        2
 10
298.259883812664
 20
322.8490242091853
 42
0.1034173650209057
 10
298.2655428488146
 20
322.8895115412687
 42
0.0
 97
        8
330
294F
330
2955
330
2951
330
2954
330
2950
330
2953
330
294E
330
2952
 75
     0
 76
     1
 47
0.0514683685270805
 98
        2
 10
298.4173859231281
 20
322.983410968245
 10
298.4173859231281
 20
322.983410968245
450
        0
451
        0
460
0.0
461
0.0
452
        0
462
0.0
453
        0
470

  0
HATCH
  5
2938
330
18
100
AcDbEntity
  8
ROGO
 62
     4
100
AcDbHatch
 10
0.0
 20
0.0
 30
0.0
210
0.0
220
0.0
230
1.0
  2
SOLID
 70
     1
 71
     1
 91
        1
 92
        5
 93
        8
 72
     1
 10
297.2817151753069
 20
323.0165950480369
 11
297.4580214391213
 21
323.3701747597354
 72
     1
 10
297.4580214391213
 20
323.3701747597354
 11
296.5063351657331
 21
323.3701747597354
 72
     4
 94
        3
 73
     0
 74
     0
 95
       26
 96
       22
 40
0.0
 40
0.0
 40
0.0
 40
0.0
 40
0.1723984759424608
 40
0.2878059064036966
 40
0.3710240621887089
 40
0.4331603664333679
 40
0.5137544142125342
 40
0.5725802121924479
 40
0.6788058922658033
 40
0.7652720686804675
 40
0.8240829233522497
 40
0.8817499774613612
 40
0.984905126098447
 40
1.057848128260932
 40
1.097133570529077
 40
1.152937380796437
 40
1.193234564309723
 40
1.251611879021463
 40
1.28464838962433
 40
1.356539542406005
 40
1.389365667278773
 40
1.389365667278773
 40
1.389365667278773
 40
1.389365667278773
 10
296.506335165733
 20
323.3701747597353
 10
296.4478204592944
 20
323.366683672007
 10
296.3501346878139
 20
323.3608555713669
 10
296.2428763049784
 20
323.2956972556642
 10
296.1642925344633
 20
323.2578170742899
 10
296.1082466846347
 20
323.2063221948908
 10
296.0671648495173
 20
323.1531317461013
 10
296.015373484052
 20
323.0897557163709
 10
295.9731391054547
 20
323.0159568943307
 10
295.9516317040286
 20
322.9346177268608
 10
295.9325806519723
 20
322.869789938443
 10
295.9184520728351
 20
322.7975478284498
 10
295.9220467833426
 20
322.719500936212
 10
295.9271945733059
 20
322.6470149782871
 10
295.9501782037149
 20
322.5952708569649
 10
295.9763524876483
 20
322.5584326082286
 10
296.0084025398698
 20
322.5178593613102
 10
296.0434723057712
 20
322.4909878312572
 10
296.0724778647647
 20
322.4423082488428
 10
296.1232511172998
 20
322.4360963830474
 10
296.155524616548
 20
322.4237329161204
 10
296.1656415135885
 20
322.4198572929349
 72
     1
 10
296.1656415135884
 20
322.4198572929349
 11
296.9841624577776
 21
322.4198572929349
 72
     1
 10
296.9841624577776
 20
322.4198572929349
 11
297.1604668545568
 21
322.7734332603207
 72
     1
 10
297.1604668545568
 20
322.7734332603207
 11
296.5527932291201
 21
322.7734332603207
 72
     4
 94
        3
 73
     0
 74
     0
 95
       16
 96
       12
 40
0.0
 40
0.0
 40
0.0
 40
0.0
 40
0.0520638816757735
 40
0.1046647644702809
 40
0.1360388269655169
 40
0.1661200957203374
 40
0.1991564750640073
 40
0.2222266184462751
 40
0.244118182278644
 40
0.2885111307736634
 40
0.3794005943324332
 40
0.3794005943324332
 40
0.3794005943324332
 40
0.3794005943324332
 10
296.5527932291202
 20
322.7734332603207
 10
296.5344636511017
 20
322.7788260909337
 10
296.4976154387824
 20
322.7896673752898
 10
296.4945315409674
 20
322.8422219390815
 10
296.4987329055779
 20
322.8796713663084
 10
296.5163282299503
 20
322.9069367362353
 10
296.5376744102825
 20
322.9267758802641
 10
296.5456225399496
 20
322.9526132633903
 10
296.5689853429556
 20
322.9721237201888
 10
296.6104138526207
 20
323.0049180726378
 10
296.6562266126096
 20
323.011902536967
 10
296.6870059069492
 20
323.016595048037
 72
     1
 10
296.6870059069491
 20
323.016595048037
 11
297.2817151753069
 21
323.0165950480369
 97
        8
330
294D
330
293A
330
2941
330
293D
330
294C
330
2949
330
294B
330
294A
 75
     0
 76
     1
 47
0.0514683685270805
 98
        1
 10
296.8391750911073
 20
323.1586229504699
450
        0
451
        0
460
0.0
461
0.0
452
        0
462
0.0
453
        0
470

  0
SPLINE
  5
2939
102
{ACAD_REACTORS
330
2913
102
}
330
18
100
AcDbEntity
  8
ROGO
 62
     4
100
AcDbSpline
210
0.0
220
0.0
230
1.0
 70
     8
 71
     3
 72
    26
 73
    22
 74
    20
 42
0.0000000001
 43
0.0000000001
 44
0.0000000001
 40
0.0
 40
0.0
 40
0.0
 40
0.0
 40
0.1723984759424608
 40
0.2878059064036966
 40
0.3710240621887089
 40
0.4331603664333254
 40
0.5137544142124919
 40
0.5725802121924054
 40
0.6788058922658106
 40
0.7652720686804376
 40
0.8240829233522745
 40
0.8817499774613301
 40
0.9849051260984159
 40
1.057848128260901
 40
1.097133570529046
 40
1.152937380796406
 40
1.193234564309729
 40
1.251611879021428
 40
1.28464838962433
 40
1.356539542405973
 40
1.389365667278776
 40
1.389365667278776
 40
1.389365667278776
 40
1.389365667278776
 10
299.568342574814
 20
323.3701747597353
 30
0.0
 10
299.5098278683754
 20
323.366683672007
 30
0.0
 10
299.4121420968949
 20
323.3608555713669
 30
0.0
 10
299.3048837140595
 20
323.2956972556642
 30
0.0
 10
299.2262999435443
 20
323.2578170742899
 30
0.0
 10
299.1702540937158
 20
323.2063221948909
 30
0.0
 10
299.1291722585986
 20
323.1531317461013
 30
0.0
 10
299.077380893133
 20
323.0897557163709
 30
0.0
 10
299.0351465145359
 20
323.0159568943305
 30
0.0
 10
299.0136391131096
 20
322.934617726861
 30
0.0
 10
298.9945880610534
 20
322.8697899384429
 30
0.0
 10
298.9804594819161
 20
322.7975478284498
 30
0.0
 10
298.9840541924237
 20
322.719500936212
 30
0.0
 10
298.9892019823869
 20
322.6470149782871
 30
0.0
 10
299.012185612796
 20
322.5952708569649
 30
0.0
 10
299.0383598967294
 20
322.5584326082286
 30
0.0
 10
299.0704099489509
 20
322.51785936131
 30
0.0
 10
299.1054797148522
 20
322.4909878312571
 30
0.0
 10
299.1344852738459
 20
322.4423082488429
 30
0.0
 10
299.1852585263808
 20
322.4360963830473
 30
0.0
 10
299.217532025629
 20
322.4237329161204
 30
0.0
 10
299.2276489226696
 20
322.4198572929349
 30
0.0
 11
299.568342574814
 21
323.3701747597353
 31
0.0
 11
299.3979957487418
 21
323.3436569665694
 31
0.0
 11
299.2947551131709
 21
323.2920793922509
 31
0.0
 11
299.2224868166844
 21
323.2508173664257
 31
0.0
 11
299.1760287532972
 21
323.2095551724524
 31
0.0
 11
299.124408583925
 21
323.1476620496405
 31
0.0
 11
299.0882744356817
 21
323.1012422495687
 31
0.0
 11
299.0366539694831
 21
323.0084024812768
 31
0.0
 11
299.0108440332101
 21
322.9258782614782
 31
0.0
 11
298.995358012081
 21
322.869142912913
 31
0.0
 11
298.9850338001107
 21
322.8124075643478
 31
0.0
 11
298.9850338001107
 21
322.7092524157108
 31
0.0
 11
298.995358012081
 21
322.6370437444055
 31
0.0
 11
299.0108440332101
 21
322.6009393246789
 31
0.0
 11
299.0418160754682
 21
322.554519524607
 31
0.0
 11
299.0676263085675
 21
322.523572879127
 31
0.0
 11
299.1089222659695
 21
322.4823108533018
 31
0.0
 11
299.1295703930838
 21
322.4565219820685
 31
0.0
 11
299.1966768804114
 21
322.4307332789832
 31
0.0
 11
299.2276489226696
 21
322.4198572929349
 31
0.0
  0
SPLINE
  5
293A
102
{ACAD_REACTORS
330
2938
102
}
330
18
100
AcDbEntity
  8
ROGO
 62
     4
100
AcDbSpline
210
0.0
220
0.0
230
1.0
 70
     8
 71
     3
 72
    26
 73
    22
 74
    20
 42
0.0000000001
 43
0.0000000001
 44
0.0000000001
 40
0.0
 40
0.0
 40
0.0
 40
0.0
 40
0.1723984759424608
 40
0.2878059064036966
 40
0.3710240621887089
 40
0.4331603664333679
 40
0.5137544142125342
 40
0.5725802121924479
 40
0.6788058922658033
 40
0.7652720686804675
 40
0.8240829233522497
 40
0.8817499774613612
 40
0.984905126098447
 40
1.057848128260932
 40
1.097133570529077
 40
1.152937380796437
 40
1.193234564309723
 40
1.251611879021463
 40
1.28464838962433
 40
1.356539542406005
 40
1.389365667278773
 40
1.389365667278773
 40
1.389365667278773
 40
1.389365667278773
 10
296.506335165733
 20
323.3701747597353
 30
0.0
 10
296.4478204592944
 20
323.366683672007
 30
0.0
 10
296.3501346878139
 20
323.3608555713669
 30
0.0
 10
296.2428763049784
 20
323.2956972556642
 30
0.0
 10
296.1642925344633
 20
323.2578170742899
 30
0.0
 10
296.1082466846347
 20
323.2063221948908
 30
0.0
 10
296.0671648495173
 20
323.1531317461013
 30
0.0
 10
296.015373484052
 20
323.0897557163709
 30
0.0
 10
295.9731391054547
 20
323.0159568943307
 30
0.0
 10
295.9516317040286
 20
322.9346177268608
 30
0.0
 10
295.9325806519723
 20
322.869789938443
 30
0.0
 10
295.9184520728351
 20
322.7975478284498
 30
0.0
 10
295.9220467833426
 20
322.719500936212
 30
0.0
 10
295.9271945733059
 20
322.6470149782871
 30
0.0
 10
295.9501782037149
 20
322.5952708569649
 30
0.0
 10
295.9763524876483
 20
322.5584326082286
 30
0.0
 10
296.0084025398698
 20
322.5178593613102
 30
0.0
 10
296.0434723057712
 20
322.4909878312572
 30
0.0
 10
296.0724778647647
 20
322.4423082488428
 30
0.0
 10
296.1232511172998
 20
322.4360963830474
 30
0.0
 10
296.155524616548
 20
322.4237329161204
 30
0.0
 10
296.1656415135885
 20
322.4198572929349
 30
0.0
 11
296.506335165733
 21
323.3701747597353
 31
0.0
 11
296.3359883396607
 21
323.3436569665694
 31
0.0
 11
296.2327477040899
 21
323.2920793922509
 31
0.0
 11
296.1604794076034
 21
323.2508173664257
 31
0.0
 11
296.1140213442161
 21
323.2095551724524
 31
0.0
 11
296.0624011748438
 21
323.1476620496405
 31
0.0
 11
296.0262670266006
 21
323.1012422495687
 31
0.0
 11
295.974646560402
 21
323.0084024812768
 31
0.0
 11
295.948836624129
 21
322.9258782614782
 31
0.0
 11
295.933350603
 21
322.869142912913
 31
0.0
 11
295.9230263910297
 21
322.8124075643478
 31
0.0
 11
295.9230263910297
 21
322.7092524157108
 31
0.0
 11
295.933350603
 21
322.6370437444055
 31
0.0
 11
295.948836624129
 21
322.6009393246789
 31
0.0
 11
295.9798086663871
 21
322.554519524607
 31
0.0
 11
296.0056188994864
 21
322.523572879127
 31
0.0
 11
296.0469148568884
 21
322.4823108533018
 31
0.0
 11
296.0675629840027
 21
322.4565219820685
 31
0.0
 11
296.1346694713304
 21
322.4307332789833
 31
0.0
 11
296.1656415135885
 21
322.4198572929349
 31
0.0
  0
LINE
  5
293B
102
{ACAD_REACTORS
330
2919
102
}
330
18
100
AcDbEntity
  8
ROGO
 62
     4
100
AcDbLine
 10
295.2722915221914
 20
323.3701747597353
 30
0.0
 11
295.9575839167058
 21
322.4198572929349
 31
0.0
  0
LINE
  5
293C
102
{ACAD_REACTORS
330
2919
102
}
330
18
100
AcDbEntity
  8
ROGO
 62
     4
100
AcDbLine
 10
295.3008027055647
 20
322.6007918588116
 30
0.0
 11
295.4312781374407
 21
322.4198572929349
 31
0.0
  0
LINE
  5
293D
102
{ACAD_REACTORS
330
2938
102
}
330
18
100
AcDbEntity
  8
ROGO
 62
     4
100
AcDbLine
 10
297.1604668545568
 20
322.7734332603207
 30
0.0
 11
296.9841624577775
 21
322.4198572929349
 31
0.0
  0
LINE
  5
293E
102
{ACAD_REACTORS
330
2913
102
}
330
18
100
AcDbEntity
  8
ROGO
 62
     4
100
AcDbLine
 10
300.2224742636379
 20
322.7734332603207
 30
0.0
 11
300.0461698668587
 21
322.4198572929348
 31
0.0
  0
ARC
  5
293F
102
{ACAD_REACTORS
330
2937
102
}
330
18
100
AcDbEntity
  8
ROGO
 62
     4
100
AcDbCircle
 10
297.959226977597
 20
322.8950160263351
 30
0.0
 40
0.4755599797263065
100
AcDbArc
 50
92.3538081120337
 51
270.0
  0
ARC
  5
2940
102
{ACAD_REACTORS
330
2937
102
}
330
18
100
AcDbEntity
  8
ROGO
 62
     4
100
AcDbCircle
 10
298.3239696591716
 20
322.894614780009
 30
0.0
 40
0.4755599797263065
100
AcDbArc
 50
273.3290215232082
 51
90.0000000000006
  0
LINE
  5
2941
102
{ACAD_REACTORS
330
2938
102
}
330
18
100
AcDbEntity
  8
ROGO
 62
     4
100
AcDbLine
 10
296.1656415135884
 20
322.4198572929349
 30
0.0
 11
296.9841624577775
 21
322.4198572929349
 31
0.0
  0
LINE
  5
2942
102
{ACAD_REACTORS
330
2919
102
}
330
18
100
AcDbEntity
  8
ROGO
 62
     4
100
AcDbLine
 10
295.9575839167058
 20
322.4198572929349
 30
0.0
 11
295.4312781374407
 21
322.4198572929349
 31
0.0
  0
LINE
  5
2943
330
18
100
AcDbEntity
  8
ROGO
 62
     4
100
AcDbLine
 10
297.9396956593941
 20
322.4198572929349
 30
0.0
 11
298.3515852848981
 21
322.4198572929349
 31
0.0
  0
LINE
  5
2944
102
{ACAD_REACTORS
330
2937
102
}
330
18
100
AcDbEntity
  8
ROGO
 62
     4
100
AcDbLine
 10
297.9396956593937
 20
322.4198572929349
 30
0.0
 11
298.3515852848985
 21
322.4198572929349
 31
0.0
  0
LINE
  5
2945
102
{ACAD_REACTORS
330
2913
102
}
330
18
100
AcDbEntity
  8
ROGO
 62
     4
100
AcDbLine
 10
299.2276489226695
 20
322.4198572929349
 30
0.0
 11
300.0461698668587
 21
322.4198572929349
 31
0.0
  0
LINE
  5
2946
102
{ACAD_REACTORS
330
2919
102
}
330
18
100
AcDbEntity
  8
ROGO
 62
     4
100
AcDbLine
 10
294.9976683585218
 20
323.021158212047
 30
0.0
 11
294.8321503839438
 21
322.7916290014939
 31
0.0
  0
LINE
  5
2947
102
{ACAD_REACTORS
330
2919
102
}
330
18
100
AcDbEntity
  8
ROGO
 62
     4
100
AcDbLine
 10
294.8321503839438
 20
322.7916290014939
 30
0.0
 11
295.1631863330998
 21
322.7916290014939
 31
0.0
  0
LINE
  5
2948
102
{ACAD_REACTORS
330
2919
102
}
330
18
100
AcDbEntity
  8
ROGO
 62
     4
100
AcDbLine
 10
294.9976683585218
 20
323.021158212047
 30
0.0
 11
295.1631863330998
 21
322.7916290014939
 31
0.0
  0
SPLINE
  5
2949
102
{ACAD_REACTORS
330
2938
102
}
330
18
100
AcDbEntity
  8
ROGO
 62
     4
100
AcDbSpline
210
0.0
220
0.0
230
1.0
 70
     8
 71
     3
 72
    16
 73
    12
 74
    10
 42
0.0000000001
 43
0.0000000001
 44
0.0000000001
 40
0.0
 40
0.0
 40
0.0
 40
0.0
 40
0.0908894635587698
 40
0.1352824120537892
 40
0.1571739758861581
 40
0.1802441192684258
 40
0.2132804986120957
 40
0.2433617673669162
 40
0.2747358298621522
 40
0.3273367126566597
 40
0.3794005943324332
 40
0.3794005943324332
 40
0.3794005943324332
 40
0.3794005943324332
 10
296.6870059069492
 20
323.016595048037
 30
0.0
 10
296.6562266126096
 20
323.011902536967
 30
0.0
 10
296.6104138526207
 20
323.0049180726378
 30
0.0
 10
296.5689853429556
 20
322.9721237201888
 30
0.0
 10
296.5456225399496
 20
322.9526132633903
 30
0.0
 10
296.5376744102825
 20
322.9267758802641
 30
0.0
 10
296.5163282299503
 20
322.9069367362353
 30
0.0
 10
296.4987329055779
 20
322.8796713663084
 30
0.0
 10
296.4945315409674
 20
322.8422219390815
 30
0.0
 10
296.4976154387824
 20
322.7896673752898
 30
0.0
 10
296.5344636511017
 20
322.7788260909337
 30
0.0
 10
296.5527932291202
 20
322.7734332603207
 30
0.0
 11
296.6870059069492
 21
323.016595048037
 31
0.0
 11
296.5992515893336
 21
322.9929291585368
 31
0.0
 11
296.5631174410904
 21
322.9671404554516
 31
0.0
 11
296.5476314199614
 21
322.9516671327115
 31
0.0
 11
296.5373072079911
 21
322.9310360357249
 31
0.0
 11
296.5166590808769
 21
322.9052473326397
 31
0.0
 11
296.5011730597478
 21
322.8794584614064
 31
0.0
 11
296.4960109537627
 21
322.8485119840745
 31
0.0
 11
296.506335165733
 21
322.7969342416078
 31
0.0
 11
296.5527932291202
 21
322.7734332603207
 31
0.0
  0
LINE
  5
294A
102
{ACAD_REACTORS
330
2938
102
}
330
18
100
AcDbEntity
  8
ROGO
 62
     4
100
AcDbLine
 10
297.4580214391213
 20
323.3701747597353
 30
0.0
 11
297.2817151753069
 21
323.016595048037
 31
0.0
  0
LINE
  5
294B
102
{ACAD_REACTORS
330
2938
102
}
330
18
100
AcDbEntity
  8
ROGO
 62
     4
100
AcDbLine
 10
296.6870059069492
 20
323.016595048037
 30
0.0
 11
297.2817151753069
 21
323.016595048037
 31
0.0
  0
LINE
  5
294C
102
{ACAD_REACTORS
330
2938
102
}
330
18
100
AcDbEntity
  8
ROGO
 62
     4
100
AcDbLine
 10
296.5527932291201
 20
322.7734332603207
 30
0.0
 11
297.1604668545568
 21
322.7734332603207
 31
0.0
  0
LINE
  5
294D
102
{ACAD_REACTORS
330
2938
102
}
330
18
100
AcDbEntity
  8
ROGO
 62
     4
100
AcDbLine
 10
296.5063351657333
 20
323.3701747597354
 30
0.0
 11
297.4580214391213
 21
323.3701747597354
 31
0.0
  0
LINE
  5
294E
102
{ACAD_REACTORS
330
2937
102
}
330
18
100
AcDbEntity
  8
ROGO
 62
     4
100
AcDbLine
 10
298.1484322922517
 20
322.9860425939841
 30
0.0
 11
298.1828711804799
 21
322.9812289670188
 31
0.0
  0
LINE
  5
294F
102
{ACAD_REACTORS
330
2937
102
}
330
18
100
AcDbEntity
  8
ROGO
 62
     4
100
AcDbLine
 10
298.2655428488146
 20
322.8895115412687
 30
0.0
 11
298.2528961203659
 21
322.7990310635251
 31
0.0
  0
LINE
  5
2950
102
{ACAD_REACTORS
330
2937
102
}
330
18
100
AcDbEntity
  8
ROGO
 62
     4
100
AcDbLine
 10
298.0265456018235
 20
322.8324747412316
 30
0.0
 11
298.0391923302722
 21
322.9229552189751
 31
0.0
  0
LINE
  5
2951
102
{ACAD_REACTORS
330
2937
102
}
330
18
100
AcDbEntity
  8
ROGO
 62
     4
100
AcDbLine
 10
298.11558941794
 20
322.7510696545195
 30
0.0
 11
298.1500283061682
 21
322.7462560275542
 31
0.0
  0
ARC
  5
2952
102
{ACAD_REACTORS
330
2937
102
}
330
18
100
AcDbEntity
  8
ROGO
 62
     4
100
AcDbCircle
 10
298.1658864730611
 20
322.8828016562827
 30
0.0
 40
0.0998820093152177
100
AcDbArc
 50
3.851923331663601
 51
80.20940670206341
  0
ARC
  5
2953
102
{ACAD_REACTORS
330
2937
102
}
330
18
100
AcDbEntity
  8
ROGO
 62
     4
100
AcDbCircle
 10
298.1350291104353
 20
322.8831292929241
 30
0.0
 40
0.1037824301982561
100
AcDbArc
 50
82.57970078354313
 51
157.4341870372611
  0
ARC
  5
2954
102
{ACAD_REACTORS
330
2937
102
}
330
18
100
AcDbEntity
  8
ROGO
 62
     4
100
AcDbCircle
 10
298.1213172214083
 20
322.8467371423746
 30
0.0
 40
0.0958388019806556
100
AcDbArc
 50
188.5583509056651
 51
266.5736774635929
  0
ARC
  5
2955
102
{ACAD_REACTORS
330
2937
102
}
330
18
100
AcDbEntity
  8
ROGO
 62
     4
100
AcDbCircle
 10
298.1706418895084
 20
322.8327177696418
 30
0.0
 40
0.0888850530907803
100
AcDbArc
 50
256.5902863289752
 51
337.7287536965499
  0
LINE
  5
2956
330
18
100
AcDbEntity
  8
ROGO
 62
     4
100
AcDbLine
 10
297.9396956593939
 20
323.3701747597353
 30
0.0
 11
298.2090090685403
 21
323.3701747597353
 31
0.0
  0
LINE
  5
2957
102
{ACAD_REACTORS
330
2937
102
}
330
18
100
AcDbEntity
  8
ROGO
 62
     4
100
AcDbLine
 10
297.9396956593937
 20
323.3701747597353
 30
0.0
 11
298.3239696591716
 21
323.3701747597353
 31
0.0
  0
SPLINE
  5
2958
102
{ACAD_REACTORS
330
2913
102
}
330
18
100
AcDbEntity
  8
ROGO
 62
     4
100
AcDbSpline
210
0.0
220
0.0
230
1.0
 70
     8
 71
     3
 72
    16
 73
    12
 74
    10
 42
0.0000000001
 43
0.0000000001
 44
0.0000000001
 40
0.0
 40
0.0
 40
0.0
 40
0.0
 40
0.090889463558755
 40
0.1352824120538207
 40
0.1571739758861895
 40
0.1802441192684573
 40
0.2132804986121272
 40
0.2433617673669184
 40
0.2747358298622198
 40
0.3273367126566715
 40
0.379400594332445
 40
0.379400594332445
 40
0.379400594332445
 40
0.379400594332445
 10
299.7490133160302
 20
323.0165950480369
 30
0.0
 10
299.7182340216907
 20
323.011902536967
 30
0.0
 10
299.6724212617016
 20
323.0049180726376
 30
0.0
 10
299.6309927520367
 20
322.9721237201889
 30
0.0
 10
299.6076299490306
 20
322.9526132633902
 30
0.0
 10
299.5996818193635
 20
322.9267758802641
 30
0.0
 10
299.5783356390315
 20
322.9069367362354
 30
0.0
 10
299.5607403146589
 20
322.8796713663083
 30
0.0
 10
299.5565389500484
 20
322.8422219390815
 30
0.0
 10
299.5596228478635
 20
322.7896673752898
 30
0.0
 10
299.5964710601827
 20
322.7788260909337
 30
0.0
 10
299.6148006382012
 20
322.7734332603207
 30
0.0
 11
299.7490133160302
 21
323.0165950480369
 31
0.0
 11
299.6612589984147
 21
322.9929291585368
 31
0.0
 11
299.6251248501715
 21
322.9671404554516
 31
0.0
 11
299.6096388290424
 21
322.9516671327115
 31
0.0
 11
299.5993146170722
 21
322.9310360357249
 31
0.0
 11
299.578666489958
 21
322.9052473326397
 31
0.0
 11
299.5631804688289
 21
322.8794584614064
 31
0.0
 11
299.5580183628438
 21
322.8485119840744
 31
0.0
 11
299.568342574814
 21
322.7969342416078
 31
0.0
 11
299.6148006382012
 21
322.7734332603207
 31
0.0
  0
LINE
  5
2959
102
{ACAD_REACTORS
330
2913
102
}
330
18
100
AcDbEntity
  8
ROGO
 62
     4
100
AcDbLine
 10
299.6148006382012
 20
322.7734332603207
 30
0.0
 11
300.2224742636379
 21
322.7734332603207
 31
0.0
  0
LINE
  5
295A
102
{ACAD_REACTORS
330
2913
102
}
330
18
100
AcDbEntity
  8
ROGO
 62
     4
100
AcDbLine
 10
299.7490133160302
 20
323.016595048037
 30
0.0
 11
300.3437225843879
 21
323.016595048037
 31
0.0
  0
LINE
  5
295B
102
{ACAD_REACTORS
330
2912
102
}
330
18
100
AcDbEntity
  8
ROGO
 62
     4
100
AcDbLine
 10
301.0892713910868
 20
322.6277067336714
 30
0.0
 11
301.4594899283673
 21
321.8852387076077
 31
0.0
  0
LINE
  5
295C
102
{ACAD_REACTORS
330
2912
102
}
330
18
100
AcDbEntity
  8
ROGO
 62
     4
100
AcDbLine
 10
300.7190648255471
 20
322.2728238064193
 30
0.0
 11
300.912327273648
 21
321.8852387076077
 31
0.0
  0
LINE
  5
295D
102
{ACAD_REACTORS
330
2912
102
}
330
18
100
AcDbEntity
  8
ROGO
 62
     4
100
AcDbLine
 10
300.7190648255471
 20
322.2728238064192
 30
0.0
 11
300.5258023774463
 21
321.8852387076077
 31
0.0
  0
LINE
  5
295E
102
{ACAD_REACTORS
330
2912
102
}
330
18
100
AcDbEntity
  8
ROGO
 62
     4
100
AcDbLine
 10
300.912327273648
 20
321.8852387076077
 30
0.0
 11
301.4594899283673
 21
321.8852387076077
 31
0.0
  0
LINE
  5
295F
102
{ACAD_REACTORS
330
2912
102
}
330
18
100
AcDbEntity
  8
ROGO
 62
     4
100
AcDbLine
 10
301.0892713910868
 20
322.6277067336714
 30
0.0
 11
301.9887592258576
 21
323.3701747597353
 31
0.0
  0
LINE
  5
2960
102
{ACAD_REACTORS
330
2912
102
}
330
18
100
AcDbEntity
  8
ROGO
 62
     4
100
AcDbLine
 10
301.4415965711383
 20
323.3701747597353
 30
0.0
 11
301.9887592258576
 21
323.3701747597353
 31
0.0
  0
LINE
  5
2961
102
{ACAD_REACTORS
330
2912
102
}
330
18
100
AcDbEntity
  8
ROGO
 62
     4
100
AcDbLine
 10
300.7190648255471
 20
323.3701747597353
 30
0.0
 11
301.2662394520071
 21
323.3701747597353
 31
0.0
  0
LINE
  5
2962
102
{ACAD_REACTORS
330
2912
102
}
330
18
100
AcDbEntity
  8
ROGO
 62
     4
100
AcDbLine
 10
301.2662394520071
 20
323.3701747597353
 30
0.0
 11
301.1853987909109
 21
323.208049960392
 31
0.0
  0
LINE
  5
2963
102
{ACAD_REACTORS
330
2912
102
}
330
18
100
AcDbEntity
  8
ROGO
 62
     4
100
AcDbLine
 10
301.1853987909109
 20
323.208049960392
 30
0.0
 11
301.4415965711383
 21
323.3701747597353
 31
0.0
  0
LINE
  5
2964
330
18
100
AcDbEntity
  8
寸法線
 62
     2
100
AcDbLine
 10
389.5109840438798
 20
271.8400497621609
 30
0.0
 11
393.2975077672284
 21
265.289731547
 31
0.0
1001
ACAD
1000
DSTYLE
1002
{
1070
   271
1070
     2
1002
}
  0
LINE
  5
2965
330
18
100
AcDbEntity
  8
寸法線
 62
     2
100
AcDbLine
 10
393.2975077672284
 20
265.289731547
 30
0.0
 11
398.3272696719904
 21
265.289731547
 31
0.0
1001
ACAD
1000
DSTYLE
1002
{
1070
   271
1070
     2
1002
}
  0
LINE
  5
2966
330
18
100
AcDbEntity
  8
0
  6
ByBlock
 62
     2
100
AcDbLine
 10
389.9887035940559
 20
281.7014700566381
 30
0.0
 11
389.9887035940559
 21
285.6085596856225
 31
0.0
  0
LINE
  5
2967
330
18
100
AcDbEntity
  8
0
  6
ByBlock
 62
     2
100
AcDbLine
 10
405.9887035940558
 20
276.875154661575
 30
0.0
 11
405.9887035940558
 21
285.6085596856225
 31
0.0
  0
LINE
  5
2968
330
18
100
AcDbEntity
  8
0
  6
ByBlock
 62
     2
100
AcDbLine
 10
392.4887035940559
 20
284.3585596856225
 30
0.0
 11
403.4887035940558
 21
284.3585596856225
 31
0.0
  0
INSERT
  5
2969
330
18
100
AcDbEntity
  8
0
  6
ByBlock
 62
     2
100
AcDbBlockReference
  2
_OPEN
 10
389.9887035940559
 20
284.3585596856225
 30
0.0
 41
2.5
 42
2.5
 43
2.5
 50
180.0
  0
INSERT
  5
296A
330
18
100
AcDbEntity
  8
0
  6
ByBlock
 62
     2
100
AcDbBlockReference
  2
_OPEN
 10
405.9887035940558
 20
284.3585596856225
 30
0.0
 41
2.5
 42
2.5
 43
2.5
  0
MTEXT
  5
296B
330
18
100
AcDbEntity
  8
0
  6
ByBlock
 62
     6
100
AcDbMText
 10
397.9887035940559
 20
286.2335596856226
 30
0.0
 40
2.5
 41
0.0
 71
     5
 72
     1
  1
\A1;16
  7
STYLE3
 73
     1
 44
1.0
  0
POINT
  5
296C
330
18
100
AcDbEntity
  8
DEFPOINTS
  6
ByBlock
 62
     0
100
AcDbPoint
 10
389.9887035940559
 20
281.7014700566381
 30
0.0
  0
POINT
  5
296D
330
18
100
AcDbEntity
  8
DEFPOINTS
  6
ByBlock
 62
     0
100
AcDbPoint
 10
405.9887035940558
 20
276.875154661575
 30
0.0
  0
POINT
  5
296E
330
18
100
AcDbEntity
  8
DEFPOINTS
  6
ByBlock
 62
     0
100
AcDbPoint
 10
405.9887035940558
 20
284.3585596856225
 30
0.0
  0
INSERT
  5
2EE0
330
18
100
AcDbEntity
  8
目盛
100
AcDbBlockReference
  2
PC_PCN針
 10
296.0789101518102
 20
326.8713504036758
 30
0.0
 50
306.0
  0
TEXT
  5
2F4A
330
18
100
AcDbEntity
  8
文字
100
AcDbText
 10
323.881883878793
 20
356.6891845654627
 30
0.0
 40
4.0
  1
Model No.PCN-5 New Pic Test Indicator
  7
STYLE3
100
AcDbText
  0
LINE
  5
2F4B
330
18
100
AcDbEntity
  8
外形線
100
AcDbLine
 10
322.731158878793
 20
354.2709905654626
 30
0.0
 11
442.7311588787929
 21
354.2709905654626
 31
0.0
  0
LINE
  5
2F4C
330
18
100
AcDbEntity
  8
外形線
100
AcDbLine
 10
322.731158878793
 20
355.2709905654626
 30
0.0
 11
442.7311588787929
 21
355.2709905654626
 31
0.0
  0
LINE
  5
2F54
330
18
100
AcDbEntity
  8
外形線
100
AcDbLine
 10
350.677117878793
 20
192.6559145654626
 30
0.0
 11
491.4685358787929
 21
192.6559145654626
 31
0.0
  0
LINE
  5
2F55
330
18
100
AcDbEntity
  8
外形線
100
AcDbLine
 10
350.677117878793
 20
181.8757085654626
 30
0.0
 11
491.4685358787929
 21
181.8757085654626
 31
0.0
  0
TEXT
  5
2F56
330
18
100
AcDbEntity
  8
0
  6
Continuous
100
AcDbText
 10
352.134584878793
 20
183.7736985654626
 30
0.0
 40
2.1
  1
Design and specifications are subject to change without notice for future improvement.
  7
STYLE3
100
AcDbText
  0
TEXT
  5
2F57
330
18
100
AcDbEntity
  8
0
  6
Continuous
100
AcDbText
 10
352.426078878793
 20
187.7028465654626
 30
0.0
 40
3.5
  1
仕様及び外観は予告なく変更される場合がございますのでご了承下さい。
  7
STYLE3
100
AcDbText
  0
TEXT
  5
2F58
330
18
100
AcDbEntity
  8
0
  6
Continuous
100
AcDbText
 10
351.843093878793
 20
174.0090705654627
 30
0.0
 40
2.1
  1
3RD Angle Projection
  7
STYLE3
100
AcDbText
  0
TEXT
  5
2F59
330
18
100
AcDbEntity
  8
0
  6
Continuous
100
AcDbText
 10
354.466536878793
 20
177.5053535654627
 30
0.0
 40
3.0
  1
三　　角　　法
  7
STYLE3
100
AcDbText
  0
LINE
  5
2F5A
330
18
100
AcDbEntity
  8
外形線
100
AcDbLine
 10
350.677117878793
 20
172.2609305654627
 30
0.0
 11
350.677117878793
 21
192.6559145654626
 31
0.0
  0
LINE
  5
2F5B
330
18
100
AcDbEntity
  8
外形線
100
AcDbLine
 10
452.699884878793
 20
181.8757085654626
 30
0.0
 11
452.699884878793
 21
172.2609305654627
 31
0.0
  0
LINE
  5
2F5C
330
18
100
AcDbEntity
  8
外形線
100
AcDbLine
 10
422.967534878793
 20
181.8757085654626
 30
0.0
 11
422.967534878793
 21
172.2609305654627
 31
0.0
  0
LINE
  5
2F5D
330
18
100
AcDbEntity
  8
外形線
100
AcDbLine
 10
403.4374628787929
 20
181.8757085654626
 30
0.0
 11
403.4374628787929
 21
172.2609305654627
 31
0.0
  0
LINE
  5
2F5E
330
18
100
AcDbEntity
  8
外形線
100
AcDbLine
 10
385.9478458787931
 20
181.8757085654626
 30
0.0
 11
385.9478458787931
 21
172.2609305654627
 31
0.0
  0
TEXT
  5
2F5F
330
18
100
AcDbEntity
  8
0
  6
Continuous
100
AcDbText
 10
387.405314878793
 20
177.5113085654627
 30
0.0
 40
3.0
  1
単位
  7
STYLE3
100
AcDbText
  0
TEXT
  5
2F60
330
18
100
AcDbEntity
  8
0
  6
Continuous
100
AcDbText
 10
387.577035878793
 20
174.0090715654627
 30
0.0
 40
2.1
  1
Unit
  7
STYLE3
100
AcDbText
  0
TEXT
  5
2F61
330
18
100
AcDbEntity
  8
0
  6
Continuous
100
AcDbText
 10
404.7232108787929
 20
177.2199505654627
 30
0.0
 40
3.0
  1
尺 度
  7
STYLE3
100
AcDbText
  0
TEXT
  5
2F62
330
18
100
AcDbEntity
  8
0
  6
Continuous
100
AcDbText
 10
395.447362878793
 20
175.7572145654626
 30
0.0
 40
2.399999999999999
  1
mm
  7
STYLE3
100
AcDbText
  0
TEXT
  5
2F63
330
18
100
AcDbEntity
  8
0
  6
Continuous
100
AcDbText
 10
405.1864258787929
 20
174.3004285654627
 30
0.0
 40
2.1
  1
Scale
  7
STYLE3
100
AcDbText
  0
TEXT
  5
2F64
330
18
100
AcDbEntity
  8
0
  6
Continuous
100
AcDbText
 10
414.805714878793
 20
176.0485715654627
 30
0.0
 40
2.399999999999999
  1
1/1
  7
STYLE3
100
AcDbText
  0
TEXT
  5
2F65
330
18
100
AcDbEntity
  8
0
  6
Continuous
100
AcDbText
 10
424.899485878793
 20
174.0090725654626
 30
0.0
 40
2.1
  1
Date
  7
STYLE3
100
AcDbText
  0
TEXT
  5
2F66
330
18
100
AcDbEntity
  8
0
  6
Continuous
100
AcDbText
 10
424.516124878793
 20
177.3421555654626
 30
0.0
 40
3.0
  1
日 付
  7
STYLE3
100
AcDbText
  0
TEXT
  5
2F67
330
18
100
AcDbEntity
  8
0
  6
Continuous
100
AcDbText
 10
433.6442938787929
 20
175.7572135654626
 30
0.0
 40
2.1
  1
2010.06.14
  7
STYLE3
100
AcDbText
  0
TEXT
  5
2F68
330
18
100
AcDbEntity
  8
0
  6
Continuous
100
AcDbText
 10
454.048847878793
 20
177.7967105654626
 30
0.0
 40
3.0
  1
株式会社　尾崎製作所
  7
STYLE3
100
AcDbText
  0
TEXT
  5
2F69
330
18
100
AcDbEntity
  8
0
  6
Continuous
100
AcDbText
 10
454.9233268787929
 20
174.0090715654627
 30
0.0
 40
2.1
  1
OZAKI MFG. CO., LTD.
  7
STYLE3
100
AcDbText
  0
ENDSEC
  0
SECTION
  2
OBJECTS
  0
DICTIONARY
  5
C
330
0
100
AcDbDictionary
281
     1
  3
ACAD_COLOR
350
2987
  3
ACAD_GROUP
350
D
  3
ACAD_IMAGE_DICT
350
B2C
  3
ACAD_IMAGE_VARS
350
17FD
  3
ACAD_LAYOUT
350
298A
  3
ACAD_MATERIAL
350
2986
  3
ACAD_MLINESTYLE
350
1B
  3
ACAD_PLOTSETTINGS
350
298B
  3
ACAD_PLOTSTYLENAME
350
2984
  3
ACAD_TABLESTYLE
350
2988
  3
ACDBVARIABLEDICTIONARY
350
1297
  0
DICTIONARY
  5
2993
330
2992
100
AcDbDictionary
280
     1
281
     1
  3
ACAD_SORTENTS
360
2994
  0
DICTIONARY
  5
2987
102
{ACAD_REACTORS
330
C
102
}
330
C
100
AcDbDictionary
281
     1
  0
DICTIONARY
  5
D
102
{ACAD_REACTORS
330
C
102
}
330
C
100
AcDbDictionary
281
     1
  0
DICTIONARY
  5
B2C
102
{ACAD_REACTORS
330
C
102
}
330
C
100
AcDbDictionary
281
     1
  3
ROGO01
350
B2D
  0
RASTERVARIABLES
  5
17FD
102
{ACAD_REACTORS
330
C
102
}
330
C
100
AcDbRasterVariables
 90
        0
 70
     1
 71
     1
 72
     0
  0
DICTIONARY
  5
298A
102
{ACAD_REACTORS
330
C
102
}
330
C
100
AcDbDictionary
281
     1
  3
Model
350
298C
  3
レイアウト1
350
298D
  0
DICTIONARY
  5
2986
102
{ACAD_REACTORS
330
C
102
}
330
C
100
AcDbDictionary
281
     1
  0
DICTIONARY
  5
1B
102
{ACAD_REACTORS
330
C
102
}
330
C
100
AcDbDictionary
281
     1
  3
STANDARD
350
1C
  0
DICTIONARY
  5
298B
102
{ACAD_REACTORS
330
C
102
}
330
C
100
AcDbDictionary
281
     1
  0
ACDBDICTIONARYWDFLT
  5
2984
102
{ACAD_REACTORS
330
C
102
}
330
C
100
AcDbDictionary
281
     1
  3
Normal
350
2985
100
AcDbDictionaryWithDefault
340
2985
  0
DICTIONARY
  5
2988
102
{ACAD_REACTORS
330
C
102
}
330
C
100
AcDbDictionary
281
     1
  3
Standard
350
2989
  0
DICTIONARY
  5
1297
102
{ACAD_REACTORS
330
C
102
}
330
C
100
AcDbDictionary
281
     1
  3
CTABLESTYLE
350
2EE8
  3
SORTENTS
350
1298
  0
SORTENTSTABLE
  5
2994
102
{ACAD_REACTORS
330
2993
102
}
330
2993
100
AcDbSortentsTable
330
2992
  0
IMAGEDEF
  5
B2D
102
{ACAD_REACTORS
330
B2C
102
}
330
B2C
100
AcDbRasterImageDef
 90
        0
  1
D:\ﾃｽﾄ\rogo01.TIF
 10
3388.0
 20
4668.0
 11
0.0635
 21
0.0635
280
     1
281
     5
  0
LAYOUT
  5
298C
102
{ACAD_REACTORS
330
298A
102
}
330
298A
100
AcDbPlotSettings
  1

  2
A4 EPSON LP-6100.pc3
  4
A4
  6

 40
5.873749732971191
 41
5.873747825622558
 42
5.873748779296875
 43
5.873748779296875
 44
209.9733276367187
 45
297.0106506347656
 46
0.9
 47
25.0
 48
0.0
 49
0.0
140
0.0
141
0.0
142
1.0
143
1.0
 70
 28336
 72
     1
 73
     1
 74
     1
  7
AutoCAD LT 98.ctb
 75
    16
147
1.0
 76
     1
 77
     2
 78
   300
148
-236.4655466519944
149
-171.6339924573988
100
AcDbLayout
  1
Model
 70
     1
 71
     0
 10
0.0
 20
0.0
 11
12.0
 21
9.0
 12
0.0
 22
0.0
 32
0.0
 14
0.0
 24
0.0
 34
0.0
 15
0.0
 25
0.0
 35
0.0
146
0.0
 13
0.0
 23
0.0
 33
0.0
 16
1.0
 26
0.0
 36
0.0
 17
0.0
 27
1.0
 37
0.0
 76
     0
330
18
1001
ACAD_PSEXT
1000
A4 EPSON LP-6100.pc3
1000
EPSON LP-6100
1000
\\SATO-MATE2
1000

1070
     0
  0
LAYOUT
  5
298D
102
{ACAD_REACTORS
330
298A
102
}
330
298A
100
AcDbPlotSettings
  1

  2
WIDR Printer
  4

  6

 40
0.0
 41
0.0
 42
0.0
 43
0.0
 44
0.0
 45
0.0
 46
0.0
 47
0.0
 48
0.0
 49
0.0
140
0.0
141
0.0
142
1.0
143
1.0
 70
   688
 72
     0
 73
     0
 74
     5
  7
AutoCad LT 98.ctb
 75
    16
147
1.0
 76
     0
 77
     2
 78
   300
148
0.0
149
0.0
100
AcDbLayout
  1
レイアウト1
 70
     1
 71
     1
 10
0.0
 20
0.0
 11
420.0
 21
297.0
 12
0.0
 22
0.0
 32
0.0
 14
1.000000000000000E+20
 24
1.000000000000000E+20
 34
1.000000000000000E+20
 15
-1.000000000000000E+20
 25
-1.000000000000000E+20
 35
-1.000000000000000E+20
146
0.0
 13
0.0
 23
0.0
 33
0.0
 16
1.0
 26
0.0
 36
0.0
 17
0.0
 27
1.0
 37
0.0
 76
     0
330
15
  0
MLINESTYLE
  5
1C
102
{ACAD_REACTORS
330
1B
102
}
330
1B
100
AcDbMlineStyle
  2
STANDARD
 70
     0
  3

 62
   256
 51
90.0
 52
90.0
 71
     2
 49
0.5
 62
   256
  6
BYLAYER
 49
-0.5
 62
   256
  6
BYLAYER
  0
ACDBPLACEHOLDER
  5
2985
102
{ACAD_REACTORS
330
2984
102
}
330
2984
  0
ACAD_PROXY_OBJECT
  5
2989
102
{ACAD_REACTORS
330
2988
102
}
330
2988
100
AcDbProxyObject
 90
      499
 91
      506
 95
  2555929
 70
     0
 93
     1849
310
4214DD185B99185C992420000000000000F83F0000000000003E0FC00000000000004901028000000C1008070000C3001FDFF8000000C1003FBFF000000182007F7FE00000030400FEFFC00000060801FDFF8000000C1003FBFF000000182000000000000000C2020B0000001820100E000186003FBFF000000182007F7FE0
310
0000030400FEFFC00000060801FDFF8000000C1003FBFF000000182007F7FE0000003040000000000000012404160000003040201C00030C007F7FE00000030400FEFFC00000060801FDFF8000000C1003FBFF000000182007F7FE00000030400FEFFC000000608045
340
F
340
F
340
F
 94
        0
  0
DICTIONARYVAR
  5
2EE8
102
{ACAD_REACTORS
330
1297
102
}
330
1297
100
DictionaryVariables
280
     0
  1
STANDARD
  0
DICTIONARYVAR
  5
1298
102
{ACAD_REACTORS
330
1297
102
}
330
1297
100
DictionaryVariables
280
     0
  1
96
  0
ENDSEC
  0
EOF
