  0
SECTION
  2
HEADER
  9
$ACADVER
  1
AC1018
  9
$ACADMAINTVER
 70
     0
  9
$DWGCODEPAGE
  3
ANSI_932
  9
$INSBASE
 10
0.0
 20
0.0
 30
0.0
  9
$EXTMIN
 10
236.4547188150987
 20
171.62613327917
 30
-0.0000000051225193
  9
$EXTMAX
 10
491.9140813472958
 20
367.0669803848941
 30
0.0000000006987797
  9
$LIMMIN
 10
0.0
 20
0.0
  9
$LIMMAX
 10
420.0
 20
297.0
  9
$ORTHOMODE
 70
     0
  9
$REGENMODE
 70
     1
  9
$FILLMODE
 70
     1
  9
$QTEXTMODE
 70
     0
  9
$MIRRTEXT
 70
     1
  9
$LTSCALE
 40
1.0
  9
$ATTMODE
 70
     1
  9
$TEXTSIZE
 40
1.5
  9
$TRACEWID
 40
1.0
  9
$TEXTSTYLE
  7
STYLE3
  9
$CLAYER
  8
外形線
  9
$CELTYPE
  6
BYLAYER
  9
$CECOLOR
 62
   256
  9
$CELTSCALE
 40
1.0
  9
$DISPSILH
 70
     0
  9
$DIMSCALE
 40
1.0
  9
$DIMASZ
 40
2.5
  9
$DIMEXO
 40
0.0
  9
$DIMDLI
 40
3.75
  9
$DIMRND
 40
0.0
  9
$DIMDLE
 40
0.0
  9
$DIMEXE
 40
1.25
  9
$DIMTP
 40
0.0
  9
$DIMTM
 40
0.0
  9
$DIMTXT
 40
2.5
  9
$DIMCEN
 40
2.5
  9
$DIMTSZ
 40
0.0
  9
$DIMTOL
 70
     0
  9
$DIMLIM
 70
     0
  9
$DIMTIH
 70
     0
  9
$DIMTOH
 70
     0
  9
$DIMSE1
 70
     0
  9
$DIMSE2
 70
     0
  9
$DIMTAD
 70
     1
  9
$DIMZIN
 70
     8
  9
$DIMBLK
  1

  9
$DIMASO
 70
     1
  9
$DIMSHO
 70
     1
  9
$DIMPOST
  1

  9
$DIMAPOST
  1

  9
$DIMALT
 70
     0
  9
$DIMALTD
 70
     4
  9
$DIMALTF
 40
0.0394
  9
$DIMLFAC
 40
1.0
  9
$DIMTOFL
 70
     1
  9
$DIMTVP
 40
0.0
  9
$DIMTIX
 70
     0
  9
$DIMSOXD
 70
     0
  9
$DIMSAH
 70
     1
  9
$DIMBLK1
  1
OPEN
  9
$DIMBLK2
  1
OPEN
  9
$DIMSTYLE
  2
STYLE3
  9
$DIMCLRD
 70
     2
  9
$DIMCLRE
 70
     2
  9
$DIMCLRT
 70
     6
  9
$DIMTFAC
 40
1.0
  9
$DIMGAP
 40
0.625
  9
$DIMJUST
 70
     0
  9
$DIMSD1
 70
     0
  9
$DIMSD2
 70
     0
  9
$DIMTOLJ
 70
     1
  9
$DIMTZIN
 70
     0
  9
$DIMALTZ
 70
     0
  9
$DIMALTTZ
 70
     0
  9
$DIMUPT
 70
     0
  9
$DIMDEC
 70
     2
  9
$DIMTDEC
 70
     4
  9
$DIMALTU
 70
     8
  9
$DIMALTTD
 70
     4
  9
$DIMTXSTY
  7
STYLE3
  9
$DIMAUNIT
 70
     0
  9
$DIMADEC
 70
     0
  9
$DIMALTRND
 40
0.0
  9
$DIMAZIN
 70
     0
  9
$DIMDSEP
 70
    46
  9
$DIMATFIT
 70
     3
  9
$DIMFRAC
 70
     0
  9
$DIMLDRBLK
  1

  9
$DIMLUNIT
 70
     2
  9
$DIMLWD
 70
    -2
  9
$DIMLWE
 70
    -2
  9
$DIMTMOVE
 70
     0
  9
$LUNITS
 70
     2
  9
$LUPREC
 70
     4
  9
$SKETCHINC
 40
1.0
  9
$FILLETRAD
 40
0.0
  9
$AUNITS
 70
     0
  9
$AUPREC
 70
     0
  9
$MENU
  1
.
  9
$ELEVATION
 40
0.0
  9
$PELEVATION
 40
0.0
  9
$THICKNESS
 40
0.0
  9
$LIMCHECK
 70
     0
  9
$CHAMFERA
 40
0.1
  9
$CHAMFERB
 40
0.1
  9
$CHAMFERC
 40
20.0
  9
$CHAMFERD
 40
0.0
  9
$SKPOLY
 70
     0
  9
$TDCREATE
 40
2451066.662483449
  9
$TDUCREATE
 40
2451066.287483449
  9
$TDUPDATE
 40
2455370.355918507
  9
$TDUUPDATE
 40
2455369.980918507
  9
$TDINDWG
 40
0.9802498727
  9
$TDUSRTIMER
 40
0.9802498727
  9
$USRTIMER
 70
     1
  9
$ANGBASE
 50
0.0
  9
$ANGDIR
 70
     0
  9
$PDMODE
 70
     0
  9
$PDSIZE
 40
0.0
  9
$PLINEWID
 40
0.0
  9
$SPLFRAME
 70
     0
  9
$SPLINETYPE
 70
     6
  9
$SPLINESEGS
 70
     8
  9
$HANDSEED
  5
2591
  9
$SURFTAB1
 70
     6
  9
$SURFTAB2
 70
     6
  9
$SURFTYPE
 70
     6
  9
$SURFU
 70
     6
  9
$SURFV
 70
     6
  9
$UCSBASE
  2

  9
$UCSNAME
  2

  9
$UCSORG
 10
0.0
 20
0.0
 30
0.0
  9
$UCSXDIR
 10
1.0
 20
0.0
 30
0.0
  9
$UCSYDIR
 10
0.0
 20
1.0
 30
0.0
  9
$UCSORTHOREF
  2

  9
$UCSORTHOVIEW
 70
     0
  9
$UCSORGTOP
 10
0.0
 20
0.0
 30
0.0
  9
$UCSORGBOTTOM
 10
0.0
 20
0.0
 30
0.0
  9
$UCSORGLEFT
 10
0.0
 20
0.0
 30
0.0
  9
$UCSORGRIGHT
 10
0.0
 20
0.0
 30
0.0
  9
$UCSORGFRONT
 10
0.0
 20
0.0
 30
0.0
  9
$UCSORGBACK
 10
0.0
 20
0.0
 30
0.0
  9
$PUCSBASE
  2

  9
$PUCSNAME
  2

  9
$PUCSORG
 10
0.0
 20
0.0
 30
0.0
  9
$PUCSXDIR
 10
1.0
 20
0.0
 30
0.0
  9
$PUCSYDIR
 10
0.0
 20
1.0
 30
0.0
  9
$PUCSORTHOREF
  2

  9
$PUCSORTHOVIEW
 70
     0
  9
$PUCSORGTOP
 10
0.0
 20
0.0
 30
0.0
  9
$PUCSORGBOTTOM
 10
0.0
 20
0.0
 30
0.0
  9
$PUCSORGLEFT
 10
0.0
 20
0.0
 30
0.0
  9
$PUCSORGRIGHT
 10
0.0
 20
0.0
 30
0.0
  9
$PUCSORGFRONT
 10
0.0
 20
0.0
 30
0.0
  9
$PUCSORGBACK
 10
0.0
 20
0.0
 30
0.0
  9
$USERI1
 70
     0
  9
$USERI2
 70
     0
  9
$USERI3
 70
     0
  9
$USERI4
 70
     0
  9
$USERI5
 70
     0
  9
$USERR1
 40
0.0
  9
$USERR2
 40
0.0
  9
$USERR3
 40
0.0
  9
$USERR4
 40
0.0
  9
$USERR5
 40
0.0
  9
$WORLDVIEW
 70
     1
  9
$SHADEDGE
 70
     3
  9
$SHADEDIF
 70
    70
  9
$TILEMODE
 70
     1
  9
$MAXACTVP
 70
    48
  9
$PINSBASE
 10
0.0
 20
0.0
 30
0.0
  9
$PLIMCHECK
 70
     0
  9
$PEXTMIN
 10
1.000000000000000E+20
 20
1.000000000000000E+20
 30
1.000000000000000E+20
  9
$PEXTMAX
 10
-1.000000000000000E+20
 20
-1.000000000000000E+20
 30
-1.000000000000000E+20
  9
$PLIMMIN
 10
0.0
 20
0.0
  9
$PLIMMAX
 10
420.0
 20
297.0
  9
$UNITMODE
 70
     0
  9
$VISRETAIN
 70
     1
  9
$PLINEGEN
 70
     0
  9
$PSLTSCALE
 70
     1
  9
$TREEDEPTH
 70
  3020
  9
$CMLSTYLE
  2
STANDARD
  9
$CMLJUST
 70
     0
  9
$CMLSCALE
 40
20.0
  9
$PROXYGRAPHICS
 70
     1
  9
$MEASUREMENT
 70
     1
  9
$CELWEIGHT
370
    -1
  9
$ENDCAPS
280
     0
  9
$JOINSTYLE
280
     0
  9
$LWDISPLAY
290
     0
  9
$INSUNITS
 70
     0
  9
$HYPERLINKBASE
  1

  9
$STYLESHEET
  1
AutoCad LT 98.ctb
  9
$XEDIT
290
     1
  9
$CEPSNTYPE
380
     0
  9
$PSTYLEMODE
290
     1
  9
$FINGERPRINTGUID
  2
{198733EF-A367-46B8-AA72-7FAF096D82E0}
  9
$VERSIONGUID
  2
{00EC5861-5B21-4E2A-86DD-2830532DEA47}
  9
$EXTNAMES
290
     1
  9
$PSVPSCALE
 40
0.0
  9
$OLESTARTUP
290
     0
  9
$SORTENTS
280
    96
  9
$INDEXCTL
280
     0
  9
$HIDETEXT
280
     0
  9
$XCLIPFRAME
290
     0
  9
$HALOGAP
280
     0
  9
$OBSCOLOR
 70
   257
  9
$OBSLTYPE
280
     0
  9
$INTERSECTIONDISPLAY
280
     0
  9
$INTERSECTIONCOLOR
 70
   257
  9
$DIMASSOC
280
     1
  9
$PROJECTNAME
  1

  0
ENDSEC
  0
SECTION
  2
CLASSES
  0
CLASS
  1
HATCH
  2
AcDbHatch
  3
ObjectDBX Classes
 90
        0
 91
       24
280
     0
281
     1
  0
CLASS
  1
LWPOLYLINE
  2
AcDbPolyline
  3
ObjectDBX Classes
 90
        0
 91
        1
280
     0
281
     1
  0
CLASS
  1
IMAGEDEF
  2
AcDbRasterImageDef
  3
ISM
 90
        0
 91
        1
280
     0
281
     0
  0
CLASS
  1
DICTIONARYVAR
  2
AcDbDictionaryVar
  3
ObjectDBX Classes
 90
        0
 91
        2
280
     0
281
     0
  0
CLASS
  1
ACDBDICTIONARYWDFLT
  2
AcDbDictionaryWithDefault
  3
ObjectDBX Classes
 90
        0
 91
        1
280
     0
281
     0
  0
CLASS
  1
TABLESTYLE
  2
AcDbTableStyle
  3
ObjectDBX Classes
 90
     2047
 91
        1
280
     0
281
     0
  0
ENDSEC
  0
SECTION
  2
TABLES
  0
TABLE
  2
VPORT
  5
8
330
0
100
AcDbSymbolTable
 70
     2
  0
VPORT
  5
2590
330
8
100
AcDbSymbolTableRecord
100
AcDbViewportTableRecord
  2
*Active
 70
     0
 10
0.0
 20
0.0
 11
1.0
 21
1.0
 12
364.1844000811973
 22
269.3465568320321
 13
0.0
 23
0.0
 14
10.0
 24
10.0
 15
10.0
 25
10.0
 16
0.0
 26
0.0
 36
1.0
 17
0.0
 27
0.0
 37
0.0
 40
196.9270892890375
 41
1.530456852791878
 42
50.0
 43
0.0
 44
0.0
 50
0.0
 51
0.0
 71
     0
 72
   100
 73
     1
 74
     1
 75
     0
 76
     0
 77
     0
 78
     0
281
     0
 65
     1
110
0.0
120
0.0
130
0.0
111
1.0
121
0.0
131
0.0
112
0.0
122
1.0
132
0.0
 79
     0
146
0.0
  0
ENDTAB
  0
TABLE
  2
LTYPE
  5
5
330
0
100
AcDbSymbolTable
 70
     3
  0
LTYPE
  5
12
330
5
100
AcDbSymbolTableRecord
100
AcDbLinetypeTableRecord
  2
BYBLOCK
 70
     0
  3

 72
    65
 73
     0
 40
0.0
  0
LTYPE
  5
13
330
5
100
AcDbSymbolTableRecord
100
AcDbLinetypeTableRecord
  2
BYLAYER
 70
     0
  3

 72
    65
 73
     0
 40
0.0
  0
LTYPE
  5
14
330
5
100
AcDbSymbolTableRecord
100
AcDbLinetypeTableRecord
  2
CONTINUOUS
 70
     0
  3
Solid line
 72
    65
 73
     0
 40
0.0
  0
LTYPE
  5
22
330
5
100
AcDbSymbolTableRecord
100
AcDbLinetypeTableRecord
  2
CENTER2
 70
     0
  3
Center (.5x) ___ _ ___ _ ___ _ ___ _ ___ _ ___
 72
    65
 73
     4
 40
28.575
 49
19.05
 74
     0
 49
-3.174999999999999
 74
     0
 49
3.174999999999999
 74
     0
 49
-3.174999999999999
 74
     0
  0
LTYPE
  5
23
330
5
100
AcDbSymbolTableRecord
100
AcDbLinetypeTableRecord
  2
HIDDEN2
 70
     0
  3
Hidden (.5x) _ _ _ _ _ _ _ _ _ _ _ _ _ _ _ _ _
 72
    65
 73
     2
 40
4.762499999999999
 49
3.174999999999999
 74
     0
 49
-1.587499999999999
 74
     0
  0
ENDTAB
  0
TABLE
  2
LAYER
  5
2
102
{ACAD_XDICTIONARY
360
2509
102
}
330
0
100
AcDbSymbolTable
 70
    14
  0
LAYER
  5
E
330
2
100
AcDbSymbolTableRecord
100
AcDbLayerTableRecord
  2
0
 70
     0
 62
     7
  6
CONTINUOUS
370
    -3
390
2255
  0
LAYER
  5
25
330
2
100
AcDbSymbolTableRecord
100
AcDbLayerTableRecord
  2
外形線
 70
     0
 62
     7
  6
CONTINUOUS
370
    -3
390
2255
  0
LAYER
  5
26
330
2
100
AcDbSymbolTableRecord
100
AcDbLayerTableRecord
  2
寸法線
 70
     0
 62
     2
  6
CONTINUOUS
370
    -3
390
2255
  0
LAYER
  5
27
330
2
100
AcDbSymbolTableRecord
100
AcDbLayerTableRecord
  2
中心線
 70
     0
 62
     4
  6
CENTER2
370
    -3
390
2255
  0
LAYER
  5
28
330
2
100
AcDbSymbolTableRecord
100
AcDbLayerTableRecord
  2
隠れ線
 70
     0
 62
     6
  6
HIDDEN2
370
    -3
390
2255
  0
LAYER
  5
2B
330
2
100
AcDbSymbolTableRecord
100
AcDbLayerTableRecord
  2
文字
 70
     0
 62
     6
  6
CONTINUOUS
370
    -3
390
2255
  0
LAYER
  5
2C
330
2
100
AcDbSymbolTableRecord
100
AcDbLayerTableRecord
  2
目盛
 70
     0
 62
    70
  6
CONTINUOUS
370
    -3
390
2255
  0
LAYER
  5
2D
330
2
100
AcDbSymbolTableRecord
100
AcDbLayerTableRecord
  2
針
 70
     0
 62
     5
  6
CONTINUOUS
370
    -3
390
2255
  0
LAYER
  5
53
330
2
100
AcDbSymbolTableRecord
100
AcDbLayerTableRecord
  2
DEFPOINTS
 70
     0
 62
     7
  6
CONTINUOUS
290
     0
370
    -3
390
2255
  0
LAYER
  5
A5
330
2
100
AcDbSymbolTableRecord
100
AcDbLayerTableRecord
  2
C
 70
     0
 62
     7
  6
CONTINUOUS
370
    -3
390
2255
  0
LAYER
  5
AD4
330
2
100
AcDbSymbolTableRecord
100
AcDbLayerTableRecord
  2
ROGO
 70
     0
 62
     6
  6
CONTINUOUS
370
    -3
390
2255
  0
LAYER
  5
1822
330
2
100
AcDbSymbolTableRecord
100
AcDbLayerTableRecord
  2
ASHADE
 70
     0
 62
     7
  6
CONTINUOUS
370
    -3
390
2255
  0
ENDTAB
  0
TABLE
  2
STYLE
  5
3
330
0
100
AcDbSymbolTable
 70
     4
  0
STYLE
  5
F
330
3
100
AcDbSymbolTableRecord
100
AcDbTextStyleTableRecord
  2
STANDARD
 70
     0
 40
0.0
 41
1.0
 50
0.0
 71
     0
 42
2.5
  3
txt
  4

  0
STYLE
  5
3F
330
3
100
AcDbSymbolTableRecord
100
AcDbTextStyleTableRecord
  2
STYLE3
 70
     0
 40
0.0
 41
1.0
 50
0.0
 71
     0
 42
1.5
  3
romans.shx
  4
bigfont.shx
  0
ENDTAB
  0
TABLE
  2
VIEW
  5
6
330
0
100
AcDbSymbolTable
 70
     0
  0
ENDTAB
  0
TABLE
  2
UCS
  5
7
330
0
100
AcDbSymbolTable
 70
     0
  0
ENDTAB
  0
TABLE
  2
APPID
  5
9
330
0
100
AcDbSymbolTable
 70
     7
  0
APPID
  5
10
330
9
100
AcDbSymbolTableRecord
100
AcDbRegAppTableRecord
  2
ACAD
 70
     0
  0
APPID
  5
1820
330
9
100
AcDbSymbolTableRecord
100
AcDbRegAppTableRecord
  2
AVE_RENDER
 70
     0
  0
APPID
  5
1821
330
9
100
AcDbSymbolTableRecord
100
AcDbRegAppTableRecord
  2
AVE_ENTITY_MATERIAL
 70
     0
  0
APPID
  5
182E
330
9
100
AcDbSymbolTableRecord
100
AcDbRegAppTableRecord
  2
AVE_FINISH
 70
     0
  0
APPID
  5
182F
330
9
100
AcDbSymbolTableRecord
100
AcDbRegAppTableRecord
  2
AVE_MATERIAL
 70
     0
  0
APPID
  5
1830
330
9
100
AcDbSymbolTableRecord
100
AcDbRegAppTableRecord
  2
AVE_GLOBAL
 70
     0
  0
APPID
  5
2262
330
9
100
AcDbSymbolTableRecord
100
AcDbRegAppTableRecord
  2
ACAD_PSEXT
 70
     0
  0
ENDTAB
  0
TABLE
  2
DIMSTYLE
  5
A
330
0
100
AcDbSymbolTable
 70
     6
100
AcDbDimStyleTable
 71
     1
340
8F
  0
DIMSTYLE
105
1D
330
A
100
AcDbSymbolTableRecord
100
AcDbDimStyleTableRecord
  2
STANDARD
 70
     0
 41
2.5
 42
0.625
 43
3.75
 44
1.25
 73
     0
 74
     0
 77
     1
 78
     8
140
2.5
141
2.5
143
0.0394
147
0.625
171
     4
172
     1
273
     8
274
     4
277
     6
340
F
  0
DIMSTYLE
105
8F
330
A
100
AcDbSymbolTableRecord
100
AcDbDimStyleTableRecord
  2
STYLE3
 70
     0
 41
2.5
 42
0.0
 43
3.75
 44
1.25
 73
     0
 74
     0
 77
     1
 78
     8
140
2.5
141
2.5
143
0.0394
147
0.625
171
     4
172
     1
173
     1
176
     2
177
     2
178
     6
271
     1
273
     8
274
     4
340
3F
341
45
343
45
344
45
  0
ENDTAB
  0
TABLE
  2
BLOCK_RECORD
  5
1
330
0
100
AcDbSymbolTable
 70
    16
  0
BLOCK_RECORD
  5
18
330
1
100
AcDbSymbolTableRecord
100
AcDbBlockTableRecord
  2
*MODEL_SPACE
340
225C
  0
BLOCK_RECORD
  5
15
330
1
100
AcDbSymbolTableRecord
100
AcDbBlockTableRecord
  2
*PAPER_SPACE
340
225D
  0
BLOCK_RECORD
  5
45
330
1
100
AcDbSymbolTableRecord
100
AcDbBlockTableRecord
  2
_OPEN
340
0
102
{BLKREFS
331
1637
331
1638
331
1654
331
1669
331
166A
331
168B
331
168C
331
198B
331
198C
331
1B41
331
1B42
331
1B4A
331
1B4B
331
1B55
331
1B56
331
1B5E
331
1B5F
331
1B67
331
1B68
331
1B71
331
1B72
331
1B7A
331
1B7B
331
1B83
331
1B84
331
1B8C
331
1B8D
331
1B96
331
1B97
331
1C43
331
1C44
331
1C4F
331
1C50
331
1C58
331
1C59
102
}
  0
BLOCK_RECORD
  5
ADD
330
1
100
AcDbSymbolTableRecord
100
AcDbBlockTableRecord
  2
ROGO1
340
0
102
{BLKREFS
331
B43
331
B44
331
FCB
331
FCC
331
1FDE
102
}
  0
BLOCK_RECORD
  5
1823
330
1
100
AcDbSymbolTableRecord
100
AcDbBlockTableRecord
  2
AVE_RENDER
340
0
102
{BLKREFS
331
1826
331
1827
331
1828
331
1829
331
182A
331
182B
331
182C
331
182D
331
1C6C
102
}
  0
BLOCK_RECORD
  5
1831
330
1
100
AcDbSymbolTableRecord
100
AcDbBlockTableRecord
  2
AVE_GLOBAL
340
0
102
{BLKREFS
331
1834
102
}
  0
BLOCK_RECORD
  5
2232
330
1
100
AcDbSymbolTableRecord
100
AcDbBlockTableRecord
  2
A$C4BFB2CFF
340
0
102
{BLKREFS
331
223F
102
}
  0
BLOCK_RECORD
  5
2247
330
1
100
AcDbSymbolTableRecord
100
AcDbBlockTableRecord
  2
A$C63053C59
340
0
102
{BLKREFS
331
2250
102
}
  0
ENDTAB
  0
ENDSEC
  0
SECTION
  2
BLOCKS
  0
BLOCK
  5
19
330
18
100
AcDbEntity
  8
0
100
AcDbBlockBegin
  2
*MODEL_SPACE
 70
     0
 10
0.0
 20
0.0
 30
0.0
  3
*MODEL_SPACE
  1

  0
ENDBLK
  5
1A
330
18
100
AcDbEntity
  8
0
100
AcDbBlockEnd
  0
BLOCK
  5
16
330
15
100
AcDbEntity
 67
     1
  8
0
100
AcDbBlockBegin
  2
*PAPER_SPACE
 70
     0
 10
0.0
 20
0.0
 30
0.0
  3
*PAPER_SPACE
  1

  0
ENDBLK
  5
17
330
15
100
AcDbEntity
 67
     1
  8
0
100
AcDbBlockEnd
  0
BLOCK
  5
46
330
45
100
AcDbEntity
  8
0
100
AcDbBlockBegin
  2
_OPEN
 70
     0
 10
0.0
 20
0.0
 30
0.0
  3
_OPEN
  1

  0
LINE
  5
47
330
45
100
AcDbEntity
  8
0
  6
ByBlock
 62
     0
100
AcDbLine
 10
-1.0
 20
0.1666666666666666
 30
0.0
 11
0.0
 21
0.0
 31
0.0
  0
LINE
  5
48
330
45
100
AcDbEntity
  8
0
  6
ByBlock
 62
     0
100
AcDbLine
 10
0.0
 20
0.0
 30
0.0
 11
-1.0
 21
-0.1666666666666666
 31
0.0
  0
LINE
  5
49
330
45
100
AcDbEntity
  8
0
  6
ByBlock
 62
     0
100
AcDbLine
 10
0.0
 20
0.0
 30
0.0
 11
-1.0
 21
0.0
 31
0.0
  0
ENDBLK
  5
4A
330
45
100
AcDbEntity
  8
0
100
AcDbBlockEnd
  0
BLOCK
  5
B2A
330
ADD
100
AcDbEntity
  8
0
100
AcDbBlockBegin
  2
ROGO1
 70
     0
 10
0.0
 20
0.0
 30
0.0
  3
ROGO1
  1

  0
MTEXT
  5
B42
330
ADD
100
AcDbEntity
  8
DEFPOINTS
  6
Continuous
100
AcDbMText
 10
1039.786461861274
 20
160.9640365185991
 30
0.0
 40
1.0
 41
0.0
 71
     4
 72
     1
  1
\A1;
 73
     1
 44
1.0
  0
ENDBLK
  5
B2B
330
ADD
100
AcDbEntity
  8
0
100
AcDbBlockEnd
  0
BLOCK
  5
1824
330
1823
100
AcDbEntity
  8
ASHADE
100
AcDbBlockBegin
  2
AVE_RENDER
 70
     0
 10
0.0
 20
0.0
 30
0.0
  3
AVE_RENDER
  1
AVE_RENDER
  0
ENDBLK
  5
1825
330
1823
100
AcDbEntity
  8
0
100
AcDbBlockEnd
  0
BLOCK
  5
1832
330
1831
100
AcDbEntity
  8
ASHADE
100
AcDbBlockBegin
  2
AVE_GLOBAL
 70
     0
 10
0.0
 20
0.0
 30
0.0
  3
AVE_GLOBAL
  1
AVE_GLOBAL
  0
ENDBLK
  5
1833
330
1831
100
AcDbEntity
  8
0
100
AcDbBlockEnd
  0
BLOCK
  5
223D
330
2232
100
AcDbEntity
  8
0
100
AcDbBlockBegin
  2
A$C4BFB2CFF
 70
     0
 10
0.0
 20
0.0
 30
0.0
  3
A$C4BFB2CFF
  1

  0
CIRCLE
  5
2233
330
2232
100
AcDbEntity
  8
針
100
AcDbCircle
 10
0.6999999832366939
 20
0.6999999305095344
 30
0.0
 40
0.4
  0
CIRCLE
  5
2234
330
2232
100
AcDbEntity
  8
針
100
AcDbCircle
 10
0.6999999832366939
 20
0.6999999305095344
 30
0.0
 40
0.275
  0
CIRCLE
  5
2235
102
{ACAD_REACTORS
330
2238
102
}
330
2232
100
AcDbEntity
  8
針
100
AcDbCircle
 10
0.6999999832366939
 20
0.6999999305095344
 30
0.0
 40
0.7
  0
ARC
  5
2236
102
{ACAD_REACTORS
330
2238
102
}
330
2232
100
AcDbEntity
  8
針
100
AcDbCircle
 10
1.285940300081449
 20
1.747221943782591
 30
0.0
 40
0.5
100
AcDbArc
 50
240.7721702881896
 51
297.9757798350735
  0
ARC
  5
2237
102
{ACAD_REACTORS
330
2238
102
}
330
2232
100
AcDbEntity
  8
針
100
AcDbCircle
 10
1.89804357385347
 20
0.6315050039094956
 30
0.0
 40
0.5
100
AcDbArc
 50
119.5242201649264
 51
176.7278297118104
  0
HATCH
  5
2238
330
2232
100
AcDbEntity
  8
針
100
AcDbHatch
 10
0.0
 20
0.0
 30
0.0
210
0.0
220
0.0
230
1.0
  2
SOLID
 70
     1
 71
     1
 91
        1
 92
        7
 72
     1
 73
     1
 93
        8
 10
3.991987856246367
 20
2.391985699940462
 42
0.0
 10
3.943888979354454
 20
2.479658375511206
 42
0.0
 10
3.895790102462513
 20
2.56733105108195
 42
0.0
 10
1.520489439987159
 20
1.30564895890977
 42
-0.2549126604385726
 10
1.041800003084745
 20
1.310878598030242
 42
-0.2715629374459081
 10
1.399999983236682
 20
0.6999999305095344
 42
-0.0142778933762944
 10
1.398858842406156
 20
0.6600462703473085
 42
-0.2549126627183762
 10
1.651647856719108
 20
1.066578733957399
 42
0.0
 97
        7
330
223C
330
223B
330
2239
330
2236
330
2235
330
2237
330
223A
 75
     0
 76
     1
 47
0.0080572292577995
 98
        1
 10
2.314954628194783
 20
1.560926759672554
450
        0
451
        0
460
0.0
461
0.0
452
        0
462
0.0
453
        0
470

  0
LINE
  5
2239
102
{ACAD_REACTORS
330
2238
102
}
330
2232
100
AcDbEntity
  8
針
100
AcDbLine
 10
1.52048943998713
 20
1.305648958909756
 30
0.0
 11
3.895790102462541
 21
2.567331051081964
 31
0.0
  0
LINE
  5
223A
102
{ACAD_REACTORS
330
2238
102
}
330
2232
100
AcDbEntity
  8
針
100
AcDbLine
 10
1.65164785671908
 20
1.066578733957385
 30
0.0
 11
3.991987856246396
 21
2.391985699940477
 31
0.0
  0
LINE
  5
223B
102
{ACAD_REACTORS
330
2238
102
}
330
2232
100
AcDbEntity
  8
針
100
AcDbLine
 10
3.943888979354454
 20
2.479658375511206
 30
0.0
 11
3.895790102462541
 21
2.567331051081936
 31
0.0
  0
LINE
  5
223C
102
{ACAD_REACTORS
330
2238
102
}
330
2232
100
AcDbEntity
  8
針
100
AcDbLine
 10
3.943888979354454
 20
2.479658375511206
 30
0.0
 11
3.991987856246367
 21
2.391985699940505
 31
0.0
  0
ENDBLK
  5
223E
330
2232
100
AcDbEntity
  8
0
100
AcDbBlockEnd
  0
BLOCK
  5
224E
330
2247
100
AcDbEntity
  8
0
100
AcDbBlockBegin
  2
A$C63053C59
 70
     0
 10
0.0
 20
0.0
 30
0.0
  3
A$C63053C59
  1

  0
LINE
  5
2248
330
2247
100
AcDbEntity
  8
外形線
100
AcDbLine
 10
1.024264405126302
 20
2.037706448707638
 30
0.0
 11
0.1757362677024616
 21
1.189178311283683
 31
0.0
  0
LINE
  5
2249
330
2247
100
AcDbEntity
  8
中心線
 48
0.1
100
AcDbLine
 10
0.6000003364143823
 20
3.150290943578113
 30
0.0
 11
0.6000003364144391
 21
-0.0000002081196158
 31
0.0
  0
CIRCLE
  5
224A
330
2247
100
AcDbEntity
  8
外形線
100
AcDbCircle
 10
0.6000003364144391
 20
1.61344237999566
 30
0.0
 40
0.6
  0
CIRCLE
  5
224B
330
2247
100
AcDbEntity
  8
外形線
100
AcDbCircle
 10
16.60000033641421
 20
1.61344237999566
 30
0.0
 40
0.6
  0
LINE
  5
224C
330
2247
100
AcDbEntity
  8
中心線
 48
0.1
100
AcDbLine
 10
16.60000033641427
 20
3.150290943578113
 30
0.0
 11
16.60000033641421
 21
-0.0000002081196158
 31
0.0
  0
LINE
  5
224D
330
2247
100
AcDbEntity
  8
外形線
100
AcDbLine
 10
16.17573626770235
 20
2.037706448707638
 30
0.0
 11
17.02426440512619
 21
1.189178311283683
 31
0.0
  0
ENDBLK
  5
224F
330
2247
100
AcDbEntity
  8
0
100
AcDbBlockEnd
  0
ENDSEC
  0
SECTION
  2
ENTITIES
  0
LWPOLYLINE
  5
10B
330
18
100
AcDbEntity
  8
C
100
AcDbPolyline
 90
        5
 70
     0
 43
0.4
 10
236.6915604445414
 20
366.8501752555372
 10
491.6915604445414
 20
366.8501752555372
 10
491.6915604445414
 20
171.8501752555372
 10
236.6915604445414
 20
171.8501752555372
 10
236.6915604445414
 20
366.8501752555372
  0
LINE
  5
16C
330
18
100
AcDbEntity
  8
外形線
100
AcDbLine
 10
305.3239144264294
 20
317.2347710092406
 30
0.0
 11
311.3239144264294
 21
317.2347710092406
 31
0.0
  0
LINE
  5
16E
330
18
100
AcDbEntity
  8
外形線
100
AcDbLine
 10
311.3239144264294
 20
317.2347710092406
 30
0.0
 11
311.3239144264294
 21
302.2795582361006
 31
0.0
  0
LINE
  5
16F
330
18
100
AcDbEntity
  8
外形線
100
AcDbLine
 10
305.3239144264294
 20
317.2347710092406
 30
0.0
 11
305.3239144264294
 21
302.2795582361006
 31
0.0
  0
ARC
  5
170
330
18
100
AcDbEntity
  8
外形線
100
AcDbCircle
 10
308.3239144264295
 20
312.0386185865339
 30
0.0
 40
6.0
100
AcDbArc
 50
60.0
 51
120.0
  0
CIRCLE
  5
172
330
18
100
AcDbEntity
  8
外形線
100
AcDbCircle
 10
308.3239144264295
 20
285.0386185865339
 30
0.0
 40
17.5
  0
CIRCLE
  5
307
330
18
100
AcDbEntity
  8
外形線
100
AcDbCircle
 10
308.3239144264295
 20
285.0386185865339
 30
0.0
 40
15.0
  0
LINE
  5
30A
330
18
100
AcDbEntity
  8
目盛
100
AcDbLine
 10
308.3239144264295
 20
300.0386185865339
 30
0.0
 11
308.3239144264295
 21
297.5386185865339
 31
0.0
  0
LINE
  5
30B
330
18
100
AcDbEntity
  8
目盛
100
AcDbLine
 10
310.203912929894
 20
299.9203391062511
 30
0.0
 11
310.0159130795476
 21
298.4321670542794
 31
0.0
  0
LINE
  5
30C
330
18
100
AcDbEntity
  8
目盛
100
AcDbLine
 10
312.0542627339022
 20
299.5673660034634
 30
0.0
 11
311.681227903155
 21
298.1144912617704
 31
0.0
  0
LINE
  5
30D
330
18
100
AcDbEntity
  8
目盛
100
AcDbLine
 10
313.8457827166996
 20
298.9852658748577
 30
0.0
 11
313.2935958876726
 21
297.5906011460253
 31
0.0
  0
LINE
  5
30E
330
18
100
AcDbEntity
  8
目盛
100
AcDbLine
 10
315.5502195379552
 20
298.1832187871919
 30
0.0
 11
314.8275890268026
 21
296.8687587671261
 31
0.0
  0
LINE
  5
322
330
18
100
AcDbEntity
  8
目盛
100
AcDbLine
 10
301.0976093149037
 20
298.1832187871918
 30
0.0
 11
301.8202398260564
 21
296.8687587671261
 31
0.0
  0
LINE
  5
323
330
18
100
AcDbEntity
  8
目盛
100
AcDbLine
 10
302.8020461361593
 20
298.9852658748576
 30
0.0
 11
303.3542329651863
 21
297.5906011460253
 31
0.0
  0
LINE
  5
324
330
18
100
AcDbEntity
  8
目盛
100
AcDbLine
 10
304.5935661189566
 20
299.5673660034634
 30
0.0
 11
304.9666009497039
 21
298.1144912617704
 31
0.0
  0
LINE
  5
325
330
18
100
AcDbEntity
  8
目盛
100
AcDbLine
 10
299.5071356420423
 20
297.1738735021581
 30
0.0
 11
300.9765987727736
 21
295.1513310162207
 31
0.0
  0
LINE
  5
326
330
18
100
AcDbEntity
  8
目盛
100
AcDbLine
 10
306.4439159229649
 20
299.920339106251
 30
0.0
 11
306.6319157733113
 21
298.4321670542793
 31
0.0
  0
LINE
  5
327
330
18
100
AcDbEntity
  8
目盛
100
AcDbLine
 10
294.7515086394391
 20
291.42530796001
 30
0.0
 11
296.1087492181382
 21
290.7866390226624
 31
0.0
  0
LINE
  5
328
330
18
100
AcDbEntity
  8
目盛
100
AcDbLine
 10
295.6589955438992
 20
293.0760205112189
 30
0.0
 11
296.9254874321523
 21
292.2722803187503
 31
0.0
  0
LINE
  5
329
330
18
100
AcDbEntity
  8
目盛
100
AcDbLine
 10
296.7662157847925
 20
294.5999784327643
 30
0.0
 11
297.9219856489563
 21
293.6438424481412
 31
0.0
  0
LINE
  5
32A
330
18
100
AcDbEntity
  8
目盛
100
AcDbLine
 10
294.0580666820022
 20
289.6738735021581
 30
0.0
 11
296.43570797274
 21
288.9013310162208
 31
0.0
  0
LINE
  5
32B
330
18
100
AcDbEntity
  8
目盛
100
AcDbLine
 10
298.0557078374991
 20
295.9731479978551
 30
0.0
 11
299.0825284963922
 21
294.879695056723
 31
0.0
  0
LINE
  5
32C
330
18
100
AcDbEntity
  8
目盛
100
AcDbLine
 10
293.5896056654991
 20
282.227898867748
 30
0.0
 11
295.0630365415921
 21
282.5089708396267
 31
0.0
  0
LINE
  5
32D
330
18
100
AcDbEntity
  8
目盛
100
AcDbLine
 10
293.3535135000054
 20
284.0967607935942
 30
0.0
 11
294.8505535926478
 21
284.1909465728882
 31
0.0
  0
LINE
  5
32E
330
18
100
AcDbEntity
  8
目盛
100
AcDbLine
 10
293.3535135000054
 20
285.9804763794736
 30
0.0
 11
294.8505535926478
 21
285.8862906001797
 31
0.0
  0
LINE
  5
32F
330
18
100
AcDbEntity
  8
目盛
100
AcDbLine
 10
294.0580666820021
 20
280.4033636709097
 30
0.0
 11
296.43570797274
 21
281.1759061568471
 31
0.0
  0
LINE
  5
330
330
18
100
AcDbEntity
  8
目盛
100
AcDbLine
 10
293.5896056654991
 20
287.8493383053198
 30
0.0
 11
295.0630365415921
 21
287.5682663334412
 31
0.0
  0
LINE
  5
331
330
18
100
AcDbEntity
  8
目盛
100
AcDbLine
 10
298.0557078374991
 20
274.1040891752128
 30
0.0
 11
299.082528496392
 21
275.1975421163449
 31
0.0
  0
LINE
  5
332
330
18
100
AcDbEntity
  8
目盛
100
AcDbLine
 10
296.7662157847925
 20
275.4772587403035
 30
0.0
 11
297.9219856489563
 21
276.4333947249267
 31
0.0
  0
LINE
  5
333
330
18
100
AcDbEntity
  8
目盛
100
AcDbLine
 10
295.6589955438992
 20
277.001216661849
 30
0.0
 11
296.9254874321523
 21
277.8049568543175
 31
0.0
  0
LINE
  5
334
330
18
100
AcDbEntity
  8
目盛
100
AcDbLine
 10
299.5071356420423
 20
272.9033636709098
 30
0.0
 11
300.9765987727735
 21
274.9259061568471
 31
0.0
  0
LINE
  5
335
330
18
100
AcDbEntity
  8
目盛
100
AcDbLine
 10
294.7515086394391
 20
278.6519292130578
 30
0.0
 11
296.1087492181381
 21
279.2905981504055
 31
0.0
  0
LINE
  5
336
330
18
100
AcDbEntity
  8
目盛
100
AcDbLine
 10
306.4439159229648
 20
270.1568980668168
 30
0.0
 11
306.6319157733112
 21
271.6450701187885
 31
0.0
  0
LINE
  5
337
330
18
100
AcDbEntity
  8
目盛
100
AcDbLine
 10
304.5935661189566
 20
270.5098711696045
 30
0.0
 11
304.9666009497038
 21
271.9627459112975
 31
0.0
  0
LINE
  5
338
330
18
100
AcDbEntity
  8
目盛
100
AcDbLine
 10
302.8020461361592
 20
271.0919712982102
 30
0.0
 11
303.3542329651862
 21
272.4866360270426
 31
0.0
  0
LINE
  5
339
330
18
100
AcDbEntity
  8
目盛
100
AcDbLine
 10
308.3239144264294
 20
270.038618586534
 30
0.0
 11
308.3239144264294
 21
272.538618586534
 31
0.0
  0
LINE
  5
33A
330
18
100
AcDbEntity
  8
目盛
100
AcDbLine
 10
301.0976093149036
 20
271.894018385876
 30
0.0
 11
301.8202398260563
 21
273.2084784059418
 31
0.0
  0
LINE
  5
33B
330
18
100
AcDbEntity
  8
目盛
100
AcDbLine
 10
315.5502195379552
 20
271.894018385876
 30
0.0
 11
314.8275890268026
 21
273.2084784059418
 31
0.0
  0
LINE
  5
33C
330
18
100
AcDbEntity
  8
目盛
100
AcDbLine
 10
313.8457827166996
 20
271.0919712982102
 30
0.0
 11
313.2935958876725
 21
272.4866360270425
 31
0.0
  0
LINE
  5
33D
330
18
100
AcDbEntity
  8
目盛
100
AcDbLine
 10
312.0542627339022
 20
270.5098711696045
 30
0.0
 11
311.6812279031549
 21
271.9627459112974
 31
0.0
  0
LINE
  5
33E
330
18
100
AcDbEntity
  8
目盛
100
AcDbLine
 10
317.1406932108165
 20
272.9033636709098
 30
0.0
 11
315.6712300800853
 21
274.9259061568471
 31
0.0
  0
LINE
  5
33F
330
18
100
AcDbEntity
  8
目盛
100
AcDbLine
 10
310.203912929894
 20
270.1568980668168
 30
0.0
 11
310.0159130795476
 21
271.6450701187885
 31
0.0
  0
LINE
  5
340
330
18
100
AcDbEntity
  8
目盛
100
AcDbLine
 10
321.8963202134197
 20
278.6519292130578
 30
0.0
 11
320.5390796347206
 21
279.2905981504054
 31
0.0
  0
LINE
  5
341
330
18
100
AcDbEntity
  8
目盛
100
AcDbLine
 10
320.9888333089597
 20
277.001216661849
 30
0.0
 11
319.7223414207066
 21
277.8049568543175
 31
0.0
  0
LINE
  5
342
330
18
100
AcDbEntity
  8
目盛
100
AcDbLine
 10
319.8816130680663
 20
275.4772587403036
 30
0.0
 11
318.7258432039025
 21
276.4333947249266
 31
0.0
  0
LINE
  5
343
330
18
100
AcDbEntity
  8
目盛
100
AcDbLine
 10
322.5897621708567
 20
280.4033636709097
 30
0.0
 11
320.2121208801188
 21
281.1759061568471
 31
0.0
  0
LINE
  5
344
330
18
100
AcDbEntity
  8
目盛
100
AcDbLine
 10
318.5921210153598
 20
274.1040891752128
 30
0.0
 11
317.5653003564666
 21
275.1975421163449
 31
0.0
  0
LINE
  5
345
330
18
100
AcDbEntity
  8
目盛
100
AcDbLine
 10
323.0582231873598
 20
287.8493383053198
 30
0.0
 11
321.5847923112668
 21
287.5682663334411
 31
0.0
  0
LINE
  5
346
330
18
100
AcDbEntity
  8
目盛
100
AcDbLine
 10
323.2943153528535
 20
285.9804763794736
 30
0.0
 11
321.797275260211
 21
285.8862906001796
 31
0.0
  0
LINE
  5
347
330
18
100
AcDbEntity
  8
目盛
100
AcDbLine
 10
323.2943153528535
 20
284.0967607935942
 30
0.0
 11
321.797275260211
 21
284.1909465728881
 31
0.0
  0
LINE
  5
348
330
18
100
AcDbEntity
  8
目盛
100
AcDbLine
 10
322.5897621708568
 20
289.6738735021581
 30
0.0
 11
320.2121208801189
 21
288.9013310162208
 31
0.0
  0
LINE
  5
349
330
18
100
AcDbEntity
  8
目盛
100
AcDbLine
 10
323.0582231873598
 20
282.227898867748
 30
0.0
 11
321.5847923112667
 21
282.5089708396267
 31
0.0
  0
LINE
  5
34A
330
18
100
AcDbEntity
  8
目盛
100
AcDbLine
 10
318.5921210153598
 20
295.9731479978551
 30
0.0
 11
317.5653003564668
 21
294.879695056723
 31
0.0
  0
LINE
  5
34B
330
18
100
AcDbEntity
  8
目盛
100
AcDbLine
 10
319.8816130680663
 20
294.5999784327643
 30
0.0
 11
318.7258432039026
 21
293.6438424481412
 31
0.0
  0
LINE
  5
34C
330
18
100
AcDbEntity
  8
目盛
100
AcDbLine
 10
320.9888333089597
 20
293.0760205112189
 30
0.0
 11
319.7223414207067
 21
292.2722803187503
 31
0.0
  0
LINE
  5
34D
330
18
100
AcDbEntity
  8
目盛
100
AcDbLine
 10
317.1406932108165
 20
297.1738735021581
 30
0.0
 11
315.6712300800854
 21
295.1513310162208
 31
0.0
  0
LINE
  5
34E
330
18
100
AcDbEntity
  8
目盛
100
AcDbLine
 10
321.8963202134198
 20
291.42530796001
 30
0.0
 11
320.5390796347207
 21
290.7866390226624
 31
0.0
  0
TEXT
  5
351
330
18
100
AcDbEntity
  8
文字
100
AcDbText
 10
307.3978583584826
 20
295.3106898216542
 30
0.0
 40
1.8
  1
0
  7
STYLE3
100
AcDbText
  0
TEXT
  5
352
330
18
100
AcDbEntity
  8
文字
100
AcDbText
 10
314.2728231293701
 20
293.0823106167092
 30
0.0
 40
1.8
  1
5
  7
STYLE3
100
AcDbText
  0
TEXT
  5
353
330
18
100
AcDbEntity
  8
文字
100
AcDbText
 10
316.8207321686616
 20
287.7826504522355
 30
0.0
 40
1.8
  1
10
  7
STYLE3
100
AcDbText
  0
TEXT
  5
354
330
18
100
AcDbEntity
  8
文字
100
AcDbText
 10
316.9386684534817
 20
280.4423745259613
 30
0.0
 40
1.8
  1
15
  7
STYLE3
100
AcDbText
  0
TEXT
  5
355
330
18
100
AcDbEntity
  8
文字
100
AcDbText
 10
313.6585152237582
 20
275.2099768305584
 30
0.0
 40
1.8
  1
20
  7
STYLE3
100
AcDbText
  0
TEXT
  5
356
330
18
100
AcDbEntity
  8
文字
100
AcDbText
 10
306.6253545219391
 20
273.0136926211455
 30
0.0
 40
1.8
  1
25
  7
STYLE3
100
AcDbText
  0
TEXT
  5
357
330
18
100
AcDbEntity
  8
文字
100
AcDbText
 10
300.0482934578309
 20
275.2919650593938
 30
0.0
 40
1.8
  1
20
  7
STYLE3
100
AcDbText
  0
TEXT
  5
358
330
18
100
AcDbEntity
  8
文字
100
AcDbText
 10
295.8900351910623
 20
280.5311222065766
 30
0.0
 40
1.8
  1
15
  7
STYLE3
100
AcDbText
  0
TEXT
  5
359
330
18
100
AcDbEntity
  8
文字
100
AcDbText
 10
295.8688869344001
 20
288.0820163205666
 30
0.0
 40
1.8
  1
10
  7
STYLE3
100
AcDbText
  0
TEXT
  5
35A
330
18
100
AcDbEntity
  8
文字
100
AcDbText
 10
300.9436917485952
 20
293.3729482163331
 30
0.0
 40
1.8
  1
5
  7
STYLE3
100
AcDbText
  0
TEXT
  5
35E
330
18
100
AcDbEntity
  8
文字
100
AcDbText
 10
300.9501664661055
 20
284.6292788019588
 30
0.0
 40
1.0
  1
0.01mm
 41
0.9
  7
STYLE3
100
AcDbText
  0
TEXT
  5
363
330
18
100
AcDbEntity
  8
文字
100
AcDbText
 10
305.012211928265
 20
278.4145253092932
 30
0.0
 40
1.1
  1
PCN-7A
  7
STYLE3
100
AcDbText
  0
TEXT
  5
368
330
18
100
AcDbEntity
  8
文字
100
AcDbText
 10
305.6437919875116
 20
288.3799617007102
 30
0.0
 40
0.5
  1
MADE IN JAPAN
  7
STYLE3
100
AcDbText
  0
INSERT
  5
B43
330
18
100
AcDbEntity
  8
文字
100
AcDbBlockReference
  2
ROGO1
 10
301.1334577592202
 20
275.1168679656769
 30
0.0
  0
INSERT
  5
B44
330
18
100
AcDbEntity
  8
文字
100
AcDbBlockReference
  2
ROGO1
 10
301.1095809474122
 20
275.1436630917189
 30
0.0
  0
LINE
  5
BFE
330
18
100
AcDbEntity
  8
外形線
 62
     4
100
AcDbLine
 10
390.674195825748
 20
241.2786185865339
 30
0.0
 11
389.2134263102891
 21
241.2786185865339
 31
0.0
  0
LINE
  5
BFF
330
18
100
AcDbEntity
  8
外形線
100
AcDbLine
 10
391.1938110680186
 20
240.9786185865339
 30
0.0
 11
388.6938110680185
 21
240.9786185865339
 31
0.0
  0
LINE
  5
C00
330
18
100
AcDbEntity
  8
外形線
100
AcDbLine
 10
391.1938110680186
 20
241.5786185865339
 30
0.0
 11
388.6938110680185
 21
241.5786185865339
 31
0.0
  0
LINE
  5
C06
330
18
100
AcDbEntity
  8
外形線
100
AcDbLine
 10
391.1938110680186
 20
242.9786185865339
 30
0.0
 11
391.1938110680186
 21
241.5786185865338
 31
0.0
  0
LINE
  5
C07
330
18
100
AcDbEntity
  8
外形線
100
AcDbLine
 10
388.6938110680185
 20
242.9786185865339
 30
0.0
 11
388.6938110680185
 21
241.5786185865339
 31
0.0
  0
LINE
  5
C0B
330
18
100
AcDbEntity
  8
外形線
100
AcDbLine
 10
388.6938110680185
 20
240.9786185865339
 30
0.0
 11
388.6938110680185
 21
238.8386185865339
 31
0.0
  0
LINE
  5
C0C
330
18
100
AcDbEntity
  8
外形線
100
AcDbLine
 10
391.1938110680186
 20
240.9786185865339
 30
0.0
 11
391.1938110680186
 21
238.8386185865341
 31
0.0
  0
LINE
  5
C0D
330
18
100
AcDbEntity
  8
外形線
100
AcDbLine
 10
388.6938110680185
 20
241.5786185865339
 30
0.0
 11
389.2134263102893
 21
241.278618586534
 31
0.0
  0
LINE
  5
C0E
330
18
100
AcDbEntity
  8
外形線
100
AcDbLine
 10
388.6938110680185
 20
240.9786185865339
 30
0.0
 11
389.2134263102892
 21
241.278618586534
 31
0.0
  0
LINE
  5
C0F
330
18
100
AcDbEntity
  8
外形線
100
AcDbLine
 10
391.1938110680186
 20
240.9786185865339
 30
0.0
 11
390.6741958257478
 21
241.278618586534
 31
0.0
  0
LINE
  5
C10
330
18
100
AcDbEntity
  8
外形線
100
AcDbLine
 10
391.1938110680186
 20
241.5786185865339
 30
0.0
 11
390.6741958257478
 21
241.278618586534
 31
0.0
  0
LINE
  5
C12
330
18
100
AcDbEntity
  8
外形線
100
AcDbLine
 10
388.6938110680185
 20
238.8386185865339
 30
0.0
 11
389.3438110680185
 21
226.3386185865339
 31
0.0
  0
LINE
  5
C13
330
18
100
AcDbEntity
  8
外形線
100
AcDbLine
 10
391.1938110680186
 20
238.8386185865341
 30
0.0
 11
390.5438110680185
 21
226.3386185865339
 31
0.0
  0
ARC
  5
C14
330
18
100
AcDbEntity
  8
外形線
100
AcDbCircle
 10
389.9438110680185
 20
225.5386185865339
 30
0.0
 40
1.0
100
AcDbArc
 50
126.869897645842
 51
53.13010235415791
  0
LINE
  5
C24
330
18
100
AcDbEntity
  8
隠れ線
 62
     4
 48
0.3
100
AcDbLine
 10
389.9438110680185
 20
226.5382404163117
 30
0.0
 11
390.5438110680185
 21
226.3386185865339
 31
0.0
  0
LINE
  5
C25
330
18
100
AcDbEntity
  8
隠れ線
 62
     4
 48
0.3
100
AcDbLine
 10
389.9438110680185
 20
226.5382404163117
 30
0.0
 11
389.3438110680185
 21
226.3386185865339
 31
0.0
  0
LINE
  5
CBB
330
18
100
AcDbEntity
  8
外形線
100
AcDbLine
 10
303.3239144264294
 20
248.8386185865339
 30
0.0
 11
303.3239144264294
 21
244.8386185865339
 31
0.0
  0
LINE
  5
CBC
330
18
100
AcDbEntity
  8
外形線
100
AcDbLine
 10
303.8239144264294
 20
249.8386185865339
 30
0.0
 11
303.8239144264294
 21
243.8386185865339
 31
0.0
  0
LINE
  5
CBD
330
18
100
AcDbEntity
  8
外形線
100
AcDbLine
 10
303.8239144264294
 20
244.8386185865339
 30
0.0
 11
303.3239144264294
 21
244.8386185865339
 31
0.0
  0
LINE
  5
CBE
330
18
100
AcDbEntity
  8
外形線
100
AcDbLine
 10
304.3239144264294
 20
243.8386185865339
 30
0.0
 11
303.8239144264294
 21
243.8386185865339
 31
0.0
  0
LINE
  5
CBF
330
18
100
AcDbEntity
  8
外形線
100
AcDbLine
 10
303.8239144264294
 20
248.8386185865339
 30
0.0
 11
303.3239144264294
 21
248.8386185865339
 31
0.0
  0
LINE
  5
CC0
330
18
100
AcDbEntity
  8
外形線
100
AcDbLine
 10
304.3239144264294
 20
249.8386185865339
 30
0.0
 11
303.8239144264294
 21
249.8386185865339
 31
0.0
  0
INSERT
  5
FCB
330
18
100
AcDbEntity
  8
文字
100
AcDbBlockReference
  2
ROGO1
 10
579.0605083803766
 20
282.754069537204
 30
0.0
  0
INSERT
  5
FCC
330
18
100
AcDbEntity
  8
文字
100
AcDbBlockReference
  2
ROGO1
 10
579.0366315685687
 20
282.780864663246
 30
0.0
  0
ARC
  5
1204
330
18
100
AcDbEntity
  8
外形線
100
AcDbCircle
 10
389.9438110680185
 20
246.8386185865338
 30
0.0
 40
3.0
100
AcDbArc
 50
54.59406822686052
 51
215.4059317731395
  0
ARC
  5
1205
330
18
100
AcDbEntity
  8
外形線
100
AcDbCircle
 10
389.9438110680185
 20
246.8386185865338
 30
0.0
 40
3.0
100
AcDbArc
 50
234.5940682268605
 51
35.4059317731395
  0
LINE
  5
1206
330
18
100
AcDbEntity
  8
外形線
100
AcDbLine
 10
392.0651314115781
 20
248.2528321489069
 30
0.0
 11
392.389014524947
 21
248.5767152622758
 31
0.0
  0
LINE
  5
1208
330
18
100
AcDbEntity
  8
外形線
100
AcDbLine
 10
388.5295975056454
 20
244.7172982429743
 30
0.0
 11
387.8224907244589
 21
245.4244050241608
 31
0.0
  0
LINE
  5
1209
330
18
100
AcDbEntity
  8
外形線
100
AcDbLine
 10
388.5295975056454
 20
244.7172982429743
 30
0.0
 11
388.2057143922767
 21
244.3934151296054
 31
0.0
  0
LINE
  5
120A
330
18
100
AcDbEntity
  8
外形線
100
AcDbLine
 10
387.8224907244589
 20
245.4244050241608
 30
0.0
 11
387.49860761109
 21
245.1005219107919
 31
0.0
  0
LINE
  5
120B
330
18
100
AcDbEntity
  8
外形線
100
AcDbLine
 10
392.0651314115781
 20
248.2528321489069
 30
0.0
 11
391.3580246303916
 21
248.9599389300935
 31
0.0
  0
LINE
  5
120C
330
18
100
AcDbEntity
  8
外形線
100
AcDbLine
 10
391.3580246303916
 20
248.9599389300935
 30
0.0
 11
391.6819077437604
 21
249.2838220434624
 31
0.0
  0
LINE
  5
120D
330
18
100
AcDbEntity
  8
外形線
100
AcDbLine
 10
388.5295975056454
 20
245.4244050241608
 30
0.0
 11
391.3580246303916
 21
248.252832148907
 31
0.0
  0
CIRCLE
  5
1210
330
18
100
AcDbEntity
  8
外形線
100
AcDbCircle
 10
389.9438110680185
 20
246.8386185865339
 30
0.0
 40
2.0
  0
LINE
  5
121E
330
18
100
AcDbEntity
  8
外形線
100
AcDbLine
 10
384.9340023365679
 20
296.2448437015522
 30
0.0
 11
383.853619799469
 21
297.5323934715159
 31
0.0
  0
LINE
  5
121F
330
18
100
AcDbEntity
  8
外形線
100
AcDbLine
 10
383.7500361830366
 20
296.3484273179846
 30
0.0
 11
385.0375859530003
 21
297.4288098550835
 31
0.0
  0
CIRCLE
  5
1221
330
18
100
AcDbEntity
  8
外形線
100
AcDbCircle
 10
384.3938110680185
 20
296.888618586534
 30
0.0
 40
1.5
  0
LINE
  5
1249
330
18
100
AcDbEntity
  8
外形線
100
AcDbLine
 10
392.9438110680185
 20
317.0347710092406
 30
0.0
 11
392.9438110680185
 21
301.838618586534
 31
0.0
  0
LINE
  5
124A
330
18
100
AcDbEntity
  8
外形線
100
AcDbLine
 10
386.9438110680185
 20
317.0347710092406
 30
0.0
 11
386.9438110680185
 21
301.838618586534
 31
0.0
  0
LINE
  5
1253
330
18
100
AcDbEntity
  8
外形線
100
AcDbLine
 10
386.9438110680185
 20
301.838618586534
 30
0.0
 11
392.9438110680185
 21
301.838618586534
 31
0.0
  0
LINE
  5
1259
330
18
100
AcDbEntity
  8
外形線
100
AcDbLine
 10
386.9438110680185
 20
317.0347710092406
 30
0.0
 11
392.9438110680185
 21
317.0347710092406
 31
0.0
  0
ARC
  5
125A
330
18
100
AcDbEntity
  8
外形線
100
AcDbCircle
 10
389.9438110680185
 20
311.838618586534
 30
0.0
 40
6.0
100
AcDbArc
 50
60.0
 51
120.0
  0
CIRCLE
  5
1284
330
18
100
AcDbEntity
  8
外形線
100
AcDbCircle
 10
308.3239144264295
 20
285.0386185865339
 30
0.0
 40
1.5
  0
POINT
  5
1285
330
18
100
AcDbEntity
  8
DEFPOINTS
  6
ByBlock
 62
     0
100
AcDbPoint
 10
308.3239144264295
 20
285.0386185865339
 30
0.0
  0
POINT
  5
1286
330
18
100
AcDbEntity
  8
DEFPOINTS
  6
ByBlock
 62
     0
100
AcDbPoint
 10
308.3239144264295
 20
285.0386185865339
 30
0.0
  0
POINT
  5
1287
330
18
100
AcDbEntity
  8
DEFPOINTS
  6
ByBlock
 62
     0
100
AcDbPoint
 10
308.3239144264295
 20
285.0386185865339
 30
0.0
  0
POINT
  5
1288
330
18
100
AcDbEntity
  8
DEFPOINTS
  6
ByBlock
 62
     0
100
AcDbPoint
 10
308.3239144264295
 20
285.0386185865339
 30
0.0
  0
CIRCLE
  5
1289
330
18
100
AcDbEntity
  8
外形線
 62
     4
100
AcDbCircle
 10
308.3239144264295
 20
285.0386185865339
 30
0.0
 40
0.25
  0
LINE
  5
12CA
330
18
100
AcDbEntity
  8
外形線
100
AcDbLine
 10
376.5075530366113
 20
302.5386185865339
 30
0.0
 11
379.6575530366113
 21
302.5386185865339
 31
0.0
  0
LINE
  5
12CC
330
18
100
AcDbEntity
  8
外形線
100
AcDbLine
 10
376.3075530366113
 20
302.3386185865339
 30
0.0
 11
376.3075530366112
 21
267.7386185865341
 31
0.0
  0
LINE
  5
12CD
330
18
100
AcDbEntity
  8
外形線
100
AcDbLine
 10
380.0075530366113
 20
302.1886185865338
 30
0.0
 11
380.0075530366113
 21
267.888618586534
 31
0.0
  0
LINE
  5
12CE
330
18
100
AcDbEntity
  8
外形線
100
AcDbLine
 10
381.0075530366113
 20
302.1886185865339
 30
0.0
 11
381.0075530366113
 21
267.8886185865339
 31
0.0
  0
LINE
  5
12CF
330
18
100
AcDbEntity
  8
外形線
 48
0.5
100
AcDbLine
 10
376.3075530366113
 20
302.3386185865339
 30
0.0
 11
376.5075530366113
 21
302.5386185865339
 31
0.0
  0
LINE
  5
12D0
330
18
100
AcDbEntity
  8
外形線
100
AcDbLine
 10
379.6575530366113
 20
302.5386185865339
 30
0.0
 11
380.0075530366113
 21
302.1886185865339
 31
0.0
  0
LINE
  5
12EF
330
18
100
AcDbEntity
  8
外形線
100
AcDbLine
 10
379.6575530366113
 20
267.5386185865339
 30
0.0
 11
380.0075530366113
 21
267.8886185865339
 31
0.0
  0
LINE
  5
12F0
330
18
100
AcDbEntity
  8
外形線
 48
0.5
100
AcDbLine
 10
376.3075530366113
 20
267.7386185865339
 30
0.0
 11
376.5075530366113
 21
267.5386185865339
 31
0.0
  0
LINE
  5
12F1
330
18
100
AcDbEntity
  8
外形線
100
AcDbLine
 10
376.5075530366113
 20
267.5386185865339
 30
0.0
 11
379.6575530366113
 21
267.5386185865339
 31
0.0
  0
LINE
  5
12F5
330
18
100
AcDbEntity
  8
外形線
100
AcDbLine
 10
375.8075530366113
 20
301.5386185865339
 30
0.0
 11
375.8075530366113
 21
268.538618586534
 31
0.0
  0
LINE
  5
12FF
330
18
100
AcDbEntity
  8
外形線
100
AcDbLine
 10
380.0075530366113
 20
302.1886185865338
 30
0.0
 11
381.0075530366113
 21
302.1886185865339
 31
0.0
  0
LINE
  5
1300
330
18
100
AcDbEntity
  8
外形線
100
AcDbLine
 10
380.0075530366113
 20
267.8886185865339
 30
0.0
 11
381.0075530366113
 21
267.8886185865339
 31
0.0
  0
LINE
  5
1308
330
18
100
AcDbEntity
  8
外形線
100
AcDbLine
 10
375.8075530366113
 20
301.5386185865339
 30
0.0
 11
376.3075530366113
 21
302.0386185865339
 31
0.0
  0
LINE
  5
1309
330
18
100
AcDbEntity
  8
外形線
100
AcDbLine
 10
375.8075530366113
 20
268.5386185865339
 30
0.0
 11
376.3075530366113
 21
268.0386185865339
 31
0.0
  0
LINE
  5
1312
330
18
100
AcDbEntity
  8
外形線
100
AcDbLine
 10
376.3075530366114
 20
301.8386185865339
 30
0.0
 11
380.0075530366113
 21
301.8386185865339
 31
0.0
  0
LINE
  5
1313
330
18
100
AcDbEntity
  8
外形線
100
AcDbLine
 10
376.3075530366114
 20
301.1386185865339
 30
0.0
 11
380.0075530366113
 21
301.1386185865339
 31
0.0
  0
LINE
  5
1314
330
18
100
AcDbEntity
  8
外形線
100
AcDbLine
 10
376.3075530366114
 20
300.3386185865339
 30
0.0
 11
380.0075530366113
 21
300.3386185865339
 31
0.0
  0
LINE
  5
1315
330
18
100
AcDbEntity
  8
外形線
100
AcDbLine
 10
376.3075530366114
 20
299.5386185865339
 30
0.0
 11
380.0075530366113
 21
299.5386185865339
 31
0.0
  0
LINE
  5
1316
330
18
100
AcDbEntity
  8
外形線
100
AcDbLine
 10
376.3075530366114
 20
298.638618586534
 30
0.0
 11
380.0075530366113
 21
298.638618586534
 31
0.0
  0
LINE
  5
1328
330
18
100
AcDbEntity
  8
外形線
100
AcDbLine
 10
376.3075530366113
 20
285.7386185865339
 30
0.0
 11
380.0075530366113
 21
285.7386185865339
 31
0.0
  0
LINE
  5
1329
330
18
100
AcDbEntity
  8
外形線
100
AcDbLine
 10
376.3075530366113
 20
284.3386185865339
 30
0.0
 11
380.0075530366113
 21
284.3386185865339
 31
0.0
  0
LINE
  5
132A
330
18
100
AcDbEntity
  8
外形線
100
AcDbLine
 10
376.3075530366113
 20
286.5386185865339
 30
0.0
 11
380.0075530366113
 21
286.5386185865339
 31
0.0
  0
LINE
  5
132B
330
18
100
AcDbEntity
  8
外形線
100
AcDbLine
 10
376.3075530366113
 20
283.5386185865339
 30
0.0
 11
380.0075530366113
 21
283.5386185865339
 31
0.0
  0
LINE
  5
132C
330
18
100
AcDbEntity
  8
外形線
100
AcDbLine
 10
376.3075530366112
 20
285.0386185865339
 30
0.0
 11
380.0075530366112
 21
285.0386185865339
 31
0.0
  0
LINE
  5
132D
330
18
100
AcDbEntity
  8
外形線
100
AcDbLine
 10
376.3075530366114
 20
271.4386185865339
 30
0.0
 11
380.0075530366113
 21
271.4386185865339
 31
0.0
  0
LINE
  5
132E
330
18
100
AcDbEntity
  8
外形線
100
AcDbLine
 10
376.3075530366114
 20
270.5386185865339
 30
0.0
 11
380.0075530366113
 21
270.5386185865339
 31
0.0
  0
LINE
  5
132F
330
18
100
AcDbEntity
  8
外形線
100
AcDbLine
 10
376.3075530366114
 20
269.7386185865339
 30
0.0
 11
380.0075530366113
 21
269.738618586534
 31
0.0
  0
LINE
  5
1330
330
18
100
AcDbEntity
  8
外形線
100
AcDbLine
 10
376.3075530366114
 20
268.9386185865339
 30
0.0
 11
380.0075530366113
 21
268.9386185865339
 31
0.0
  0
LINE
  5
1331
330
18
100
AcDbEntity
  8
外形線
100
AcDbLine
 10
376.3075530366114
 20
268.2386185865339
 30
0.0
 11
380.0075530366113
 21
268.2386185865339
 31
0.0
  0
LINE
  5
1336
330
18
100
AcDbEntity
  8
外形線
100
AcDbLine
 10
381.0075530366113
 20
300.0386185865339
 30
0.0
 11
381.5075530366113
 21
300.0386185865339
 31
0.0
  0
ARC
  5
1337
330
18
100
AcDbEntity
  8
外形線
100
AcDbCircle
 10
381.5075530366113
 20
299.0386185865339
 30
0.0
 40
1.0
100
AcDbArc
 50
64.13462858156407
 51
90.0
  0
ARC
  5
1338
330
18
100
AcDbEntity
  8
外形線
100
AcDbCircle
 10
381.5075530366113
 20
271.0386185865339
 30
0.0
 40
1.0
100
AcDbArc
 50
270.0
 51
295.8653714184359
  0
LINE
  5
1339
330
18
100
AcDbEntity
  8
外形線
100
AcDbLine
 10
381.0075530366113
 20
270.0386185865339
 30
0.0
 11
381.5075530366113
 21
270.0386185865339
 31
0.0
  0
ARC
  5
133C
330
18
100
AcDbEntity
  8
外形線
100
AcDbCircle
 10
435.8228426525955
 20
285.0386185865339
 30
0.0
 40
62.37903158457702
100
AcDbArc
 50
166.4545064755762
 51
193.5454935244236
  0
LINE
  5
1343
330
18
100
AcDbEntity
  8
外形線
100
AcDbLine
 10
375.6650223987221
 20
300.0317622119768
 30
0.0
 11
375.8075530366113
 21
300.0317622119768
 31
0.0
  0
ARC
  5
1345
330
18
100
AcDbEntity
  8
外形線
100
AcDbCircle
 10
375.665022398722
 20
299.5317622119767
 30
0.0
 40
0.5
100
AcDbArc
 50
89.99999999999349
 51
166.4545064755751
  0
ARC
  5
1346
330
18
100
AcDbEntity
  8
外形線
100
AcDbCircle
 10
375.665022398722
 20
270.5454749610912
 30
0.0
 40
0.5
100
AcDbArc
 50
193.5454935244249
 51
270.0000000000065
  0
LINE
  5
1347
330
18
100
AcDbEntity
  8
外形線
100
AcDbLine
 10
375.6650223987221
 20
270.0454749610911
 30
0.0
 11
375.8075530366113
 21
270.0454749610911
 31
0.0
  0
LINE
  5
138E
330
18
100
AcDbEntity
  8
外形線
100
AcDbLine
 10
312.8239144264295
 20
249.8386185865339
 30
0.0
 11
312.8239144264295
 21
243.8386185865339
 31
0.0
  0
LINE
  5
138F
330
18
100
AcDbEntity
  8
外形線
100
AcDbLine
 10
313.3239144264294
 20
248.8386185865339
 30
0.0
 11
313.3239144264294
 21
244.8386185865339
 31
0.0
  0
LINE
  5
1390
330
18
100
AcDbEntity
  8
外形線
100
AcDbLine
 10
312.3239144264295
 20
243.8386185865339
 30
0.0
 11
312.8239144264295
 21
243.8386185865339
 31
0.0
  0
LINE
  5
1391
330
18
100
AcDbEntity
  8
外形線
100
AcDbLine
 10
312.8239144264295
 20
244.8386185865339
 30
0.0
 11
313.3239144264294
 21
244.8386185865339
 31
0.0
  0
LINE
  5
1392
330
18
100
AcDbEntity
  8
外形線
100
AcDbLine
 10
312.3239144264295
 20
249.8386185865339
 30
0.0
 11
312.8239144264295
 21
249.8386185865339
 31
0.0
  0
LINE
  5
1393
330
18
100
AcDbEntity
  8
外形線
100
AcDbLine
 10
312.8239144264295
 20
248.8386185865339
 30
0.0
 11
313.3239144264294
 21
248.8386185865339
 31
0.0
  0
POINT
  5
14D3
330
18
100
AcDbEntity
  8
DEFPOINTS
  6
ByBlock
 62
     0
100
AcDbPoint
 10
389.9438110680185
 20
246.8386185865339
 30
0.0
  0
POINT
  5
14D4
330
18
100
AcDbEntity
  8
DEFPOINTS
  6
ByBlock
 62
     0
100
AcDbPoint
 10
389.9438110680185
 20
246.8386185865339
 30
0.0
  0
CIRCLE
  5
14E2
102
{ACAD_REACTORS
330
14E5
102
}
330
18
100
AcDbEntity
  8
寸法線
100
AcDbCircle
 10
382.3006694783556
 20
258.1758066040143
 30
0.0
 40
0.222687898198611
  0
HATCH
  5
14E5
330
18
100
AcDbEntity
  8
寸法線
100
AcDbHatch
 10
0.0
 20
0.0
 30
0.0
210
0.0
220
0.0
230
1.0
  2
SOLID
 70
     1
 71
     1
 91
        1
 92
        7
 72
     1
 73
     1
 93
        2
 10
382.5233573765542
 20
258.1758066040143
 42
1.0
 10
382.077981580157
 20
258.1758066040143
 42
1.0
 97
        1
330
14E2
 75
     0
 76
     1
 47
0.0124670341605454
 98
        1
 10
382.358646779702
 20
258.1526346639231
450
        0
451
        0
460
0.0
461
0.0
452
        0
462
0.0
453
        0
470

  0
TEXT
  5
14EC
330
18
100
AcDbEntity
  8
寸法線
 62
     6
100
AcDbText
 10
407.1453730724263
 20
282.7859492716463
 30
0.0
 40
2.5
  1
A
  7
STYLE3
100
AcDbText
  0
CIRCLE
  5
14EE
102
{ACAD_REACTORS
330
14F1
102
}
330
18
100
AcDbEntity
  8
寸法線
100
AcDbCircle
 10
398.5313327021538
 20
272.8596793367882
 30
0.0
 40
0.222687898198611
  0
HATCH
  5
14F1
330
18
100
AcDbEntity
  8
寸法線
100
AcDbHatch
 10
0.0
 20
0.0
 30
0.0
210
0.0
220
0.0
230
1.0
  2
SOLID
 70
     1
 71
     1
 91
        1
 92
        7
 72
     1
 73
     1
 93
        2
 10
398.7540206003524
 20
272.8596793367882
 42
1.0
 10
398.3086448039551
 20
272.8596793367882
 42
1.0
 97
        1
330
14EE
 75
     0
 76
     1
 47
0.0200805185115556
 98
        1
 10
398.6558488055694
 20
272.74289290881
450
        0
451
        0
460
0.0
461
0.0
452
        0
462
0.0
453
        0
470

  0
CIRCLE
  5
14F8
102
{ACAD_REACTORS
330
151F
102
}
330
18
100
AcDbEntity
  8
寸法線
100
AcDbCircle
 10
384.7133353684405
 20
301.0920140833882
 30
0.0
 40
0.222687898198611
  0
HATCH
  5
151F
330
18
100
AcDbEntity
  8
寸法線
100
AcDbHatch
 10
0.0
 20
0.0
 30
0.0
210
0.0
220
0.0
230
1.0
  2
SOLID
 70
     1
 71
     1
 91
        1
 92
        7
 72
     1
 73
     1
 93
        2
 10
384.9360232666391
 20
301.0920140833882
 42
1.0
 10
384.4906474702419
 20
301.0920140833882
 42
1.0
 97
        1
330
14F8
 75
     0
 76
     1
 47
0.0431140550968677
 98
        1
 10
384.8305854830257
 20
300.9826789126247
450
        0
451
        0
460
0.0
461
0.0
452
        0
462
0.0
453
        0
470

  0
LINE
  5
157C
330
18
100
AcDbEntity
  8
外形線
100
AcDbLine
 10
456.1872936683459
 20
269.6873291026055
 30
0.0
 11
469.0676869882578
 21
269.6873291026055
 31
0.0
  0
LINE
  5
157F
330
18
100
AcDbEntity
  8
外形線
100
AcDbLine
 10
445.3925495566716
 20
272.9873291026056
 30
0.0
 11
458.0925495566716
 21
272.9873291026055
 31
0.0
  0
LINE
  5
1584
330
18
100
AcDbEntity
  8
外形線
100
AcDbLine
 10
456.1872936683459
 20
269.6873291026055
 30
0.0
 11
458.0925495566716
 21
272.9873291026055
 31
0.0
  0
LINE
  5
1585
330
18
100
AcDbEntity
  8
外形線
100
AcDbLine
 10
447.2978054449973
 20
269.6873291026055
 30
0.0
 11
445.3925495566716
 21
272.9873291026056
 31
0.0
  0
LINE
  5
1586
330
18
100
AcDbEntity
  8
外形線
100
AcDbLine
 10
447.2978054449973
 20
269.6873291026055
 30
0.0
 11
434.4174121250855
 21
269.6873291026055
 31
0.0
  0
CIRCLE
  5
1588
330
18
100
AcDbEntity
  8
外形線
100
AcDbCircle
 10
444.7025495566715
 20
271.1873291026055
 30
0.0
 40
1.5
  0
CIRCLE
  5
1589
330
18
100
AcDbEntity
  8
外形線
100
AcDbCircle
 10
458.7825495566717
 20
271.1873291026055
 30
0.0
 40
1.5
  0
LINE
  5
158C
330
18
100
AcDbEntity
  8
中心線
100
AcDbLine
 10
441.7657440521224
 20
271.1873291026055
 30
0.0
 11
447.8428082326343
 21
271.1873291026055
 31
0.0
  0
LINE
  5
158D
330
18
100
AcDbEntity
  8
中心線
100
AcDbLine
 10
458.7825495566717
 20
274.603751216747
 30
0.0
 11
458.7825495566717
 21
267.4631015329152
 31
0.0
  0
LINE
  5
158E
330
18
100
AcDbEntity
  8
中心線
100
AcDbLine
 10
444.7025495566715
 20
274.603751216747
 30
0.0
 11
444.7025495566715
 21
267.4631015329152
 31
0.0
  0
LINE
  5
1591
330
18
100
AcDbEntity
  8
中心線
100
AcDbLine
 10
455.8740712745652
 20
271.1873291026055
 30
0.0
 11
462.10729121685
 21
271.1873291026055
 31
0.0
  0
LINE
  5
15A3
330
18
100
AcDbEntity
  8
寸法線
100
AcDbLine
 10
434.4174121250855
 20
267.518572968364
 30
0.0
 11
436.5861682593269
 21
269.6873291026055
 31
0.0
  0
LINE
  5
15A4
330
18
100
AcDbEntity
  8
寸法線
100
AcDbLine
 10
434.4174121250855
 20
263.0284449078294
 30
0.0
 11
441.0762963198616
 21
269.6873291026055
 31
0.0
  0
LINE
  5
15A5
330
18
100
AcDbEntity
  8
寸法線
100
AcDbLine
 10
437.4720974581996
 20
261.593002180409
 30
0.0
 11
445.5664243803962
 21
269.6873291026055
 31
0.0
  0
LINE
  5
15A6
330
18
100
AcDbEntity
  8
寸法線
100
AcDbLine
 10
446.664075991722
 20
270.7849807139314
 30
0.0
 11
448.8664243803961
 21
272.9873291026056
 31
0.0
  0
LINE
  5
15A7
330
18
100
AcDbEntity
  8
寸法線
100
AcDbLine
 10
441.9622255187341
 20
261.5930021804089
 30
0.0
 11
453.356552440931
 21
272.9873291026056
 31
0.0
  0
LINE
  5
15A8
330
18
100
AcDbEntity
  8
寸法線
100
AcDbLine
 10
446.4523535792688
 20
261.5930021804089
 30
0.0
 11
457.8466805014654
 21
272.9873291026056
 31
0.0
  0
LINE
  5
15A9
330
18
100
AcDbEntity
  8
寸法線
100
AcDbLine
 10
450.9424816398032
 20
261.5930021804089
 30
0.0
 11
459.036808562
 21
269.6873291026056
 31
0.0
  0
LINE
  5
15AA
330
18
100
AcDbEntity
  8
寸法線
100
AcDbLine
 10
455.432609700338
 20
261.5930021804089
 30
0.0
 11
463.5269366225345
 21
269.6873291026055
 31
0.0
  0
LINE
  5
15AB
330
18
100
AcDbEntity
  8
寸法線
100
AcDbLine
 10
459.9227377608724
 20
261.5930021804089
 30
0.0
 11
468.017064683069
 21
269.6873291026055
 31
0.0
  0
LINE
  5
15AC
330
18
100
AcDbEntity
  8
寸法線
100
AcDbLine
 10
464.4128658214071
 20
261.593002180409
 30
0.0
 11
469.0676869882578
 21
266.2478233472597
 31
0.0
  0
LINE
  5
1634
330
18
100
AcDbEntity
  8
0
  6
ByBlock
 62
     2
100
AcDbLine
 10
458.0925495566716
 20
272.9873291026055
 30
0.0
 11
469.7124432656738
 21
293.1135753851481
 31
0.0
  0
LINE
  5
1635
330
18
100
AcDbEntity
  8
0
  6
ByBlock
 62
     2
100
AcDbLine
 10
445.3925495566716
 20
272.9873291026056
 30
0.0
 11
433.7726558476693
 21
293.113575385148
 31
0.0
  0
ARC
  5
1636
330
18
100
AcDbEntity
  8
0
  6
ByBlock
 62
     2
100
AcDbCircle
 10
451.7425495566717
 20
261.9888064745427
 30
0.0
 40
34.6897874180055
100
AcDbArc
 50
64.13004734756665
 51
115.869952652434
  0
INSERT
  5
1637
330
18
100
AcDbEntity
  8
0
  6
ByBlock
 62
     2
100
AcDbBlockReference
  2
_OPEN
 10
469.0874432656738
 20
292.0310436304175
 30
0.0
 41
2.5
 42
2.5
 43
2.5
 50
332.0650236737839
  0
INSERT
  5
1638
330
18
100
AcDbEntity
  8
0
  6
ByBlock
 62
     2
100
AcDbBlockReference
  2
_OPEN
 10
434.3976558476692
 20
292.0310436304174
 30
0.0
 41
2.5
 42
2.5
 43
2.5
 50
207.9349763262168
  0
MTEXT
  5
1639
330
18
100
AcDbEntity
  8
0
  6
ByBlock
 62
     6
100
AcDbMText
 10
453.2370106548949
 20
298.5535938925482
 30
0.0
 40
2.5
 41
0.0
 71
     5
 72
     1
  1
\A1;60°
  7
STYLE3
 73
     1
 44
1.0
  0
POINT
  5
163A
330
18
100
AcDbEntity
  8
DEFPOINTS
  6
ByBlock
 62
     0
100
AcDbPoint
 10
457.7663679254611
 20
296.1515780741399
 30
0.0
  0
POINT
  5
163B
330
18
100
AcDbEntity
  8
DEFPOINTS
  6
ByBlock
 62
     0
100
AcDbPoint
 10
447.2978054449973
 20
269.6873291026055
 30
0.0
  0
POINT
  5
163C
330
18
100
AcDbEntity
  8
DEFPOINTS
  6
ByBlock
 62
     0
100
AcDbPoint
 10
456.1872936683459
 20
269.6873291026055
 30
0.0
  0
POINT
  5
163D
330
18
100
AcDbEntity
  8
DEFPOINTS
  6
ByBlock
 62
     0
100
AcDbPoint
 10
458.0925495566716
 20
272.9873291026055
 30
0.0
  0
POINT
  5
163E
330
18
100
AcDbEntity
  8
DEFPOINTS
  6
ByBlock
 62
     0
100
AcDbPoint
 10
445.3925495566716
 20
272.9873291026056
 30
0.0
  0
LINE
  5
164E
330
18
100
AcDbEntity
  8
0
  6
ByBlock
 62
     2
100
AcDbLine
 10
442.4701546063842
 20
278.0490656362862
 30
0.0
 11
433.7726558476693
 21
293.113575385148
 31
0.0
  0
LINE
  5
164F
330
18
100
AcDbEntity
  8
0
  6
ByBlock
 62
     2
100
AcDbLine
 10
443.4035114509947
 20
270.4373291026055
 30
0.0
 11
431.1766948785865
 21
291.6147966208423
 31
0.0
  0
LINE
  5
1651
330
18
100
AcDbEntity
  8
0
  6
ByBlock
 62
     2
100
AcDbLine
 10
429.6366313691253
 20
289.2822648661118
 30
0.0
 11
427.4715678596642
 21
288.0322648661117
 31
0.0
  0
LINE
  5
1652
330
18
100
AcDbEntity
  8
0
  6
ByBlock
 62
     2
100
AcDbLine
 10
434.3976558476692
 20
292.0310436304175
 30
0.0
 11
431.8016948785864
 21
290.5322648661118
 31
0.0
  0
INSERT
  5
1654
330
18
100
AcDbEntity
  8
0
  6
ByBlock
 62
     2
100
AcDbBlockReference
  2
_OPEN
 10
431.8016948785864
 20
290.5322648661118
 30
0.0
 41
2.5
 42
2.5
 43
2.5
 50
29.99999999999951
  0
MTEXT
  5
1655
330
18
100
AcDbEntity
  8
0
  6
ByBlock
 62
     6
100
AcDbMText
 10
429.8534234544951
 20
292.9054518803604
 30
0.0
 40
2.5
 41
0.0
 71
     5
 72
     1
  1
φ1.5
  7
STYLE3
 11
0.8660254037844429
 21
0.4999999999999926
 31
0.0
 73
     1
 44
1.0
  0
POINT
  5
1656
330
18
100
AcDbEntity
  8
DEFPOINTS
  6
ByBlock
 62
     0
100
AcDbPoint
 10
442.4701546063842
 20
278.0490656362862
 30
0.0
 50
60.00000000000049
  0
POINT
  5
1657
330
18
100
AcDbEntity
  8
DEFPOINTS
  6
ByBlock
 62
     0
100
AcDbPoint
 10
443.4035114509947
 20
270.4373291026055
 30
0.0
 50
60.00000000000049
  0
POINT
  5
1658
330
18
100
AcDbEntity
  8
DEFPOINTS
  6
ByBlock
 62
     0
100
AcDbPoint
 10
431.8016948785864
 20
290.5322648661118
 30
0.0
 50
60.00000000000049
  0
LINE
  5
1664
330
18
100
AcDbEntity
  8
0
  6
ByBlock
 62
     2
100
AcDbLine
 10
458.0925495566716
 20
272.9873291026055
 30
0.0
 11
475.8486993103977
 21
272.9873291026055
 31
0.0
  0
LINE
  5
1665
330
18
100
AcDbEntity
  8
0
  6
ByBlock
 62
     2
100
AcDbLine
 10
469.0676869882578
 20
269.6873291026055
 30
0.0
 11
475.8486993103977
 21
269.6873291026055
 31
0.0
  0
LINE
  5
1666
330
18
100
AcDbEntity
  8
0
  6
ByBlock
 62
     2
100
AcDbLine
 10
474.5986993103977
 20
275.4873291026055
 30
0.0
 11
474.5986993103977
 21
277.9873291026055
 31
0.0
  0
LINE
  5
1667
330
18
100
AcDbEntity
  8
0
  6
ByBlock
 62
     2
100
AcDbLine
 10
474.5986993103977
 20
267.1873291026055
 30
0.0
 11
474.5986993103977
 21
258.8143970606098
 31
0.0
  0
LINE
  5
1668
330
18
100
AcDbEntity
  8
0
  6
ByBlock
 62
     2
100
AcDbLine
 10
474.5986993103977
 20
272.9873291026055
 30
0.0
 11
474.5986993103977
 21
269.6873291026055
 31
0.0
  0
INSERT
  5
1669
330
18
100
AcDbEntity
  8
0
  6
ByBlock
 62
     2
100
AcDbBlockReference
  2
_OPEN
 10
474.5986993103977
 20
272.9873291026055
 30
0.0
 41
2.5
 42
2.5
 43
2.5
 50
270.0
  0
INSERT
  5
166A
330
18
100
AcDbEntity
  8
0
  6
ByBlock
 62
     2
100
AcDbBlockReference
  2
_OPEN
 10
474.5986993103977
 20
269.6873291026055
 30
0.0
 41
2.5
 42
2.5
 43
2.5
 50
90.0
  0
MTEXT
  5
166B
330
18
100
AcDbEntity
  8
0
  6
ByBlock
 62
     6
100
AcDbMText
 10
472.7236993103977
 20
262.6745037838268
 30
0.0
 40
2.5
 41
0.0
 71
     5
 72
     1
  1
\A1;1.65
  7
STYLE3
 11
0.0000000000000001
 21
1.0
 31
0.0
 73
     1
 44
1.0
  0
POINT
  5
166C
330
18
100
AcDbEntity
  8
DEFPOINTS
  6
ByBlock
 62
     0
100
AcDbPoint
 10
458.0925495566716
 20
272.9873291026055
 30
0.0
  0
POINT
  5
166D
330
18
100
AcDbEntity
  8
DEFPOINTS
  6
ByBlock
 62
     0
100
AcDbPoint
 10
469.0676869882578
 20
269.6873291026055
 30
0.0
  0
POINT
  5
166E
330
18
100
AcDbEntity
  8
DEFPOINTS
  6
ByBlock
 62
     0
100
AcDbPoint
 10
474.5986993103977
 20
269.6873291026055
 30
0.0
  0
TEXT
  5
166F
330
18
100
AcDbEntity
  8
文字
100
AcDbText
 10
428.8915453708566
 20
253.325627404807
 30
0.0
 40
4.0
  1
A.B.C 断面図 
  7
STYLE3
100
AcDbText
  0
TEXT
  5
1670
330
18
100
AcDbEntity
  8
文字
100
AcDbText
 10
463.0342922737862
 20
253.346947399989
 30
0.0
 40
3.0
  1
S=2／1
  7
STYLE3
100
AcDbText
  0
LINE
  5
1671
330
18
100
AcDbEntity
  8
外形線
100
AcDbLine
 10
428.554610033628
 20
252.6522811495333
 30
0.0
 11
478.4209906053957
 21
252.6522811495333
 31
0.0
  0
LINE
  5
1686
330
18
100
AcDbEntity
  8
0
  6
ByBlock
 62
     2
100
AcDbLine
 10
305.3239144264294
 20
317.2347710092406
 30
0.0
 11
305.3239144264294
 21
328.7417071247972
 31
0.0
  0
LINE
  5
1687
330
18
100
AcDbEntity
  8
0
  6
ByBlock
 62
     2
100
AcDbLine
 10
311.3239144264294
 20
317.2347710092406
 30
0.0
 11
311.3239144264294
 21
328.7417071247972
 31
0.0
  0
LINE
  5
1688
330
18
100
AcDbEntity
  8
0
  6
ByBlock
 62
     2
100
AcDbLine
 10
302.8239144264294
 20
327.4917071247972
 30
0.0
 11
300.3239144264294
 21
327.4917071247972
 31
0.0
  0
LINE
  5
1689
330
18
100
AcDbEntity
  8
0
  6
ByBlock
 62
     2
100
AcDbLine
 10
313.8239144264294
 20
327.4917071247972
 30
0.0
 11
316.3239144264295
 21
327.4917071247972
 31
0.0
  0
LINE
  5
168A
330
18
100
AcDbEntity
  8
0
  6
ByBlock
 62
     2
100
AcDbLine
 10
305.3239144264294
 20
327.4917071247972
 30
0.0
 11
311.3239144264294
 21
327.4917071247972
 31
0.0
  0
INSERT
  5
168B
330
18
100
AcDbEntity
  8
0
  6
ByBlock
 62
     2
100
AcDbBlockReference
  2
_OPEN
 10
305.3239144264294
 20
327.4917071247972
 30
0.0
 41
2.5
 42
2.5
 43
2.5
  0
INSERT
  5
168C
330
18
100
AcDbEntity
  8
0
  6
ByBlock
 62
     2
100
AcDbBlockReference
  2
_OPEN
 10
311.3239144264294
 20
327.4917071247972
 30
0.0
 41
2.5
 42
2.5
 43
2.5
 50
180.0
  0
MTEXT
  5
168D
330
18
100
AcDbEntity
  8
0
  6
ByBlock
 62
     6
100
AcDbMText
 10
307.7991152838394
 20
330.3108167572845
 30
0.0
 40
2.5
 41
0.0
 71
     5
 72
     1
  1
\A1;φ6.0
  7
STYLE3
 73
     1
 44
1.0
  0
POINT
  5
168E
330
18
100
AcDbEntity
  8
DEFPOINTS
  6
ByBlock
 62
     0
100
AcDbPoint
 10
305.3239144264294
 20
317.2347710092406
 30
0.0
  0
POINT
  5
168F
330
18
100
AcDbEntity
  8
DEFPOINTS
  6
ByBlock
 62
     0
100
AcDbPoint
 10
311.3239144264294
 20
317.2347710092406
 30
0.0
  0
POINT
  5
1690
330
18
100
AcDbEntity
  8
DEFPOINTS
  6
ByBlock
 62
     0
100
AcDbPoint
 10
311.3239144264294
 20
327.4917071247972
 30
0.0
  0
TEXT
  5
1691
330
18
100
AcDbEntity
  8
文字
100
AcDbText
 10
313.3373849923061
 20
332.8957092537539
 30
0.0
 40
1.0
  1
0
  7
STYLE3
100
AcDbText
  0
TEXT
  5
1692
330
18
100
AcDbEntity
  8
文字
100
AcDbText
 10
312.1277025990509
 20
331.6671684276353
 30
0.0
 40
1.0
  1
-0.03
  7
STYLE3
100
AcDbText
  0
LINE
  5
16EE
330
18
100
AcDbEntity
  8
中心線
 48
0.5
100
AcDbLine
 10
308.3239144264295
 20
319.6822704742796
 30
0.0
 11
308.3239144264295
 21
222.8350334446917
 31
0.0
  0
LINE
  5
16EF
330
18
100
AcDbEntity
  8
外形線
100
AcDbLine
 10
310.6739144264295
 20
242.838618586534
 30
0.0
 11
312.3239144264295
 21
242.8386185865339
 31
0.0
  0
LINE
  5
16F2
330
18
100
AcDbEntity
  8
外形線
100
AcDbLine
 10
304.3239144264294
 20
268.0018935491331
 30
0.0
 11
304.3239144264294
 21
242.8386185865339
 31
0.0
  0
LINE
  5
16F3
330
18
100
AcDbEntity
  8
外形線
100
AcDbLine
 10
311.5239144264294
 20
267.8336774358063
 30
0.0
 11
311.5239144264294
 21
252.7386185865339
 31
0.0
  0
LINE
  5
16F9
330
18
100
AcDbEntity
  8
中心線
 48
0.5
100
AcDbLine
 10
300.1958687070016
 20
246.8386185865339
 30
0.0
 11
316.4123905382195
 21
246.8386185865339
 31
0.0
  0
LINE
  5
16FD
330
18
100
AcDbEntity
  8
外形線
100
AcDbLine
 10
310.6739144264295
 20
242.838618586534
 30
0.0
 11
310.5855407335848
 21
250.3503824783343
 31
0.0
  0
ARC
  5
16FE
330
18
100
AcDbEntity
  8
外形線
100
AcDbCircle
 10
309.585609930554
 20
250.3386185865339
 30
0.0
 40
1.0
100
AcDbArc
 50
0.674036897984668
 51
90.0
  0
LINE
  5
16FF
330
18
100
AcDbEntity
  8
外形線
100
AcDbLine
 10
305.9739144264294
 20
242.838618586534
 30
0.0
 11
306.0622881192741
 21
250.3503824783343
 31
0.0
  0
LINE
  5
1700
330
18
100
AcDbEntity
  8
外形線
100
AcDbLine
 10
305.9739144264294
 20
242.838618586534
 30
0.0
 11
304.3239144264294
 21
242.8386185865339
 31
0.0
  0
ARC
  5
1701
330
18
100
AcDbEntity
  8
外形線
100
AcDbCircle
 10
307.0622189223048
 20
250.3386185865339
 30
0.0
 40
1.0
100
AcDbArc
 50
90.0
 51
179.3259631020153
  0
LINE
  5
1702
330
18
100
AcDbEntity
  8
外形線
100
AcDbLine
 10
312.3239144264295
 20
268.0018935491331
 30
0.0
 11
312.3239144264295
 21
242.8386185865339
 31
0.0
  0
LINE
  5
1703
330
18
100
AcDbEntity
  8
外形線
100
AcDbLine
 10
311.5239144264294
 20
252.7386185865339
 30
0.0
 11
312.3239144264295
 21
252.7386185865339
 31
0.0
  0
LINE
  5
1704
330
18
100
AcDbEntity
  8
外形線
100
AcDbLine
 10
305.3239144264294
 20
263.8386185865339
 30
0.0
 11
311.3239144264295
 21
263.8386185865339
 31
0.0
  0
LINE
  5
1707
330
18
100
AcDbEntity
  8
中心線
 48
0.5
100
AcDbLine
 10
286.897283546801
 20
285.0386185865339
 30
0.0
 11
329.2763693161431
 21
285.0386185865339
 31
0.0
  0
INSERT
  5
1826
330
18
100
AcDbEntity
  8
ASHADE
 62
     1
100
AcDbBlockReference
  2
AVE_RENDER
 10
0.0
 20
0.0
 30
0.0
1001
AVE_RENDER
1002
{
1070
     7
1000
Pref
1070
    30
1070
    20
1070
     1
1070
     0
1000

1070
    10
1070
     1
1070
    10
1040
1.0
1070
     1
1040
0.3
1040
0.7
1040
0.0
1040
10.0
1010
-1.0
1020
-1.0
1030
-1.0
1040
0.3
1070
    49
1070
     0
1070
     0
1010
1.0
1020
1.0
1030
1.0
1040
45.0
1070
     1
1070
     0
1000
WCS
1040
0.0
1070
     0
1040
10.0
1002
}
  0
INSERT
  5
1827
330
18
100
AcDbEntity
  8
ASHADE
 62
     3
100
AcDbBlockReference
  2
AVE_RENDER
 10
0.0
 20
0.0
 30
0.0
1001
AVE_RENDER
1002
{
1070
     0
1000
Full Opt
1070
     0
1070
     1
1070
     1
1070
     1
1070
     0
1070
     0
1070
     0
1070
     1
1070
     1
1040
0.0001
1040
0.0001
1002
}
  0
INSERT
  5
1828
330
18
100
AcDbEntity
  8
ASHADE
 62
     4
100
AcDbBlockReference
  2
AVE_RENDER
 10
0.0
 20
0.0
 30
0.0
1001
AVE_RENDER
1002
{
1070
     0
1000
Quick Opt
1070
     0
1070
     1
1070
     1
1070
     1
1070
     0
1070
     0
1070
     1
1002
}
  0
INSERT
  5
1829
330
18
100
AcDbEntity
  8
ASHADE
 62
     5
100
AcDbBlockReference
  2
AVE_RENDER
 10
0.0
 20
0.0
 30
0.0
1001
AVE_RENDER
1002
{
1070
     1
1000
Scanl Opt
1070
     2
1070
     0
1070
     2
1040
2.0
1040
4.0
1070
     0
1070
     1
1070
     0
1040
0.03
1002
}
  0
INSERT
  5
182A
330
18
100
AcDbEntity
  8
ASHADE
 62
     6
100
AcDbBlockReference
  2
AVE_RENDER
 10
0.0
 20
0.0
 30
0.0
1001
AVE_RENDER
1002
{
1070
     2
1000
Raytr Opt
1070
     2
1070
     0
1070
     2
1040
2.0
1040
4.0
1070
     0
1070
     1
1070
     1
1040
0.03
1070
     3
1040
0.03
1002
}
  0
INSERT
  5
182B
330
18
100
AcDbEntity
  8
ASHADE
 62
     7
100
AcDbBlockReference
  2
AVE_RENDER
 10
0.0
 20
0.0
 30
0.0
1001
AVE_RENDER
1002
{
1070
     0
1000
RFile Opt
1070
     1
1070
   640
1070
   480
1070
 10000
1070
     1
1070
     8
1070
     8
1070
     0
1070
     0
1070
     0
1070
     0
1070
     0
1070
     0
1070
     0
1002
}
  0
INSERT
  5
182C
330
18
100
AcDbEntity
  8
ASHADE
 62
     8
100
AcDbBlockReference
  2
AVE_RENDER
 10
0.0
 20
0.0
 30
0.0
1001
AVE_RENDER
1002
{
1070
     0
1000
Fog Opt
1070
     0
1070
     0
1040
0.0
1040
1.0
1040
0.0
1040
1.0
1010
0.5
1020
0.5
1030
0.5
1002
}
  0
INSERT
  5
182D
330
18
100
AcDbEntity
  8
ASHADE
 62
     9
100
AcDbBlockReference
  2
AVE_RENDER
 10
0.0
 20
0.0
 30
0.0
1001
AVE_RENDER
1002
{
1070
     0
1000
BG Opt
1070
     0
1070
     1
1010
0.0
1020
0.0
1030
0.0
1010
1.0
1020
0.0
1030
0.0
1010
0.0
1020
1.0
1030
0.0
1010
0.0
1020
0.0
1030
1.0
1040
0.5
1040
0.33
1040
0.0
1000

1070
     1
1000

1070
     1
1070
     1
1040
1.0
1040
1.0
1040
0.0
1040
0.0
1070
     0
1002
}
  0
INSERT
  5
1834
330
18
100
AcDbEntity
  8
ASHADE
 62
     1
100
AcDbBlockReference
  2
AVE_GLOBAL
 10
0.0
 20
0.0
 30
0.0
1001
AVE_MATERIAL
1002
{
1000
*GLOBAL*
1000
1
1000
Global finish.
1002
{
1002
}
1002
{
1070
    63
1002
{
1002
{
1010
-1.0
1020
-1.0
1030
-1.0
1002
}
1040
0.1000000014901161
1000

1040
0.0
1002
{
1002
}
1040
0.0
1002
{
1002
}
1040
0.0
1002
}
1002
{
1002
{
1010
-1.0
1020
-1.0
1030
-1.0
1002
}
1040
0.6999999880790711
1000

1040
0.0
1002
{
1002
}
1040
0.0
1002
{
1002
}
1040
0.0
1002
}
1002
{
1002
{
1010
-1.0
1020
-1.0
1030
-1.0
1002
}
1040
0.2000000029802322
1000

1040
0.0
1002
{
1002
}
1040
0.0
1002
{
1002
}
1040
0.0
1002
}
1002
{
1070
     0
1002
{
1070
     1
1002
{
1040
1.0
1040
1.0
1000

1040
0.0
1002
{
1002
}
1040
0.0
1002
{
1002
}
1040
0.0
1002
}
1002
}
1040
1.0
1040
0.0
1040
0.0
1002
}
1002
{
1040
1.0
1040
1.0
1000

1040
0.0
1002
{
1002
}
1040
0.0
1002
{
1002
}
1040
0.0
1002
}
1002
{
1040
0.5
1040
1.0
1000

1040
0.0
1002
{
1002
}
1040
0.0
1002
{
1002
}
1040
0.0
1002
}
1002
{
1070
     0
1040
0.0
1002
{
1002
}
1040
1.0
1002
{
1002
}
1040
0.0
1002
}
1002
{
1040
0.0
1002
{
1002
{
1010
0.0
1020
0.0
1030
0.0
1002
}
1040
1.0
1000

1040
0.0
1002
{
1002
}
1040
0.0
1002
{
1002
}
1040
0.0
1002
}
1002
}
1002
{
1002
{
1070
     1
1002
{
1040
0.0
1040
1.0
1000

1040
0.0
1002
{
1002
}
1040
0.0
1002
{
1002
}
1040
0.0
1002
}
1002
}
1040
0.0
1002
{
1002
}
1010
1.0
1020
0.0
1030
0.0
1010
0.0
1020
1.0
1030
0.0
1010
0.0
1020
0.0
1030
1.0
1070
     0
1002
}
1002
{
1002
{
1040
1.0
1040
1.0
1002
{
1070
     1
1002
{
1040
1.0
1040
1.0
1000

1040
0.0
1002
{
1002
}
1040
0.0
1002
{
1002
}
1040
0.0
1002
}
1002
}
1002
}
1070
     0
1040
0.0
1002
{
1002
}
1002
}
1002
{
1002
}
1002
}
1002
{
1071
        3
1070
     3
1070
     0
1002
{
1070
     2
1070
     0
1070
     0
1040
0.0
1002
}
1070
     0
1070
     2
1002
{
1002
}
1002
}
1002
{
1040
8030.0
1040
190.3000030517578
1040
0.3050000071525574
1040
228.0
1040
545.0
1040
14.0
1040
17.39999961853027
1040
0.4560000002384186
1002
}
1002
}
  0
ARC
  5
1837
330
18
100
AcDbEntity
  8
外形線
100
AcDbCircle
 10
389.9438110680185
 20
246.8386185865338
 30
0.0
 40
4.0
100
AcDbArc
 50
199.9281732991189
 51
341.6307198030625
  0
LINE
  5
1838
330
18
100
AcDbEntity
  8
中心線
 48
0.5
100
AcDbLine
 10
381.9848339341955
 20
246.8386185865339
 30
0.0
 11
398.2013557654134
 21
246.8386185865339
 31
0.0
  0
LINE
  5
183A
330
18
100
AcDbEntity
  8
中心線
 48
0.5
100
AcDbLine
 10
389.9438110680185
 20
320.0532341196061
 30
0.0
 11
389.9438110680185
 21
222.3423210655692
 31
0.0
  0
LINE
  5
183F
330
18
100
AcDbEntity
  8
外形線
100
AcDbLine
 10
381.9438110680185
 20
300.1886185865339
 30
0.0
 11
397.7938110680185
 21
300.188618586534
 31
0.0
  0
LINE
  5
1852
330
18
100
AcDbEntity
  8
外形線
100
AcDbLine
 10
381.9438110680185
 20
301.8386185865339
 30
0.0
 11
397.4438110680185
 21
301.838618586534
 31
0.0
  0
LINE
  5
1854
330
18
100
AcDbEntity
  8
外形線
100
AcDbLine
 10
397.7938110680185
 20
299.838618586534
 30
0.0
 11
399.4438110680185
 21
299.8386185865339
 31
0.0
  0
LINE
  5
1855
330
18
100
AcDbEntity
  8
外形線
100
AcDbLine
 10
399.4438110680185
 20
299.8386185865339
 30
0.0
 11
399.4438110680185
 21
262.288618586534
 31
0.0
  0
LINE
  5
1858
330
18
100
AcDbEntity
  8
外形線
100
AcDbLine
 10
397.7938110680185
 20
260.6386185865339
 30
0.0
 11
399.4438110680185
 21
262.288618586534
 31
0.0
  0
LINE
  5
187E
330
18
100
AcDbEntity
  8
外形線
100
AcDbLine
 10
381.9438110680185
 20
301.8386185865339
 30
0.0
 11
381.9438110680185
 21
263.8386185865341
 31
0.0
  0
LINE
  5
187F
330
18
100
AcDbEntity
  8
外形線
100
AcDbLine
 10
397.7938110680185
 20
300.188618586534
 30
0.0
 11
397.7938110680185
 21
256.1386185865339
 31
0.0
  0
LINE
  5
1882
330
18
100
AcDbEntity
  8
外形線
100
AcDbLine
 10
397.4438110680186
 20
300.188618586534
 30
0.0
 11
397.4438110680185
 21
301.838618586534
 31
0.0
  0
LINE
  5
1886
330
18
100
AcDbEntity
  8
外形線
100
AcDbLine
 10
397.7938110680185
 20
256.1386185865339
 30
0.0
 11
393.7399915247267
 21
245.5780576240623
 31
0.0
  0
LINE
  5
1889
330
18
100
AcDbEntity
  8
外形線
100
AcDbLine
 10
381.9438110680185
 20
263.8386185865341
 30
0.0
 11
386.1833284960606
 21
245.4752511283625
 31
0.0
  0
LINE
  5
188A
330
18
100
AcDbEntity
  8
外形線
100
AcDbLine
 10
380.3361004611229
 20
263.4674493468667
 30
0.0
 11
383.136261679229
 21
251.3386185865339
 31
0.0
  0
LINE
  5
188B
330
18
100
AcDbEntity
  8
外形線
100
AcDbLine
 10
381.9438110680185
 20
263.8386185865341
 30
0.0
 11
380.3361004611229
 21
263.4674493468667
 31
0.0
  0
LINE
  5
188C
330
18
100
AcDbEntity
  8
外形線
100
AcDbLine
 10
383.136261679229
 20
251.3386185865339
 30
0.0
 11
384.8296634570881
 21
251.338618586534
 31
0.0
  0
LINE
  5
188D
330
18
100
AcDbEntity
  8
外形線
100
AcDbLine
 10
311.3239144264294
 20
251.338618586534
 30
0.0
 11
305.3239144264294
 21
251.3386185865339
 31
0.0
  0
LINE
  5
188E
330
18
100
AcDbEntity
  8
外形線
100
AcDbLine
 10
311.3239144264296
 20
263.4674493468667
 30
0.0
 11
305.3239144264294
 21
263.4674493468667
 31
0.0
  0
LINE
  5
188F
330
18
100
AcDbEntity
  8
外形線
100
AcDbLine
 10
311.3239144264295
 20
263.8386185865339
 30
0.0
 11
311.3239144264294
 21
251.338618586534
 31
0.0
  0
LINE
  5
1890
330
18
100
AcDbEntity
  8
外形線
100
AcDbLine
 10
305.3239144264294
 20
263.8386185865339
 30
0.0
 11
305.3239144264294
 21
251.3386185865339
 31
0.0
  0
LINE
  5
1891
330
18
100
AcDbEntity
  8
中心線
 48
0.5
100
AcDbLine
 10
307.8453222768621
 20
252.8386185865339
 30
0.0
 11
311.7837015408868
 21
252.8386185865339
 31
0.0
  0
LINE
  5
1892
330
18
100
AcDbEntity
  8
中心線
 48
0.5
100
AcDbLine
 10
309.5239144264294
 20
255.0267244006412
 30
0.0
 11
309.5239144264295
 21
250.2891520952903
 31
0.0
  0
CIRCLE
  5
1897
330
18
100
AcDbEntity
  8
外形線
100
AcDbCircle
 10
309.5239144264294
 20
252.8386185865339
 30
0.0
 40
1.0
  0
CIRCLE
  5
1898
330
18
100
AcDbEntity
  8
外形線
100
AcDbCircle
 10
309.5239144264294
 20
252.8386185865339
 30
0.0
 40
0.675
  0
LINE
  5
18A8
330
18
100
AcDbEntity
  8
中心線
 48
0.5
100
AcDbLine
 10
384.3938110680185
 20
299.5678417424837
 30
0.0
 11
384.3938110680185
 21
294.287722729438
 31
0.0
  0
LINE
  5
18B7
330
18
100
AcDbEntity
  8
外形線
100
AcDbLine
 10
384.494904579956
 20
252.788618586534
 30
0.0
 11
396.5078665506499
 21
252.788618586534
 31
0.0
  0
LINE
  5
18B9
330
18
100
AcDbEntity
  8
中心線
 48
0.5
100
AcDbLine
 10
381.4093297619016
 20
296.888618586534
 30
0.0
 11
387.2481011963164
 21
296.888618586534
 31
0.0
  0
LINE
  5
18BD
330
18
100
AcDbEntity
  8
中心線
 48
0.5
100
AcDbLine
 10
382.9093297619016
 20
255.088618586534
 30
0.0
 11
388.7481011963164
 21
255.0886185865341
 31
0.0
  0
LINE
  5
18BE
330
18
100
AcDbEntity
  8
外形線
100
AcDbLine
 10
386.4340023365679
 20
254.4448437015522
 30
0.0
 11
385.353619799469
 21
255.7323934715159
 31
0.0
  0
LINE
  5
18BF
330
18
100
AcDbEntity
  8
外形線
100
AcDbLine
 10
385.2500361830366
 20
254.5484273179846
 30
0.0
 11
386.5375859530003
 21
255.6288098550835
 31
0.0
  0
CIRCLE
  5
18C0
330
18
100
AcDbEntity
  8
外形線
100
AcDbCircle
 10
385.8938110680185
 20
255.088618586534
 30
0.0
 40
1.5
  0
LINE
  5
18C1
330
18
100
AcDbEntity
  8
中心線
 48
0.5
100
AcDbLine
 10
385.8938110680185
 20
257.7678417424837
 30
0.0
 11
385.8938110680185
 21
252.487722729438
 31
0.0
  0
LINE
  5
18C2
330
18
100
AcDbEntity
  8
中心線
 48
0.5
100
AcDbLine
 10
392.3093297619016
 20
255.0886185865341
 30
0.0
 11
398.1481011963164
 21
255.0886185865341
 31
0.0
  0
LINE
  5
18C3
330
18
100
AcDbEntity
  8
外形線
100
AcDbLine
 10
395.8340023365679
 20
254.4448437015522
 30
0.0
 11
394.753619799469
 21
255.7323934715159
 31
0.0
  0
LINE
  5
18C4
330
18
100
AcDbEntity
  8
外形線
100
AcDbLine
 10
394.6500361830366
 20
254.5484273179846
 30
0.0
 11
395.9375859530003
 21
255.6288098550835
 31
0.0
  0
CIRCLE
  5
18C5
330
18
100
AcDbEntity
  8
外形線
100
AcDbCircle
 10
395.2938110680185
 20
255.0886185865341
 30
0.0
 40
1.5
  0
LINE
  5
18C6
330
18
100
AcDbEntity
  8
中心線
 48
0.5
100
AcDbLine
 10
395.2938110680185
 20
257.7678417424837
 30
0.0
 11
395.2938110680184
 21
252.4877227294381
 31
0.0
  0
LINE
  5
18C7
330
18
100
AcDbEntity
  8
中心線
 48
0.5
100
AcDbLine
 10
395.2938110680185
 20
299.5678417424835
 30
0.0
 11
395.2938110680184
 21
294.2877227294379
 31
0.0
  0
LINE
  5
18C9
330
18
100
AcDbEntity
  8
中心線
 48
0.5
100
AcDbLine
 10
392.3093297619015
 20
296.888618586534
 30
0.0
 11
398.1481011963163
 21
296.8886185865341
 31
0.0
  0
LINE
  5
18CA
330
18
100
AcDbEntity
  8
外形線
100
AcDbLine
 10
395.8340023365678
 20
296.2448437015522
 30
0.0
 11
394.7536197994689
 21
297.5323934715159
 31
0.0
  0
LINE
  5
18CB
330
18
100
AcDbEntity
  8
外形線
100
AcDbLine
 10
394.6500361830366
 20
296.3484273179846
 30
0.0
 11
395.9375859530002
 21
297.4288098550836
 31
0.0
  0
CIRCLE
  5
18CC
330
18
100
AcDbEntity
  8
外形線
100
AcDbCircle
 10
395.2938110680184
 20
296.888618586534
 30
0.0
 40
1.5
  0
LINE
  5
18CF
330
18
100
AcDbEntity
  8
中心線
 48
0.5
100
AcDbLine
 10
370.0815385195862
 20
285.0386185865339
 30
0.0
 11
403.7452379963577
 21
285.0386185865339
 31
0.0
  0
LINE
  5
1903
330
18
100
AcDbEntity
  8
外形線
100
AcDbLine
 10
391.1938110680186
 20
238.8386185865341
 30
0.0
 11
388.6938110680185
 21
238.8386185865339
 31
0.0
  0
LINE
  5
1908
330
18
100
AcDbEntity
  8
外形線
100
AcDbLine
 10
389.3438110680185
 20
226.3386185865339
 30
0.0
 11
390.5438110680185
 21
226.3386185865339
 31
0.0
  0
LINE
  5
1927
330
18
100
AcDbEntity
  8
中心線
 48
0.5
100
AcDbLine
 10
387.5604088230338
 20
225.5386185865339
 30
0.0
 11
392.9045590332659
 21
225.5386185865339
 31
0.0
  0
LINE
  5
1928
330
18
100
AcDbEntity
  8
外形線
100
AcDbLine
 10
388.6938110680185
 20
242.9786185865339
 30
0.0
 11
388.8948115446627
 21
242.9786185865339
 31
0.0
  0
LINE
  5
192A
330
18
100
AcDbEntity
  8
外形線
100
AcDbLine
 10
388.6938110680185
 20
242.9786185865339
 30
0.0
 11
388.7394336551928
 21
243.0242411737081
 31
0.0
  0
LINE
  5
192B
330
18
100
AcDbEntity
  8
外形線
100
AcDbLine
 10
391.1481884808443
 20
243.0242411737081
 30
0.0
 11
391.1938110680186
 21
242.9786185865339
 31
0.0
  0
LINE
  5
192C
330
18
100
AcDbEntity
  8
外形線
100
AcDbLine
 10
390.9928105913744
 20
242.9786185865339
 30
0.0
 11
391.1938110680186
 21
242.9786185865339
 31
0.0
  0
LINE
  5
192E
330
18
100
AcDbEntity
  8
外形線
100
AcDbLine
 10
307.0739144264294
 20
238.8386185865339
 30
0.0
 11
307.7239144264294
 21
226.3386185865339
 31
0.0
  0
LINE
  5
192F
330
18
100
AcDbEntity
  8
外形線
100
AcDbLine
 10
309.5739144264294
 20
238.8386185865341
 30
0.0
 11
308.9239144264294
 21
226.3386185865339
 31
0.0
  0
LINE
  5
1930
330
18
100
AcDbEntity
  8
中心線
 48
0.5
100
AcDbLine
 10
305.9405121814447
 20
225.5386185865339
 30
0.0
 11
311.2846623916768
 21
225.5386185865339
 31
0.0
  0
LINE
  5
1931
330
18
100
AcDbEntity
  8
隠れ線
 62
     4
 48
0.3
100
AcDbLine
 10
308.3239144264295
 20
226.5382404163117
 30
0.0
 11
307.7239144264294
 21
226.3386185865339
 31
0.0
  0
LINE
  5
1932
330
18
100
AcDbEntity
  8
外形線
100
AcDbLine
 10
307.7239144264294
 20
226.3386185865339
 30
0.0
 11
308.9239144264294
 21
226.3386185865339
 31
0.0
  0
ARC
  5
1933
330
18
100
AcDbEntity
  8
外形線
100
AcDbCircle
 10
308.3239144264295
 20
225.5386185865339
 30
0.0
 40
1.0
100
AcDbArc
 50
126.869897645842
 51
53.13010235415791
  0
LINE
  5
1934
330
18
100
AcDbEntity
  8
隠れ線
 62
     4
 48
0.3
100
AcDbLine
 10
308.3239144264295
 20
226.5382404163117
 30
0.0
 11
308.9239144264294
 21
226.3386185865339
 31
0.0
  0
LINE
  5
1935
330
18
100
AcDbEntity
  8
外形線
100
AcDbLine
 10
309.5739144264294
 20
241.5786185865339
 30
0.0
 11
307.0739144264294
 21
241.5786185865339
 31
0.0
  0
LINE
  5
1936
330
18
100
AcDbEntity
  8
外形線
 62
     4
100
AcDbLine
 10
309.0542991841589
 20
241.2786185865339
 30
0.0
 11
307.5935296687001
 21
241.2786185865339
 31
0.0
  0
LINE
  5
1937
330
18
100
AcDbEntity
  8
外形線
100
AcDbLine
 10
309.5739144264294
 20
240.9786185865339
 30
0.0
 11
307.0739144264294
 21
240.9786185865339
 31
0.0
  0
LINE
  5
1938
330
18
100
AcDbEntity
  8
外形線
100
AcDbLine
 10
309.5739144264294
 20
238.8386185865341
 30
0.0
 11
307.0739144264294
 21
238.8386185865339
 31
0.0
  0
LINE
  5
193A
330
18
100
AcDbEntity
  8
外形線
100
AcDbLine
 10
307.0739144264294
 20
242.9786185865339
 30
0.0
 11
308.3239144264295
 21
242.9786185865339
 31
0.0
  0
LINE
  5
193B
330
18
100
AcDbEntity
  8
外形線
100
AcDbLine
 10
307.0739144264294
 20
242.9786185865339
 30
0.0
 11
307.0739144264294
 21
241.5786185865339
 31
0.0
  0
LINE
  5
193C
330
18
100
AcDbEntity
  8
外形線
100
AcDbLine
 10
307.0739144264294
 20
241.5786185865339
 30
0.0
 11
307.5935296687002
 21
241.278618586534
 31
0.0
  0
LINE
  5
193D
330
18
100
AcDbEntity
  8
外形線
100
AcDbLine
 10
307.0739144264294
 20
240.9786185865339
 30
0.0
 11
307.5935296687001
 21
241.278618586534
 31
0.0
  0
LINE
  5
193E
330
18
100
AcDbEntity
  8
外形線
100
AcDbLine
 10
307.0739144264294
 20
240.9786185865339
 30
0.0
 11
307.0739144264294
 21
238.8386185865339
 31
0.0
  0
LINE
  5
193F
330
18
100
AcDbEntity
  8
外形線
100
AcDbLine
 10
309.4739144264293
 20
243.0786185865339
 30
0.0
 11
309.5739144264294
 21
242.9786185865339
 31
0.0
  0
LINE
  5
1940
330
18
100
AcDbEntity
  8
外形線
100
AcDbLine
 10
308.3239144264295
 20
242.9786185865339
 30
0.0
 11
309.5739144264294
 21
242.9786185865339
 31
0.0
  0
LINE
  5
1941
330
18
100
AcDbEntity
  8
外形線
100
AcDbLine
 10
309.5739144264294
 20
242.9786185865339
 30
0.0
 11
309.5739144264294
 21
241.5786185865338
 31
0.0
  0
LINE
  5
1942
330
18
100
AcDbEntity
  8
外形線
100
AcDbLine
 10
309.5739144264294
 20
241.5786185865339
 30
0.0
 11
309.0542991841587
 21
241.278618586534
 31
0.0
  0
LINE
  5
1943
330
18
100
AcDbEntity
  8
外形線
100
AcDbLine
 10
309.5739144264294
 20
240.9786185865339
 30
0.0
 11
309.0542991841588
 21
241.278618586534
 31
0.0
  0
LINE
  5
1944
330
18
100
AcDbEntity
  8
外形線
100
AcDbLine
 10
309.5739144264294
 20
240.9786185865339
 30
0.0
 11
309.5739144264294
 21
238.8386185865341
 31
0.0
  0
LINE
  5
1945
330
18
100
AcDbEntity
  8
外形線
100
AcDbLine
 10
308.3239144264295
 20
243.0786185865339
 30
0.0
 11
310.1239144264294
 21
243.0786185865339
 31
0.0
  0
LINE
  5
1946
330
18
100
AcDbEntity
  8
外形線
100
AcDbLine
 10
308.3239144264295
 20
243.0786185865339
 30
0.0
 11
306.8239144264294
 21
243.0786185865339
 31
0.0
  0
LINE
  5
1947
330
18
100
AcDbEntity
  8
外形線
100
AcDbLine
 10
307.1739144264296
 20
243.0786185865339
 30
0.0
 11
307.0739144264294
 21
242.9786185865339
 31
0.0
  0
LINE
  5
1948
330
18
100
AcDbEntity
  8
外形線
100
AcDbLine
 10
309.3239144264295
 20
251.338618586534
 30
0.0
 11
309.3239144264294
 21
243.178618586534
 31
0.0
  0
LINE
  5
1949
330
18
100
AcDbEntity
  8
外形線
100
AcDbLine
 10
306.7239144264295
 20
250.5786185865339
 30
0.0
 11
306.7239144264294
 21
243.178618586534
 31
0.0
  0
LINE
  5
194A
330
18
100
AcDbEntity
  8
外形線
100
AcDbLine
 10
306.8239144264294
 20
250.6786185865339
 30
0.0
 11
309.2239144264295
 21
250.6786185865339
 31
0.0
  0
LINE
  5
194B
330
18
100
AcDbEntity
  8
外形線
100
AcDbLine
 10
306.7239144264295
 20
250.5786185865339
 30
0.0
 11
306.8239144264294
 21
250.6786185865339
 31
0.0
  0
LINE
  5
194C
330
18
100
AcDbEntity
  8
外形線
100
AcDbLine
 10
309.2239144264295
 20
250.6786185865339
 30
0.0
 11
309.3239144264294
 21
250.5786185865339
 31
0.0
  0
LINE
  5
194D
330
18
100
AcDbEntity
  8
外形線
100
AcDbLine
 10
306.7239144264294
 20
243.178618586534
 30
0.0
 11
306.8239144264294
 21
243.0786185865339
 31
0.0
  0
LINE
  5
194E
330
18
100
AcDbEntity
  8
外形線
100
AcDbLine
 10
309.3239144264294
 20
243.178618586534
 30
0.0
 11
309.2239144264294
 21
243.0786185865339
 31
0.0
  0
LINE
  5
194F
330
18
100
AcDbEntity
  8
外形線
100
AcDbLine
 10
310.1239144264294
 20
251.1813690061246
 30
0.0
 11
310.1239144264294
 21
243.0786185865339
 31
0.0
  0
LINE
  5
1952
330
18
100
AcDbEntity
  8
外形線
100
AcDbLine
 10
306.3209940104862
 20
248.8386185865339
 30
0.0
 11
306.3209940104862
 21
244.8386185865339
 31
0.0
  0
LINE
  5
1953
330
18
100
AcDbEntity
  8
外形線
100
AcDbLine
 10
306.3209940104862
 20
248.8386185865339
 30
0.0
 11
306.0445026617235
 21
248.8386185865339
 31
0.0
  0
LINE
  5
1954
330
18
100
AcDbEntity
  8
外形線
100
AcDbLine
 10
306.3209940104862
 20
244.8386185865339
 30
0.0
 11
305.9974438381941
 21
244.8386185865339
 31
0.0
  0
LINE
  5
1955
330
18
100
AcDbEntity
  8
外形線
100
AcDbLine
 10
306.3209940104862
 20
247.4886185865339
 30
0.0
 11
306.7239144264294
 21
247.4886185865339
 31
0.0
  0
LINE
  5
1956
330
18
100
AcDbEntity
  8
外形線
100
AcDbLine
 10
306.3209940104862
 20
246.1886185865339
 30
0.0
 11
306.7239144264294
 21
246.1886185865339
 31
0.0
  0
LINE
  5
1957
330
18
100
AcDbEntity
  8
外形線
100
AcDbLine
 10
310.1239144264294
 20
247.4886185865339
 30
0.0
 11
310.6192085440765
 21
247.4886185865339
 31
0.0
  0
LINE
  5
1958
330
18
100
AcDbEntity
  8
外形線
100
AcDbLine
 10
310.1239144264294
 20
246.1886185865339
 30
0.0
 11
310.6345026617236
 21
246.1886185865339
 31
0.0
  0
LINE
  5
1985
330
18
100
AcDbEntity
  8
0
  6
ByBlock
 62
     2
100
AcDbLine
 10
399.4438110680185
 20
299.8386185865339
 30
0.0
 11
399.4438110680185
 21
328.7417071247972
 31
0.0
  0
LINE
  5
1986
330
18
100
AcDbEntity
  8
0
  6
ByBlock
 62
     2
100
AcDbLine
 10
395.2938110680186
 20
327.4917071247972
 30
0.0
 11
392.7938110680186
 21
327.4917071247972
 31
0.0
  0
LINE
  5
1987
330
18
100
AcDbEntity
  8
0
  6
ByBlock
 62
     2
100
AcDbLine
 10
401.9438110680185
 20
327.4917071247972
 30
0.0
 11
410.7804369993917
 21
327.4917071247972
 31
0.0
  0
MTEXT
  5
1988
330
18
100
AcDbEntity
  8
0
  6
ByBlock
 62
     6
100
AcDbMText
 10
406.3469719453591
 20
329.7255428190561
 30
0.0
 40
2.5
 41
0.0
 71
     5
 72
     1
  1
\A1;1.65
  7
STYLE3
 73
     1
 44
1.0
  0
LINE
  5
1989
330
18
100
AcDbEntity
  8
0
  6
ByBlock
 62
     2
100
AcDbLine
 10
397.7938110680185
 20
327.4917071247972
 30
0.0
 11
399.4438110680185
 21
327.4917071247972
 31
0.0
  0
LINE
  5
198A
330
18
100
AcDbEntity
  8
0
  6
ByBlock
 62
     2
100
AcDbLine
 10
397.7938110680185
 20
327.4917071247972
 30
0.0
 11
399.4438110680185
 21
327.4917071247972
 31
0.0
  0
INSERT
  5
198B
330
18
100
AcDbEntity
  8
0
  6
ByBlock
 62
     2
100
AcDbBlockReference
  2
_OPEN
 10
397.7938110680185
 20
327.4917071247972
 30
0.0
 41
2.5
 42
2.5
 43
2.5
  0
INSERT
  5
198C
330
18
100
AcDbEntity
  8
0
  6
ByBlock
 62
     2
100
AcDbBlockReference
  2
_OPEN
 10
399.4438110680185
 20
327.4917071247972
 30
0.0
 41
2.5
 42
2.5
 43
2.5
 50
180.0
  0
POINT
  5
198D
330
18
100
AcDbEntity
  8
DEFPOINTS
  6
ByBlock
 62
     0
100
AcDbPoint
 10
397.7938110680185
 20
300.188618586534
 30
0.0
  0
POINT
  5
198E
330
18
100
AcDbEntity
  8
DEFPOINTS
  6
ByBlock
 62
     0
100
AcDbPoint
 10
399.4438110680185
 20
299.8386185865339
 30
0.0
  0
POINT
  5
198F
330
18
100
AcDbEntity
  8
DEFPOINTS
  6
ByBlock
 62
     0
100
AcDbPoint
 10
399.4438110680185
 20
327.4917071247972
 30
0.0
  0
LINE
  5
1B3E
330
18
100
AcDbEntity
  8
0
  6
ByBlock
 62
     2
100
AcDbLine
 10
389.9438110680185
 20
317.838618586534
 30
0.0
 11
411.7501044695164
 21
317.838618586534
 31
0.0
  0
LINE
  5
1B3F
330
18
100
AcDbEntity
  8
0
  6
ByBlock
 62
     2
100
AcDbLine
 10
397.4438110680185
 20
301.838618586534
 30
0.0
 11
411.7501044695164
 21
301.838618586534
 31
0.0
  0
LINE
  5
1B40
330
18
100
AcDbEntity
  8
0
  6
ByBlock
 62
     2
100
AcDbLine
 10
410.5001044695164
 20
315.338618586534
 30
0.0
 11
410.5001044695164
 21
304.338618586534
 31
0.0
  0
INSERT
  5
1B41
330
18
100
AcDbEntity
  8
0
  6
ByBlock
 62
     2
100
AcDbBlockReference
  2
_OPEN
 10
410.5001044695164
 20
317.838618586534
 30
0.0
 41
2.5
 42
2.5
 43
2.5
 50
90.0
  0
INSERT
  5
1B42
330
18
100
AcDbEntity
  8
0
  6
ByBlock
 62
     2
100
AcDbBlockReference
  2
_OPEN
 10
410.5001044695164
 20
301.838618586534
 30
0.0
 41
2.5
 42
2.5
 43
2.5
 50
270.0
  0
MTEXT
  5
1B43
330
18
100
AcDbEntity
  8
0
  6
ByBlock
 62
     6
100
AcDbMText
 10
408.6251044695164
 20
309.838618586534
 30
0.0
 40
2.5
 41
0.0
 71
     5
 72
     1
  1
\A1;16
  7
STYLE3
 11
0.0000000000000001
 21
1.0
 31
0.0
 73
     1
 44
1.0
  0
POINT
  5
1B44
330
18
100
AcDbEntity
  8
DEFPOINTS
  6
ByBlock
 62
     0
100
AcDbPoint
 10
389.9438110680185
 20
317.838618586534
 30
0.0
  0
POINT
  5
1B45
330
18
100
AcDbEntity
  8
DEFPOINTS
  6
ByBlock
 62
     0
100
AcDbPoint
 10
397.4438110680185
 20
301.838618586534
 30
0.0
  0
POINT
  5
1B46
330
18
100
AcDbEntity
  8
DEFPOINTS
  6
ByBlock
 62
     0
100
AcDbPoint
 10
410.5001044695164
 20
301.838618586534
 30
0.0
  0
LINE
  5
1B47
330
18
100
AcDbEntity
  8
0
  6
ByBlock
 62
     2
100
AcDbLine
 10
373.4438110680185
 20
285.0386185865339
 30
0.0
 11
373.4438110680185
 21
334.1413859376857
 31
0.0
  0
LINE
  5
1B48
330
18
100
AcDbEntity
  8
0
  6
ByBlock
 62
     2
100
AcDbLine
 10
399.4438110680185
 20
328.7417071247972
 30
0.0
 11
399.4438110680185
 21
334.1413859376857
 31
0.0
  0
LINE
  5
1B49
330
18
100
AcDbEntity
  8
0
  6
ByBlock
 62
     2
100
AcDbLine
 10
375.9438110680185
 20
332.8913859376858
 30
0.0
 11
396.9438110680185
 21
332.8913859376858
 31
0.0
  0
INSERT
  5
1B4A
330
18
100
AcDbEntity
  8
0
  6
ByBlock
 62
     2
100
AcDbBlockReference
  2
_OPEN
 10
373.4438110680185
 20
332.8913859376858
 30
0.0
 41
2.5
 42
2.5
 43
2.5
 50
180.0
  0
INSERT
  5
1B4B
330
18
100
AcDbEntity
  8
0
  6
ByBlock
 62
     2
100
AcDbBlockReference
  2
_OPEN
 10
399.4438110680185
 20
332.8913859376858
 30
0.0
 41
2.5
 42
2.5
 43
2.5
  0
MTEXT
  5
1B4C
330
18
100
AcDbEntity
  8
0
  6
ByBlock
 62
     6
100
AcDbMText
 10
386.4438110680185
 20
334.7663859376857
 30
0.0
 40
2.5
 41
0.0
 71
     5
 72
     1
  1
\A1;26
  7
STYLE3
 73
     1
 44
1.0
  0
POINT
  5
1B4D
330
18
100
AcDbEntity
  8
DEFPOINTS
  6
ByBlock
 62
     0
100
AcDbPoint
 10
373.4438110680185
 20
285.0386185865339
 30
0.0
  0
POINT
  5
1B4E
330
18
100
AcDbEntity
  8
DEFPOINTS
  6
ByBlock
 62
     0
100
AcDbPoint
 10
399.4438110680185
 20
328.7417071247972
 30
0.0
  0
POINT
  5
1B4F
330
18
100
AcDbEntity
  8
DEFPOINTS
  6
ByBlock
 62
     0
100
AcDbPoint
 10
399.4438110680185
 20
332.8913859376858
 30
0.0
  0
LINE
  5
1B50
330
18
100
AcDbEntity
  8
寸法線
 62
     2
100
AcDbLine
 10
398.5313327021538
 20
272.8596793367882
 30
0.0
 11
405.7125188827253
 21
282.1609492716463
 31
0.0
1001
ACAD
1000
DSTYLE
1002
{
1070
   271
1070
     2
1002
}
  0
LINE
  5
1B51
330
18
100
AcDbEntity
  8
寸法線
 62
     2
100
AcDbLine
 10
405.7125188827253
 20
282.1609492716463
 30
0.0
 11
410.7422807874872
 21
282.1609492716463
 31
0.0
1001
ACAD
1000
DSTYLE
1002
{
1070
   271
1070
     2
1002
}
  0
LINE
  5
1B52
330
18
100
AcDbEntity
  8
0
  6
ByBlock
 62
     2
100
AcDbLine
 10
333.044396932412
 20
318.0386185865339
 30
0.0
 11
346.3075696908944
 21
318.0386185865339
 31
0.0
  0
LINE
  5
1B53
330
18
100
AcDbEntity
  8
0
  6
ByBlock
 62
     2
100
AcDbLine
 10
308.3239144264295
 20
224.5386185865339
 30
0.0
 11
346.3075696908944
 21
224.5386185865339
 31
0.0
  0
LINE
  5
1B54
330
18
100
AcDbEntity
  8
0
  6
ByBlock
 62
     2
100
AcDbLine
 10
345.0575696908944
 20
315.5386185865339
 30
0.0
 11
345.0575696908944
 21
227.0386185865339
 31
0.0
  0
INSERT
  5
1B55
330
18
100
AcDbEntity
  8
0
  6
ByBlock
 62
     2
100
AcDbBlockReference
  2
_OPEN
 10
345.0575696908944
 20
318.0386185865339
 30
0.0
 41
2.5
 42
2.5
 43
2.5
 50
90.0
  0
INSERT
  5
1B56
330
18
100
AcDbEntity
  8
0
  6
ByBlock
 62
     2
100
AcDbBlockReference
  2
_OPEN
 10
345.0575696908944
 20
224.5386185865339
 30
0.0
 41
2.5
 42
2.5
 43
2.5
 50
270.0
  0
MTEXT
  5
1B57
330
18
100
AcDbEntity
  8
0
  6
ByBlock
 62
     6
100
AcDbMText
 10
343.1825696908944
 20
271.2886185865339
 30
0.0
 40
2.5
 41
0.0
 71
     5
 72
     1
  1
\A1;93.3
  7
STYLE3
 11
0.0000000000000001
 21
1.0
 31
0.0
 73
     1
 44
1.0
  0
POINT
  5
1B58
330
18
100
AcDbEntity
  8
DEFPOINTS
  6
ByBlock
 62
     0
100
AcDbPoint
 10
333.044396932412
 20
318.0386185865339
 30
0.0
  0
POINT
  5
1B59
330
18
100
AcDbEntity
  8
DEFPOINTS
  6
ByBlock
 62
     0
100
AcDbPoint
 10
308.3239144264295
 20
224.5386185865339
 30
0.0
  0
POINT
  5
1B5A
330
18
100
AcDbEntity
  8
DEFPOINTS
  6
ByBlock
 62
     0
100
AcDbPoint
 10
345.0575696908944
 20
224.5386185865339
 30
0.0
  0
LINE
  5
1B5B
330
18
100
AcDbEntity
  8
0
  6
ByBlock
 62
     2
100
AcDbLine
 10
376.5075530366113
 20
302.5386185865339
 30
0.0
 11
363.997715719664
 21
302.5386185865339
 31
0.0
  0
LINE
  5
1B5C
330
18
100
AcDbEntity
  8
0
  6
ByBlock
 62
     2
100
AcDbLine
 10
376.5075530366113
 20
267.5386185865339
 30
0.0
 11
363.997715719664
 21
267.5386185865339
 31
0.0
  0
LINE
  5
1B5D
330
18
100
AcDbEntity
  8
0
  6
ByBlock
 62
     2
100
AcDbLine
 10
365.247715719664
 20
300.0386185865339
 30
0.0
 11
365.247715719664
 21
270.0386185865339
 31
0.0
  0
INSERT
  5
1B5E
330
18
100
AcDbEntity
  8
0
  6
ByBlock
 62
     2
100
AcDbBlockReference
  2
_OPEN
 10
365.247715719664
 20
302.5386185865339
 30
0.0
 41
2.5
 42
2.5
 43
2.5
 50
90.0
  0
INSERT
  5
1B5F
330
18
100
AcDbEntity
  8
0
  6
ByBlock
 62
     2
100
AcDbBlockReference
  2
_OPEN
 10
365.247715719664
 20
267.5386185865339
 30
0.0
 41
2.5
 42
2.5
 43
2.5
 50
270.0
  0
MTEXT
  5
1B60
330
18
100
AcDbEntity
  8
0
  6
ByBlock
 62
     6
100
AcDbMText
 10
363.372715719664
 20
285.0386185865339
 30
0.0
 40
2.5
 41
0.0
 71
     5
 72
     1
  1
\A1;φ35
  7
STYLE3
 11
0.0000000000000001
 21
1.0
 31
0.0
 73
     1
 44
1.0
  0
POINT
  5
1B61
330
18
100
AcDbEntity
  8
DEFPOINTS
  6
ByBlock
 62
     0
100
AcDbPoint
 10
376.5075530366113
 20
302.5386185865339
 30
0.0
  0
POINT
  5
1B62
330
18
100
AcDbEntity
  8
DEFPOINTS
  6
ByBlock
 62
     0
100
AcDbPoint
 10
376.5075530366113
 20
267.5386185865339
 30
0.0
  0
POINT
  5
1B63
330
18
100
AcDbEntity
  8
DEFPOINTS
  6
ByBlock
 62
     0
100
AcDbPoint
 10
365.247715719664
 20
267.5386185865339
 30
0.0
  0
LINE
  5
1B64
330
18
100
AcDbEntity
  8
0
  6
ByBlock
 62
     2
100
AcDbLine
 10
316.4123905382195
 20
246.8386185865339
 30
0.0
 11
333.044396932412
 21
246.8386185865339
 31
0.0
  0
LINE
  5
1B65
330
18
100
AcDbEntity
  8
0
  6
ByBlock
 62
     2
100
AcDbLine
 10
311.2846623916768
 20
225.5386185865339
 30
0.0
 11
333.044396932412
 21
225.5386185865339
 31
0.0
  0
LINE
  5
1B66
330
18
100
AcDbEntity
  8
0
  6
ByBlock
 62
     2
100
AcDbLine
 10
331.7943969324121
 20
244.3386185865339
 30
0.0
 11
331.7943969324121
 21
228.0386185865339
 31
0.0
  0
INSERT
  5
1B67
330
18
100
AcDbEntity
  8
0
  6
ByBlock
 62
     2
100
AcDbBlockReference
  2
_OPEN
 10
331.7943969324121
 20
246.8386185865339
 30
0.0
 41
2.5
 42
2.5
 43
2.5
 50
90.0
  0
INSERT
  5
1B68
330
18
100
AcDbEntity
  8
0
  6
ByBlock
 62
     2
100
AcDbBlockReference
  2
_OPEN
 10
331.7943969324121
 20
225.5386185865339
 30
0.0
 41
2.5
 42
2.5
 43
2.5
 50
270.0
  0
MTEXT
  5
1B69
330
18
100
AcDbEntity
  8
0
  6
ByBlock
 62
     6
100
AcDbMText
 10
329.919396932412
 20
236.1886185865339
 30
0.0
 40
2.5
 41
0.0
 71
     5
 72
     1
  1
\A1;21.3
  7
STYLE3
 11
0.0000000000000001
 21
1.0
 31
0.0
 73
     1
 44
1.0
  0
POINT
  5
1B6A
330
18
100
AcDbEntity
  8
DEFPOINTS
  6
ByBlock
 62
     0
100
AcDbPoint
 10
316.4123905382195
 20
246.8386185865339
 30
0.0
  0
POINT
  5
1B6B
330
18
100
AcDbEntity
  8
DEFPOINTS
  6
ByBlock
 62
     0
100
AcDbPoint
 10
311.2846623916768
 20
225.5386185865339
 30
0.0
  0
POINT
  5
1B6C
330
18
100
AcDbEntity
  8
DEFPOINTS
  6
ByBlock
 62
     0
100
AcDbPoint
 10
331.7943969324121
 20
225.5386185865339
 30
0.0
  0
LINE
  5
1B6D
330
18
100
AcDbEntity
  8
0
  6
ByBlock
 62
     2
100
AcDbLine
 10
303.3239144264294
 20
244.8386185865339
 30
0.0
 11
303.3239144264294
 21
237.2821388696763
 31
0.0
  0
LINE
  5
1B6E
330
18
100
AcDbEntity
  8
0
  6
ByBlock
 62
     2
100
AcDbLine
 10
313.3239144264294
 20
244.8386185865339
 30
0.0
 11
313.3239144264294
 21
237.2821388696763
 31
0.0
  0
LINE
  5
1B6F
330
18
100
AcDbEntity
  8
0
  6
ByBlock
 62
     2
100
AcDbLine
 10
305.8239144264295
 20
238.5321388696763
 30
0.0
 11
310.8239144264294
 21
238.5321388696763
 31
0.0
  0
LINE
  5
1B70
330
18
100
AcDbEntity
  8
0
  6
ByBlock
 62
     2
100
AcDbLine
 10
313.3239144264294
 20
238.5321388696763
 30
0.0
 11
324.2167715692866
 21
238.5321388696763
 31
0.0
  0
INSERT
  5
1B71
330
18
100
AcDbEntity
  8
0
  6
ByBlock
 62
     2
100
AcDbBlockReference
  2
_OPEN
 10
303.3239144264294
 20
238.5321388696763
 30
0.0
 41
2.5
 42
2.5
 43
2.5
 50
180.0
  0
INSERT
  5
1B72
330
18
100
AcDbEntity
  8
0
  6
ByBlock
 62
     2
100
AcDbBlockReference
  2
_OPEN
 10
313.3239144264294
 20
238.5321388696763
 30
0.0
 41
2.5
 42
2.5
 43
2.5
  0
MTEXT
  5
1B73
330
18
100
AcDbEntity
  8
0
  6
ByBlock
 62
     6
100
AcDbMText
 10
320.020342997858
 20
241.0619007744382
 30
0.0
 40
2.5
 41
0.0
 71
     5
 72
     1
  1
\A1;(10)
  7
STYLE3
 73
     1
 44
1.0
  0
POINT
  5
1B74
330
18
100
AcDbEntity
  8
DEFPOINTS
  6
ByBlock
 62
     0
100
AcDbPoint
 10
303.3239144264294
 20
244.8386185865339
 30
0.0
  0
POINT
  5
1B75
330
18
100
AcDbEntity
  8
DEFPOINTS
  6
ByBlock
 62
     0
100
AcDbPoint
 10
313.3239144264294
 20
244.8386185865339
 30
0.0
  0
POINT
  5
1B76
330
18
100
AcDbEntity
  8
DEFPOINTS
  6
ByBlock
 62
     0
100
AcDbPoint
 10
313.3239144264294
 20
238.5321388696763
 30
0.0
  0
LINE
  5
1B77
330
18
100
AcDbEntity
  8
0
  6
ByBlock
 62
     2
100
AcDbLine
 10
304.3239144264294
 20
242.8386185865339
 30
0.0
 11
295.0260693528696
 21
242.8386185865339
 31
0.0
  0
LINE
  5
1B78
330
18
100
AcDbEntity
  8
0
  6
ByBlock
 62
     2
100
AcDbLine
 10
305.9405121814447
 20
225.5386185865339
 30
0.0
 11
295.0260693528696
 21
225.5386185865339
 31
0.0
  0
LINE
  5
1B79
330
18
100
AcDbEntity
  8
0
  6
ByBlock
 62
     2
100
AcDbLine
 10
296.2760693528696
 20
240.3386185865339
 30
0.0
 11
296.2760693528696
 21
228.0386185865339
 31
0.0
  0
INSERT
  5
1B7A
330
18
100
AcDbEntity
  8
0
  6
ByBlock
 62
     2
100
AcDbBlockReference
  2
_OPEN
 10
296.2760693528696
 20
242.8386185865339
 30
0.0
 41
2.5
 42
2.5
 43
2.5
 50
90.0
  0
INSERT
  5
1B7B
330
18
100
AcDbEntity
  8
0
  6
ByBlock
 62
     2
100
AcDbBlockReference
  2
_OPEN
 10
296.2760693528696
 20
225.5386185865339
 30
0.0
 41
2.5
 42
2.5
 43
2.5
 50
270.0
  0
MTEXT
  5
1B7C
330
18
100
AcDbEntity
  8
0
  6
ByBlock
 62
     6
100
AcDbMText
 10
294.4010693528696
 20
234.1886185865339
 30
0.0
 40
2.5
 41
0.0
 71
     5
 72
     1
  1
\A1;17
  7
STYLE3
 11
0.0000000000000001
 21
1.0
 31
0.0
 73
     1
 44
1.0
  0
POINT
  5
1B7D
330
18
100
AcDbEntity
  8
DEFPOINTS
  6
ByBlock
 62
     0
100
AcDbPoint
 10
304.3239144264294
 20
242.8386185865339
 30
0.0
  0
POINT
  5
1B7E
330
18
100
AcDbEntity
  8
DEFPOINTS
  6
ByBlock
 62
     0
100
AcDbPoint
 10
305.9405121814447
 20
225.5386185865339
 30
0.0
  0
POINT
  5
1B7F
330
18
100
AcDbEntity
  8
DEFPOINTS
  6
ByBlock
 62
     0
100
AcDbPoint
 10
296.2760693528696
 20
225.5386185865339
 30
0.0
  0
LINE
  5
1B80
330
18
100
AcDbEntity
  8
0
  6
ByBlock
 62
     2
100
AcDbLine
 10
445.3925495566716
 20
272.9873291026056
 30
0.0
 11
445.3925495566716
 21
284.0130933313504
 31
0.0
  0
LINE
  5
1B81
330
18
100
AcDbEntity
  8
0
  6
ByBlock
 62
     2
100
AcDbLine
 10
457.8466805014654
 20
272.9873291026056
 30
0.0
 11
457.8466805014654
 21
284.0130933313504
 31
0.0
  0
LINE
  5
1B82
330
18
100
AcDbEntity
  8
0
  6
ByBlock
 62
     2
100
AcDbLine
 10
447.8925495566715
 20
282.7630933313504
 30
0.0
 11
455.3466805014655
 21
282.7630933313504
 31
0.0
  0
INSERT
  5
1B83
330
18
100
AcDbEntity
  8
0
  6
ByBlock
 62
     2
100
AcDbBlockReference
  2
_OPEN
 10
445.3925495566716
 20
282.7630933313504
 30
0.0
 41
2.5
 42
2.5
 43
2.5
 50
180.0
  0
INSERT
  5
1B84
330
18
100
AcDbEntity
  8
0
  6
ByBlock
 62
     2
100
AcDbBlockReference
  2
_OPEN
 10
457.8466805014654
 20
282.7630933313504
 30
0.0
 41
2.5
 42
2.5
 43
2.5
  0
MTEXT
  5
1B85
330
18
100
AcDbEntity
  8
0
  6
ByBlock
 62
     6
100
AcDbMText
 10
451.6196150290685
 20
285.2928552361122
 30
0.0
 40
2.5
 41
0.0
 71
     5
 72
     1
  1
\A1;(6.35)
  7
STYLE3
 73
     1
 44
1.0
  0
POINT
  5
1B86
330
18
100
AcDbEntity
  8
DEFPOINTS
  6
ByBlock
 62
     0
100
AcDbPoint
 10
445.3925495566716
 20
272.9873291026056
 30
0.0
  0
POINT
  5
1B87
330
18
100
AcDbEntity
  8
DEFPOINTS
  6
ByBlock
 62
     0
100
AcDbPoint
 10
457.8466805014654
 20
272.9873291026056
 30
0.0
  0
POINT
  5
1B88
330
18
100
AcDbEntity
  8
DEFPOINTS
  6
ByBlock
 62
     0
100
AcDbPoint
 10
457.8466805014654
 20
282.7630933313504
 30
0.0
  0
LINE
  5
1B89
330
18
100
AcDbEntity
  8
0
  6
ByBlock
 62
     2
100
AcDbLine
 10
443.2025495566715
 20
271.1873291026055
 30
0.0
 11
443.2025495566715
 21
290.6130747337528
 31
0.0
  0
LINE
  5
1B8A
330
18
100
AcDbEntity
  8
0
  6
ByBlock
 62
     2
100
AcDbLine
 10
460.2825495566717
 20
271.1873291026055
 30
0.0
 11
460.2825495566717
 21
290.6130747337528
 31
0.0
  0
LINE
  5
1B8B
330
18
100
AcDbEntity
  8
0
  6
ByBlock
 62
     2
100
AcDbLine
 10
445.7025495566715
 20
289.3630747337528
 30
0.0
 11
457.7825495566717
 21
289.3630747337528
 31
0.0
  0
INSERT
  5
1B8C
330
18
100
AcDbEntity
  8
0
  6
ByBlock
 62
     2
100
AcDbBlockReference
  2
_OPEN
 10
443.2025495566715
 20
289.3630747337528
 30
0.0
 41
2.5
 42
2.5
 43
2.5
 50
180.0
  0
INSERT
  5
1B8D
330
18
100
AcDbEntity
  8
0
  6
ByBlock
 62
     2
100
AcDbBlockReference
  2
_OPEN
 10
460.2825495566717
 20
289.3630747337528
 30
0.0
 41
2.5
 42
2.5
 43
2.5
  0
MTEXT
  5
1B8E
330
18
100
AcDbEntity
  8
0
  6
ByBlock
 62
     6
100
AcDbMText
 10
451.7425495566716
 20
291.2380747337528
 30
0.0
 40
2.5
 41
0.0
 71
     5
 72
     1
  1
\A1;8.54
  7
STYLE3
 73
     1
 44
1.0
  0
POINT
  5
1B8F
330
18
100
AcDbEntity
  8
DEFPOINTS
  6
ByBlock
 62
     0
100
AcDbPoint
 10
443.2025495566715
 20
271.1873291026055
 30
0.0
  0
POINT
  5
1B90
330
18
100
AcDbEntity
  8
DEFPOINTS
  6
ByBlock
 62
     0
100
AcDbPoint
 10
460.2825495566717
 20
271.1873291026055
 30
0.0
  0
POINT
  5
1B91
330
18
100
AcDbEntity
  8
DEFPOINTS
  6
ByBlock
 62
     0
100
AcDbPoint
 10
460.2825495566717
 20
289.3630747337528
 30
0.0
  0
LINE
  5
1B92
330
18
100
AcDbEntity
  8
0
  6
ByBlock
 62
     2
100
AcDbLine
 10
304.3239144264295
 20
258.9608217247195
 30
0.0
 11
304.3239144264295
 21
257.2029062936899
 31
0.0
  0
LINE
  5
1B93
330
18
100
AcDbEntity
  8
0
  6
ByBlock
 62
     2
100
AcDbLine
 10
312.3239144264295
 20
258.5375590188846
 30
0.0
 11
312.3239144264295
 21
257.2029062936899
 31
0.0
  0
LINE
  5
1B94
330
18
100
AcDbEntity
  8
0
  6
ByBlock
 62
     2
100
AcDbLine
 10
306.8239144264295
 20
258.4529062936899
 30
0.0
 11
309.8239144264295
 21
258.4529062936899
 31
0.0
  0
LINE
  5
1B95
330
18
100
AcDbEntity
  8
0
  6
ByBlock
 62
     2
100
AcDbLine
 10
312.3239144264295
 20
258.4529062936899
 30
0.0
 11
317.7405810930962
 21
258.4529062936899
 31
0.0
  0
INSERT
  5
1B96
330
18
100
AcDbEntity
  8
0
  6
ByBlock
 62
     2
100
AcDbBlockReference
  2
_OPEN
 10
304.3239144264295
 20
258.4529062936899
 30
0.0
 41
2.5
 42
2.5
 43
2.5
 50
180.0
  0
INSERT
  5
1B97
330
18
100
AcDbEntity
  8
0
  6
ByBlock
 62
     2
100
AcDbBlockReference
  2
_OPEN
 10
312.3239144264295
 20
258.4529062936899
 30
0.0
 41
2.5
 42
2.5
 43
2.5
  0
MTEXT
  5
1B98
330
18
100
AcDbEntity
  8
0
  6
ByBlock
 62
     6
100
AcDbMText
 10
316.2822477597628
 20
260.3279062936899
 30
0.0
 40
2.5
 41
0.0
 71
     5
 72
     1
  1
\A1;8
  7
STYLE3
 73
     1
 44
1.0
  0
POINT
  5
1B99
330
18
100
AcDbEntity
  8
DEFPOINTS
  6
ByBlock
 62
     0
100
AcDbPoint
 10
304.3239144264295
 20
258.9608217247195
 30
0.0
  0
POINT
  5
1B9A
330
18
100
AcDbEntity
  8
DEFPOINTS
  6
ByBlock
 62
     0
100
AcDbPoint
 10
312.3239144264295
 20
258.5375590188846
 30
0.0
  0
POINT
  5
1B9B
330
18
100
AcDbEntity
  8
DEFPOINTS
  6
ByBlock
 62
     0
100
AcDbPoint
 10
312.3239144264295
 20
258.4529062936899
 30
0.0
  0
HATCH
  5
1B9C
330
18
100
AcDbEntity
  8
ROGO
 62
     4
100
AcDbHatch
 10
0.0
 20
0.0
 30
0.0
210
0.0
220
0.0
230
1.0
  2
SOLID
 70
     1
 71
     1
 91
        1
 92
        7
 72
     0
 73
     1
 93
       11
 10
311.8205310842514
 20
290.3549174757939
 10
312.3138375636565
 20
290.3549174757939
 10
312.4880737457884
 20
290.7043456680359
 10
312.6623099279203
 20
290.3549174757939
 10
313.1556056141763
 20
290.3549174757939
 10
312.8218342834079
 20
291.0242911460936
 10
313.6327695051473
 20
291.6936648163934
 10
313.1394738188912
 20
291.6936648163934
 10
312.9084981506423
 20
291.5475008494972
 10
312.9813802251935
 20
291.6936648163934
 10
312.4880737457884
 20
291.6936648163934
 97
       11
330
1BEA
330
1BED
330
1BEC
330
1BEB
330
1BA1
330
1B9E
330
1BE7
330
1BE6
330
1BE8
330
1BE5
330
1BE9
 75
     0
 76
     1
 47
0.0514683685270805
 98
        1
 10
312.4456180419167
 20
291.1193161192667
450
        0
451
        0
460
0.0
461
0.0
452
        0
462
0.0
453
        0
470

  0
HATCH
  5
1B9D
330
18
100
AcDbEntity
  8
ROGO
 62
     4
100
AcDbHatch
 10
0.0
 20
0.0
 30
0.0
210
0.0
220
0.0
230
1.0
  2
SOLID
 70
     1
 71
     1
 91
        1
 92
        5
 93
        8
 72
     4
 94
        3
 73
     0
 74
     0
 95
       26
 96
       22
 40
0.0
 40
0.0
 40
0.0
 40
0.0
 40
0.1554262224697466
 40
0.259472043428914
 40
0.334497553508692
 40
0.3905166742937239
 40
0.4631764140703667
 40
0.5162109407029199
 40
0.611978934548696
 40
0.6899327047202036
 40
0.7429537591807938
 40
0.7949436177461204
 40
0.8879433672701603
 40
0.9537052901626415
 40
0.9891231664310728
 40
1.039433213441979
 40
1.075763227239446
 40
1.128393422802098
 40
1.158177561081289
 40
1.222991186867537
 40
1.252585651432248
 40
1.252585651432248
 40
1.252585651432248
 40
1.252585651432248
 10
311.4506375876924
 20
291.6936648163934
 10
311.3978835263183
 20
291.6905174186282
 10
311.3098147057137
 20
291.6852630817688
 10
311.2131156764377
 20
291.626519459954
 10
311.1422683065185
 20
291.5923684997134
 10
311.0917400482126
 20
291.5459431787366
 10
311.054702630048
 20
291.497989213473
 10
311.0080100114107
 20
291.440852415469
 10
310.969933515155
 20
291.3743189262968
 10
310.9505434704312
 20
291.300987422236
 10
310.9333679528463
 20
291.2425417880167
 10
310.9206303014712
 20
291.1774117559902
 10
310.9238711205792
 20
291.1070484098543
 10
310.9285121218625
 20
291.0416985361923
 10
310.9492330640493
 20
290.9950485106153
 10
310.9728305468888
 20
290.9618369070198
 10
311.0017253414602
 20
290.9252580076566
 10
311.0333425654937
 20
290.9010319210551
 10
311.0594925905469
 20
290.8571447372233
 10
311.1052673272483
 20
290.8515444160497
 10
311.1343635709744
 20
290.8403981054424
 10
311.1434844815946
 20
290.8369040288959
 72
     1
 10
311.1434844815945
 20
290.8369040288959
 11
311.8814238263146
 21
290.8369040288959
 72
     1
 10
311.8814238263146
 20
290.8369040288959
 11
312.0403714402445
 21
291.1556712144319
 72
     1
 10
312.0403714402445
 20
291.1556712144319
 11
311.4925219561943
 21
291.1556712144318
 72
     4
 94
        3
 73
     0
 74
     0
 95
       16
 96
       12
 40
0.0
 40
0.0
 40
0.0
 40
0.0
 40
0.0469383062219322
 40
0.09436074697509
 40
0.1226461015324554
 40
0.1497659350698329
 40
0.1795499550119341
 40
0.2003488931588332
 40
0.2200852803387359
 40
0.2601078399996977
 40
0.3420494343556458
 40
0.3420494343556458
 40
0.3420494343556458
 40
0.3420494343556458
 10
311.4925219561943
 20
291.1556712144319
 10
311.4759968851036
 20
291.1605331326478
 10
311.442776298818
 20
291.1703071162343
 10
311.4399960040083
 20
291.2176877979894
 10
311.4437837534477
 20
291.2514504108879
 10
311.4596468565605
 20
291.2760315646877
 10
311.4788915520547
 20
291.2939175883115
 10
311.4860572057133
 20
291.3172113374926
 10
311.5071199917828
 20
291.3348010324263
 10
311.5444699551431
 20
291.364366852493
 10
311.5857725489572
 20
291.3706637115616
 10
311.6135216889848
 20
291.3748942551643
 72
     1
 10
311.6135216889848
 20
291.3748942551643
 11
312.1496831285988
 21
291.3748942551643
 72
     1
 10
312.1496831285988
 20
291.3748942551643
 11
312.3086324257584
 21
291.6936648163934
 72
     1
 10
312.3086324257584
 20
291.6936648163934
 11
311.4506375876922
 21
291.6936648163934
 97
        8
330
1B9F
330
1BC3
330
1BCF
330
1BC8
330
1BE3
330
1BE2
330
1BE4
330
1BA0
 75
     0
 76
     1
 47
0.0514683685270805
 98
        1
 10
311.598689757129
 20
291.5367890021059
450
        0
451
        0
460
0.0
461
0.0
452
        0
462
0.0
453
        0
470

  0
LINE
  5
1B9E
102
{ACAD_REACTORS
330
1BA7
330
1B9C
102
}
330
18
100
AcDbEntity
  8
ROGO
 62
     4
100
AcDbLine
 10
303.251850439405
 20
290.3549174757939
 30
0.0
 11
312.3138375636565
 21
290.3549174757939
 31
0.0
  0
LINE
  5
1B9F
102
{ACAD_REACTORS
330
1B9D
102
}
330
18
100
AcDbEntity
  8
ROGO
 62
     4
100
AcDbLine
 10
311.4506375876926
 20
291.6936648163934
 30
0.0
 11
312.3086324257584
 21
291.6936648163934
 31
0.0
  0
LINE
  5
1BA0
102
{ACAD_REACTORS
330
1B9D
102
}
330
18
100
AcDbEntity
  8
ROGO
 62
     4
100
AcDbLine
 10
312.3086324257584
 20
291.6936648163934
 30
0.0
 11
312.1496831285988
 21
291.3748942551643
 31
0.0
  0
LINE
  5
1BA1
102
{ACAD_REACTORS
330
1B9C
102
}
330
18
100
AcDbEntity
  8
ROGO
 62
     4
100
AcDbLine
 10
312.4880737457884
 20
291.6936648163934
 30
0.0
 11
311.8205310842514
 21
290.3549174757939
 31
0.0
  0
HATCH
  5
1BA2
330
18
100
AcDbEntity
  8
ROGO
 62
     4
100
AcDbHatch
 10
0.0
 20
0.0
 30
0.0
210
0.0
220
0.0
230
1.0
  2
SOLID
 70
     1
 71
     0
 91
        1
 92
        7
 72
     0
 73
     1
 93
        4
 10
303.9348685249478
 20
290.4891069043987
 10
303.8741574209939
 20
290.3549174757939
 10
311.8205310842514
 20
290.3549174757939
 10
311.8874422672689
 20
290.4891069043988
 97
        0
 75
     0
 76
     1
 47
0.0514683685270805
 98
        1
 10
308.9562735728168
 20
290.4536159571128
450
        0
451
        0
460
0.0
461
0.0
452
        0
462
0.0
453
        0
470

  0
HATCH
  5
1BA3
330
18
100
AcDbEntity
  8
ROGO
 62
     4
100
AcDbHatch
 10
0.0
 20
0.0
 30
0.0
210
0.0
220
0.0
230
1.0
  2
SOLID
 70
     1
 71
     1
 91
        2
 92
        7
 72
     0
 73
     1
 93
        8
 10
307.5775233794829
 20
291.6936648163934
 10
307.0823491536261
 20
291.6936648163934
 10
306.4645222988099
 20
290.8369040288959
 10
306.9390144234532
 20
290.8369040288959
 10
307.0566448339931
 20
291.000025981887
 10
307.603227699116
 20
291.000025981887
 10
307.7208581096559
 20
290.8369040288959
 10
308.1953502342992
 20
290.836904028896
 97
        8
330
1BA5
330
1BAD
330
1BB2
330
1BAE
330
1BA4
330
1BC6
330
1BCC
330
1BC5
 92
       22
 72
     0
 73
     1
 93
        3
 10
307.4791593579936
 20
291.1720756246225
 10
307.1807131751155
 20
291.1720756246225
 10
307.3299362665546
 20
291.3790081856427
 97
        3
330
1BD1
330
1BD0
330
1BD2
 75
     0
 76
     1
 47
0.0514683685270805
 98
        2
 10
307.6350654806606
 20
291.254712693043
 10
307.6350654806606
 20
291.254712693043
450
        0
451
        0
460
0.0
461
0.0
452
        0
462
0.0
453
        0
470

  0
LINE
  5
1BA4
102
{ACAD_REACTORS
330
1BA3
102
}
330
18
100
AcDbEntity
  8
ROGO
 62
     4
100
AcDbLine
 10
307.0566448339931
 20
291.000025981887
 30
0.0
 11
307.603227699116
 21
291.000025981887
 31
0.0
  0
LINE
  5
1BA5
102
{ACAD_REACTORS
330
1BA3
102
}
330
18
100
AcDbEntity
  8
ROGO
 62
     4
100
AcDbLine
 10
307.0823491536261
 20
291.6936648163934
 30
0.0
 11
307.577523379483
 21
291.6936648163934
 31
0.0
  0
LINE
  5
1BA6
330
18
100
AcDbEntity
  8
ROGO
 62
     4
100
AcDbLine
 10
303.9255623457681
 20
290.4891069043988
 30
0.0
 11
311.8874422672689
 21
290.4891069043988
 31
0.0
  0
HATCH
  5
1BA7
330
18
100
AcDbEntity
  8
ROGO
 62
     4
100
AcDbHatch
 10
0.0
 20
0.0
 30
0.0
210
0.0
220
0.0
230
1.0
  2
SOLID
 70
     1
 71
     1
 91
        2
 92
        5
 93
        6
 72
     1
 10
303.251850439405
 20
290.3549174757939
 11
303.8741574209939
 21
290.3549174757939
 72
     1
 10
303.8741574209939
 20
290.3549174757939
 11
304.0922218097762
 21
290.8369040288959
 72
     1
 10
304.0922218097762
 20
290.8369040288959
 11
304.6739512017134
 21
290.8369040288959
 72
     4
 94
        3
 73
     0
 74
     0
 95
       18
 96
       14
 40
0.108740278791501
 40
0.108740278791501
 40
0.108740278791501
 40
0.108740278791501
 40
0.6623149649549278
 40
1.384304701649787
 40
2.097394834876493
 40
2.774073369849618
 40
3.428974823686337
 40
4.005208313035923
 40
4.455173659284313
 40
4.720999734343524
 40
5.086034088486724
 40
5.569973738255373
 40
6.060470601257719
 40
6.060470601257719
 40
6.060470601257719
 40
6.060470601257719
 10
304.6739512017133
 20
290.8369040288959
 10
304.7148923552471
 20
290.8372089052697
 10
304.8092302651693
 20
290.8379114111204
 10
304.9412082629622
 20
290.9084169575688
 10
305.0663611134819
 20
290.9982358867786
 10
305.1671632206019
 20
291.1104552679968
 10
305.2299659703783
 20
291.2387589045584
 10
305.2396939178098
 20
291.3617261551753
 10
305.2337552449019
 20
291.4589917216714
 10
305.1913204441173
 20
291.526788236232
 10
305.1472042904418
 20
291.5955947654099
 10
305.0663101822794
 20
291.6551975366313
 10
305.0000291738581
 20
291.6813124104472
 10
304.9663239330147
 20
291.6936648163935
 72
     1
 10
304.9663239330147
 20
291.6936648163933
 11
303.914250173049
 21
291.6936648163934
 72
     1
 10
303.914250173049
 20
291.6936648163934
 11
303.251850439405
 21
290.3549174757939
 97
        6
330
1BA9
330
1BB3
330
1BAA
330
1B9E
330
1BB0
330
1BAF
 92
       20
 93
        4
 72
     1
 10
304.2268642249649
 20
291.1345034396047
 11
304.3299498123056
 21
291.3623529623734
 72
     1
 10
304.3299498123056
 20
291.3623529623734
 11
304.5948358374248
 21
291.3623529623734
 72
     4
 94
        3
 73
     0
 74
     0
 95
       15
 96
       11
 40
0.0
 40
0.0
 40
0.0
 40
0.0
 40
0.1004579816448252
 40
0.1462612956868697
 40
0.198251106343385
 40
0.2336689826118162
 40
0.2896827212657397
 40
0.3232334205940912
 40
0.38079542640843
 40
0.3999827739259301
 40
0.3999827739259301
 40
0.3999827739259301
 40
0.3999827739259301
 10
304.5948358374247
 20
291.3623529623734
 10
304.6325659072228
 20
291.3625257862328
 10
304.6874988135452
 20
291.3627774082661
 10
304.7175380832115
 20
291.2948252442852
 10
304.7040730502696
 20
291.2510746510898
 10
304.687146406444
 20
291.2061564279522
 10
304.6572331931724
 20
291.1756338178672
 10
304.6170852794859
 20
291.146235398954
 10
304.5791435824666
 20
291.1426765887047
 10
304.554466767655
 20
291.1361380700506
 10
304.5482975609989
 20
291.1345034396047
 72
     1
 10
304.5482975609989
 20
291.1345034396047
 11
304.2268642249649
 21
291.1345034396047
 97
        4
330
1BB6
330
1BB4
330
1BB8
330
1BB5
 75
     0
 76
     1
 47
0.0514683685270805
 98
        2
 10
303.9198733440687
 20
291.2772788644694
 10
303.9198733440687
 20
291.2772788644694
450
        0
451
        0
460
0.0
461
0.0
452
        0
462
0.0
453
        0
470

  0
HATCH
  5
1BA8
330
18
100
AcDbEntity
  8
ROGO
 62
     4
100
AcDbHatch
 10
0.0
 20
0.0
 30
0.0
210
0.0
220
0.0
230
1.0
  2
SOLID
 70
     1
 71
     1
 91
        1
 92
        1
 93
       12
 72
     1
 10
305.5878630058277
 20
291.6936648163934
 11
306.7466676141736
 21
291.6936648163934
 72
     1
 10
306.7466676141736
 20
291.6936648163934
 11
306.6495608137156
 21
291.4974064783168
 72
     1
 10
306.6495608137156
 20
291.4974064783168
 11
306.0405223939117
 21
291.4974064783168
 72
     1
 10
306.0405223939117
 20
291.4974064783168
 11
305.9645969429996
 21
291.3439568461239
 72
     1
 10
305.9645969429996
 20
291.3439568461239
 11
306.5736353628036
 21
291.3439568461239
 72
     1
 10
306.5736353628036
 20
291.3439568461239
 11
306.4957809255898
 21
291.1866086234722
 72
     1
 10
306.4957809255898
 20
291.1866086234722
 11
305.8867425057858
 21
291.1866086234722
 72
     1
 10
305.8867425057858
 20
291.1866086234722
 11
305.8108138405551
 21
291.0331524949596
 72
     1
 10
305.8108138405551
 20
291.0331524949596
 11
306.4198522603591
 21
291.0331524949596
 72
     1
 10
306.4198522603591
 20
291.0331524949596
 11
306.3227503444813
 21
290.8369040288959
 72
     1
 10
306.3227503444813
 20
290.8369040288959
 11
305.1639457361353
 21
290.8369040288959
 72
     1
 10
305.1639457361353
 20
290.8369040288959
 11
305.5878630058277
 21
291.6936648163934
 97
       12
330
1BB7
330
1BB9
330
1BBB
330
1BBA
330
1BBC
330
1BBF
330
1BBE
330
1BC0
330
1BBD
330
1BAC
330
1BB1
330
1BAB
 75
     0
 76
     1
 98
        1
 10
258.1873207906053
 20
232.4524900890693
450
        0
451
        0
460
0.0
461
0.0
452
        0
462
0.0
453
        0
470

  0
SPLINE
  5
1BA9
102
{ACAD_REACTORS
330
1BA7
102
}
330
18
100
AcDbEntity
  8
ROGO
 62
     4
100
AcDbSpline
210
0.0
220
0.0
230
1.0
 70
     8
 71
     3
 72
    18
 73
    14
 74
     0
 42
0.0000000001
 43
0.0000000001
 40
0.1087402787915014
 40
0.1087402787915014
 40
0.1087402787915014
 40
0.1087402787915014
 40
0.5992371417938475
 40
1.083176791562496
 40
1.448211145705696
 40
1.714037220764907
 40
2.164002567013297
 40
2.740236056362883
 40
3.395137510199602
 40
4.071816045172726
 40
4.784906178399433
 40
5.506895915094292
 40
6.060470601257719
 40
6.060470601257719
 40
6.060470601257719
 40
6.060470601257719
 10
304.9663239330147
 20
291.6936648163935
 30
0.0
 10
305.0000291738581
 20
291.6813124104472
 30
0.0
 10
305.0663101822794
 20
291.6551975366313
 30
0.0
 10
305.1472042904418
 20
291.5955947654099
 30
0.0
 10
305.1913204441173
 20
291.526788236232
 30
0.0
 10
305.2337552449019
 20
291.4589917216714
 30
0.0
 10
305.2396939178098
 20
291.3617261551753
 30
0.0
 10
305.2299659703783
 20
291.2387589045584
 30
0.0
 10
305.1671632206019
 20
291.1104552679968
 30
0.0
 10
305.0663611134819
 20
290.9982358867786
 30
0.0
 10
304.9412082629622
 20
290.9084169575688
 30
0.0
 10
304.8092302651693
 20
290.8379114111204
 30
0.0
 10
304.7148923552471
 20
290.8372089052697
 30
0.0
 10
304.6739512017133
 20
290.8369040288959
 30
0.0
  0
LINE
  5
1BAA
102
{ACAD_REACTORS
330
1BA7
102
}
330
18
100
AcDbEntity
  8
ROGO
 62
     4
100
AcDbLine
 10
303.9142501730489
 20
291.6936648163934
 30
0.0
 11
303.251850439405
 21
290.3549174757939
 31
0.0
  0
LINE
  5
1BAB
102
{ACAD_REACTORS
330
1BA8
102
}
330
18
100
AcDbEntity
  8
ROGO
 62
     4
100
AcDbLine
 10
305.5878630058277
 20
291.6936648163934
 30
0.0
 11
305.1639457361353
 21
290.8369040288959
 31
0.0
  0
LINE
  5
1BAC
102
{ACAD_REACTORS
330
1BA8
102
}
330
18
100
AcDbEntity
  8
ROGO
 62
     4
100
AcDbLine
 10
306.4198522603591
 20
291.0331524949596
 30
0.0
 11
306.3227503444813
 21
290.8369040288959
 31
0.0
  0
LINE
  5
1BAD
102
{ACAD_REACTORS
330
1BA3
102
}
330
18
100
AcDbEntity
  8
ROGO
 62
     4
100
AcDbLine
 10
307.0823491536261
 20
291.6936648163934
 30
0.0
 11
306.4645222988099
 21
290.8369040288959
 31
0.0
  0
LINE
  5
1BAE
102
{ACAD_REACTORS
330
1BA3
102
}
330
18
100
AcDbEntity
  8
ROGO
 62
     4
100
AcDbLine
 10
307.0566448339931
 20
291.000025981887
 30
0.0
 11
306.9390144234531
 21
290.8369040288959
 31
0.0
  0
LINE
  5
1BAF
102
{ACAD_REACTORS
330
1BA7
102
}
330
18
100
AcDbEntity
  8
ROGO
 62
     4
100
AcDbLine
 10
304.6739512019148
 20
290.8369040288959
 30
0.0
 11
304.0922218097761
 21
290.8369040288959
 31
0.0
  0
LINE
  5
1BB0
102
{ACAD_REACTORS
330
1BA7
102
}
330
18
100
AcDbEntity
  8
ROGO
 62
     4
100
AcDbLine
 10
304.0922218097762
 20
290.8369040288959
 30
0.0
 11
303.8741574209939
 21
290.3549174757939
 31
0.0
  0
LINE
  5
1BB1
102
{ACAD_REACTORS
330
1BA8
102
}
330
18
100
AcDbEntity
  8
ROGO
 62
     4
100
AcDbLine
 10
305.1639457361353
 20
290.8369040288959
 30
0.0
 11
306.3227503444813
 21
290.8369040288959
 31
0.0
  0
LINE
  5
1BB2
102
{ACAD_REACTORS
330
1BA3
102
}
330
18
100
AcDbEntity
  8
ROGO
 62
     4
100
AcDbLine
 10
306.4645222988099
 20
290.8369040288959
 30
0.0
 11
306.9390144234531
 21
290.8369040288959
 31
0.0
  0
LINE
  5
1BB3
102
{ACAD_REACTORS
330
1BA7
102
}
330
18
100
AcDbEntity
  8
ROGO
 62
     4
100
AcDbLine
 10
303.9142501730489
 20
291.6936648163934
 30
0.0
 11
304.9663239330147
 21
291.6936648163934
 31
0.0
  0
LINE
  5
1BB4
102
{ACAD_REACTORS
330
1BA7
102
}
330
18
100
AcDbEntity
  8
ROGO
 62
     4
100
AcDbLine
 10
304.5948358374247
 20
291.3623529623734
 30
0.0
 11
304.3299498123057
 21
291.3623529623734
 31
0.0
  0
LINE
  5
1BB5
102
{ACAD_REACTORS
330
1BA7
102
}
330
18
100
AcDbEntity
  8
ROGO
 62
     4
100
AcDbLine
 10
304.5482975609989
 20
291.1345034396047
 30
0.0
 11
304.2268642249649
 21
291.1345034396047
 31
0.0
  0
LINE
  5
1BB6
102
{ACAD_REACTORS
330
1BA7
102
}
330
18
100
AcDbEntity
  8
ROGO
 62
     4
100
AcDbLine
 10
304.3299498123057
 20
291.3623529623734
 30
0.0
 11
304.2268642249649
 21
291.1345034396047
 31
0.0
  0
LINE
  5
1BB7
102
{ACAD_REACTORS
330
1BA8
102
}
330
18
100
AcDbEntity
  8
ROGO
 62
     4
100
AcDbLine
 10
305.5878630058277
 20
291.6936648163934
 30
0.0
 11
306.7466676141736
 21
291.6936648163934
 31
0.0
  0
SPLINE
  5
1BB8
102
{ACAD_REACTORS
330
1BA7
102
}
330
18
100
AcDbEntity
  8
ROGO
 62
     4
100
AcDbSpline
210
0.0
220
0.0
230
1.0
 70
     8
 71
     3
 72
    15
 73
    11
 74
     9
 42
0.0000000001
 43
0.0000000001
 44
0.0000000001
 40
0.0
 40
0.0
 40
0.0
 40
0.0
 40
0.1004579816448252
 40
0.1462612956868697
 40
0.198251106343385
 40
0.2336689826118162
 40
0.2896827212657397
 40
0.3232334205940912
 40
0.38079542640843
 40
0.3999827739259301
 40
0.3999827739259301
 40
0.3999827739259301
 40
0.3999827739259301
 10
304.5948358374247
 20
291.3623529623734
 30
0.0
 10
304.6325659072228
 20
291.3625257862328
 30
0.0
 10
304.6874988135452
 20
291.3627774082661
 30
0.0
 10
304.7175380832115
 20
291.2948252442852
 30
0.0
 10
304.7040730502696
 20
291.2510746510898
 30
0.0
 10
304.687146406444
 20
291.2061564279522
 30
0.0
 10
304.6572331931724
 20
291.1756338178672
 30
0.0
 10
304.6170852794859
 20
291.146235398954
 30
0.0
 10
304.5791435824666
 20
291.1426765887047
 30
0.0
 10
304.554466767655
 20
291.1361380700506
 30
0.0
 10
304.5482975609989
 20
291.1345034396047
 30
0.0
 11
304.5948358374247
 21
291.3623529623734
 31
0.0
 11
304.6925662982001
 21
291.3391029491953
 31
0.0
 11
304.7111816622912
 21
291.2972530770689
 31
0.0
 11
304.7018741140478
 21
291.2461031996713
 31
0.0
 11
304.6879126578806
 21
291.2135531812219
 31
0.0
 11
304.6506819296982
 21
291.1717033090955
 31
0.0
 11
304.6227590173637
 21
291.153103298553
 31
0.0
 11
304.5669129250901
 21
291.1391534422403
 31
0.0
 11
304.5482975609989
 21
291.1345034396047
 31
0.0
  0
LINE
  5
1BB9
102
{ACAD_REACTORS
330
1BA8
102
}
330
18
100
AcDbEntity
  8
ROGO
 62
     4
100
AcDbLine
 10
306.7466676141736
 20
291.6936648163934
 30
0.0
 11
306.6495608137156
 21
291.4974064783168
 31
0.0
  0
LINE
  5
1BBA
102
{ACAD_REACTORS
330
1BA8
102
}
330
18
100
AcDbEntity
  8
ROGO
 62
     4
100
AcDbLine
 10
306.0405223939117
 20
291.4974064783168
 30
0.0
 11
305.9645969429996
 21
291.3439568461239
 31
0.0
  0
LINE
  5
1BBB
102
{ACAD_REACTORS
330
1BA8
102
}
330
18
100
AcDbEntity
  8
ROGO
 62
     4
100
AcDbLine
 10
306.0405223939117
 20
291.4974064783168
 30
0.0
 11
306.6495608137156
 21
291.4974064783168
 31
0.0
  0
LINE
  5
1BBC
102
{ACAD_REACTORS
330
1BA8
102
}
330
18
100
AcDbEntity
  8
ROGO
 62
     4
100
AcDbLine
 10
305.9645969429996
 20
291.3439568461239
 30
0.0
 11
306.5736353628036
 21
291.3439568461239
 31
0.0
  0
LINE
  5
1BBD
102
{ACAD_REACTORS
330
1BA8
102
}
330
18
100
AcDbEntity
  8
ROGO
 62
     4
100
AcDbLine
 10
305.8108138405551
 20
291.0331524949596
 30
0.0
 11
306.4198522603591
 21
291.0331524949596
 31
0.0
  0
LINE
  5
1BBE
102
{ACAD_REACTORS
330
1BA8
102
}
330
18
100
AcDbEntity
  8
ROGO
 62
     4
100
AcDbLine
 10
305.8867425057858
 20
291.1866086234722
 30
0.0
 11
306.4957809255898
 21
291.1866086234722
 31
0.0
  0
LINE
  5
1BBF
102
{ACAD_REACTORS
330
1BA8
102
}
330
18
100
AcDbEntity
  8
ROGO
 62
     4
100
AcDbLine
 10
306.5736353628036
 20
291.3439568461239
 30
0.0
 11
306.4957809255898
 21
291.1866086234722
 31
0.0
  0
LINE
  5
1BC0
102
{ACAD_REACTORS
330
1BA8
102
}
330
18
100
AcDbEntity
  8
ROGO
 62
     4
100
AcDbLine
 10
305.8867425057858
 20
291.1866086234722
 30
0.0
 11
305.8108138405551
 21
291.0331524949596
 31
0.0
  0
HATCH
  5
1BC1
330
18
100
AcDbEntity
  8
ROGO
 62
     4
100
AcDbHatch
 10
0.0
 20
0.0
 30
0.0
210
0.0
220
0.0
230
1.0
  2
SOLID
 70
     1
 71
     1
 91
        2
 92
        7
 72
     1
 73
     1
 93
        4
 10
310.328770468133
 20
291.6936648163934
 42
0.0
 10
309.9823274044557
 20
291.6936648163934
 42
0.9597396185052547
 10
309.9823274044556
 20
290.8369040288959
 42
0.0
 10
310.3536673958141
 20
290.8369040288959
 42
0.9713627655751123
 97
        4
330
1BE1
330
1BC9
330
1BCE
330
1BCA
 92
       22
 72
     1
 73
     1
 93
        2
 10
310.2709937332635
 20
291.2238203994564
 42
0.1034173650211745
 10
310.2760956496632
 20
291.2603218421125
 42
0.0
 97
        8
330
1BD9
330
1BDF
330
1BDB
330
1BDE
330
1BDA
330
1BDD
330
1BD8
330
1BDC
 75
     0
 76
     1
 47
0.0514683685270805
 98
        2
 10
310.4129901049056
 20
291.3449770755605
 10
310.4129901049056
 20
291.3449770755605
450
        0
451
        0
460
0.0
461
0.0
452
        0
462
0.0
453
        0
470

  0
HATCH
  5
1BC2
330
18
100
AcDbEntity
  8
ROGO
 62
     4
100
AcDbHatch
 10
0.0
 20
0.0
 30
0.0
210
0.0
220
0.0
230
1.0
  2
SOLID
 70
     1
 71
     1
 91
        1
 92
        5
 93
        8
 72
     1
 10
309.3891236621292
 20
291.3748942551642
 11
309.5480729592887
 21
291.6936648163934
 72
     1
 10
309.5480729592887
 20
291.6936648163934
 11
308.6900781212228
 21
291.6936648163934
 72
     4
 94
        3
 73
     0
 74
     0
 95
       26
 96
       22
 40
0.0
 40
0.0
 40
0.0
 40
0.0
 40
0.1554262224698502
 40
0.2594720434289413
 40
0.3344975535087686
 40
0.3905166742938006
 40
0.4631764140703997
 40
0.5162109407029976
 40
0.6119789345487461
 40
0.6899327047202536
 40
0.742953759180804
 40
0.7949436177461866
 40
0.8879433672702264
 40
0.9537052901627077
 40
0.9891231664311614
 40
1.039433213442068
 40
1.075763227239462
 40
1.128393422802194
 40
1.15817756108135
 40
1.222991186867631
 40
1.252585651432361
 40
1.252585651432361
 40
1.252585651432361
 40
1.252585651432361
 10
308.6900781212228
 20
291.6936648163934
 10
308.6373240598487
 20
291.6905174186283
 10
308.5492552392442
 20
291.685263081769
 10
308.4525562099679
 20
291.6265194599539
 10
308.3817088400489
 20
291.5923684997135
 10
308.3311805817429
 20
291.5459431787365
 10
308.2941431635782
 20
291.4979892134731
 10
308.2474505449411
 20
291.4408524154691
 10
308.2093740486853
 20
291.3743189262967
 10
308.1899840039616
 20
291.300987422236
 10
308.1728084863765
 20
291.2425417880167
 10
308.1600708350015
 20
291.1774117559901
 10
308.1633116541095
 20
291.1070484098543
 10
308.1679526553927
 20
291.0416985361921
 10
308.1886735975797
 20
290.9950485106154
 10
308.2122710804192
 20
290.9618369070198
 10
308.2411658749905
 20
290.9252580076566
 10
308.2727830990242
 20
290.9010319210553
 10
308.2989331240773
 20
290.8571447372231
 10
308.3447078607788
 20
290.8515444160499
 10
308.3738041045048
 20
290.8403981054424
 10
308.382925015125
 20
290.8369040288959
 72
     1
 10
308.382925015125
 20
290.836904028896
 11
309.1208643598448
 21
290.8369040288959
 72
     1
 10
309.1208643598448
 20
290.8369040288959
 11
309.2798119737748
 21
291.1556712144319
 72
     1
 10
309.2798119737748
 20
291.1556712144319
 11
308.7319624897247
 21
291.1556712144319
 72
     4
 94
        3
 73
     0
 74
     0
 95
       16
 96
       12
 40
0.0
 40
0.0
 40
0.0
 40
0.0
 40
0.0469383062218559
 40
0.0943607469750805
 40
0.1226461015323899
 40
0.1497659350697673
 40
0.179549955011904
 40
0.2003488931588286
 40
0.2200852803386911
 40
0.2601078399996992
 40
0.3420494343555523
 40
0.3420494343555523
 40
0.3420494343555523
 40
0.3420494343555523
 10
308.7319624897247
 20
291.1556712144319
 10
308.715437418634
 20
291.1605331326479
 10
308.6822168323485
 20
291.1703071162344
 10
308.6794365375385
 20
291.2176877979894
 10
308.6832242869782
 20
291.251450410888
 10
308.6990873900908
 20
291.2760315646877
 10
308.7183320855851
 20
291.2939175883115
 10
308.7254977392435
 20
291.3172113374926
 10
308.7465605253135
 20
291.3348010324265
 10
308.7839104886731
 20
291.3643668524927
 10
308.8252130824874
 20
291.3706637115616
 10
308.852962222515
 20
291.3748942551643
 72
     1
 10
308.8529622225149
 20
291.3748942551643
 11
309.3891236621292
 21
291.3748942551642
 97
        8
330
1BD7
330
1BC4
330
1BCB
330
1BC7
330
1BD6
330
1BD3
330
1BD5
330
1BD4
 75
     0
 76
     1
 47
0.0514683685270805
 98
        1
 10
308.9901506827999
 20
291.5029398207632
450
        0
451
        0
460
0.0
461
0.0
452
        0
462
0.0
453
        0
470

  0
SPLINE
  5
1BC3
102
{ACAD_REACTORS
330
1B9D
102
}
330
18
100
AcDbEntity
  8
ROGO
 62
     4
100
AcDbSpline
210
0.0
220
0.0
230
1.0
 70
     8
 71
     3
 72
    26
 73
    22
 74
    20
 42
0.0000000001
 43
0.0000000001
 44
0.0000000001
 40
0.0
 40
0.0
 40
0.0
 40
0.0
 40
0.1554262224697466
 40
0.259472043428914
 40
0.334497553508692
 40
0.3905166742937239
 40
0.4631764140703667
 40
0.5162109407029199
 40
0.611978934548696
 40
0.6899327047202036
 40
0.7429537591807938
 40
0.7949436177461204
 40
0.8879433672701603
 40
0.9537052901626415
 40
0.9891231664310728
 40
1.039433213441979
 40
1.075763227239446
 40
1.128393422802098
 40
1.158177561081289
 40
1.222991186867537
 40
1.252585651432248
 40
1.252585651432248
 40
1.252585651432248
 40
1.252585651432248
 10
311.4506375876924
 20
291.6936648163934
 30
0.0
 10
311.3978835263183
 20
291.6905174186282
 30
0.0
 10
311.3098147057137
 20
291.6852630817688
 30
0.0
 10
311.2131156764377
 20
291.626519459954
 30
0.0
 10
311.1422683065185
 20
291.5923684997134
 30
0.0
 10
311.0917400482126
 20
291.5459431787366
 30
0.0
 10
311.054702630048
 20
291.497989213473
 30
0.0
 10
311.0080100114107
 20
291.440852415469
 30
0.0
 10
310.969933515155
 20
291.3743189262968
 30
0.0
 10
310.9505434704312
 20
291.300987422236
 30
0.0
 10
310.9333679528463
 20
291.2425417880167
 30
0.0
 10
310.9206303014712
 20
291.1774117559902
 30
0.0
 10
310.9238711205792
 20
291.1070484098543
 30
0.0
 10
310.9285121218625
 20
291.0416985361923
 30
0.0
 10
310.9492330640493
 20
290.9950485106153
 30
0.0
 10
310.9728305468888
 20
290.9618369070198
 30
0.0
 10
311.0017253414602
 20
290.9252580076566
 30
0.0
 10
311.0333425654937
 20
290.9010319210551
 30
0.0
 10
311.0594925905469
 20
290.8571447372233
 30
0.0
 10
311.1052673272483
 20
290.8515444160497
 30
0.0
 10
311.1343635709744
 20
290.8403981054424
 30
0.0
 10
311.1434844815946
 20
290.8369040288959
 30
0.0
 11
311.4506375876924
 21
291.6936648163934
 31
0.0
 11
311.2970610346435
 21
291.6697576420552
 31
0.0
 11
311.2039842141876
 21
291.6232577672931
 31
0.0
 11
311.1388305736708
 21
291.5860578978024
 31
0.0
 11
311.0969462051689
 21
291.5488578767174
 31
0.0
 11
311.0504079287431
 21
291.4930579966841
 31
0.0
 11
311.0178311084847
 21
291.4512081245577
 31
0.0
 11
310.9712925644546
 21
291.3675082287107
 31
0.0
 11
310.9480235600439
 21
291.293108338135
 31
0.0
 11
310.9340621038766
 21
291.2419584607373
 31
0.0
 11
310.9247542880288
 21
291.1908085833397
 31
0.0
 11
310.9247542880288
 21
291.0978088338156
 31
0.0
 11
310.9340621038766
 21
291.0327089485111
 31
0.0
 11
310.9480235600439
 21
291.0001589300618
 31
0.0
 11
310.9759464723784
 21
290.9583090579353
 31
0.0
 11
310.9992157443936
 21
290.9304090421216
 31
0.0
 11
311.0364462049714
 21
290.8932091726309
 31
0.0
 11
311.0550615690627
 21
290.8699591594527
 31
0.0
 11
311.1155615692601
 21
290.8467092978688
 31
0.0
 11
311.1434844815946
 21
290.8369040288959
 31
0.0
  0
SPLINE
  5
1BC4
102
{ACAD_REACTORS
330
1BC2
102
}
330
18
100
AcDbEntity
  8
ROGO
 62
     4
100
AcDbSpline
210
0.0
220
0.0
230
1.0
 70
     8
 71
     3
 72
    26
 73
    22
 74
    20
 42
0.0000000001
 43
0.0000000001
 44
0.0000000001
 40
0.0
 40
0.0
 40
0.0
 40
0.0
 40
0.1554262224698502
 40
0.2594720434289413
 40
0.3344975535087686
 40
0.3905166742938006
 40
0.4631764140703997
 40
0.5162109407029976
 40
0.6119789345487461
 40
0.6899327047202536
 40
0.742953759180804
 40
0.7949436177461866
 40
0.8879433672702264
 40
0.9537052901627077
 40
0.9891231664311614
 40
1.039433213442068
 40
1.075763227239462
 40
1.128393422802194
 40
1.15817756108135
 40
1.222991186867631
 40
1.252585651432361
 40
1.252585651432361
 40
1.252585651432361
 40
1.252585651432361
 10
308.6900781212228
 20
291.6936648163934
 30
0.0
 10
308.6373240598487
 20
291.6905174186283
 30
0.0
 10
308.5492552392442
 20
291.685263081769
 30
0.0
 10
308.4525562099679
 20
291.6265194599539
 30
0.0
 10
308.3817088400489
 20
291.5923684997135
 30
0.0
 10
308.3311805817429
 20
291.5459431787365
 30
0.0
 10
308.2941431635782
 20
291.4979892134731
 30
0.0
 10
308.2474505449411
 20
291.4408524154691
 30
0.0
 10
308.2093740486853
 20
291.3743189262967
 30
0.0
 10
308.1899840039616
 20
291.300987422236
 30
0.0
 10
308.1728084863765
 20
291.2425417880167
 30
0.0
 10
308.1600708350015
 20
291.1774117559901
 30
0.0
 10
308.1633116541095
 20
291.1070484098543
 30
0.0
 10
308.1679526553927
 20
291.0416985361921
 30
0.0
 10
308.1886735975797
 20
290.9950485106154
 30
0.0
 10
308.2122710804192
 20
290.9618369070198
 30
0.0
 10
308.2411658749905
 20
290.9252580076566
 30
0.0
 10
308.2727830990242
 20
290.9010319210553
 30
0.0
 10
308.2989331240773
 20
290.8571447372231
 30
0.0
 10
308.3447078607788
 20
290.8515444160499
 30
0.0
 10
308.3738041045048
 20
290.8403981054424
 30
0.0
 10
308.382925015125
 20
290.8369040288959
 30
0.0
 11
308.6900781212228
 21
291.6936648163934
 31
0.0
 11
308.5365015681738
 21
291.6697576420552
 31
0.0
 11
308.443424747718
 21
291.6232577672931
 31
0.0
 11
308.3782711072011
 21
291.5860578978024
 31
0.0
 11
308.3363867386992
 21
291.5488578767174
 31
0.0
 11
308.2898484622735
 21
291.4930579966841
 31
0.0
 11
308.2572716420151
 21
291.4512081245577
 31
0.0
 11
308.210733097985
 21
291.3675082287107
 31
0.0
 11
308.1874640935743
 21
291.293108338135
 31
0.0
 11
308.173502637407
 21
291.2419584607373
 31
0.0
 11
308.1641948215591
 21
291.1908085833397
 31
0.0
 11
308.1641948215591
 21
291.0978088338156
 31
0.0
 11
308.173502637407
 21
291.0327089485111
 31
0.0
 11
308.1874640935743
 21
291.0001589300618
 31
0.0
 11
308.2153870059088
 21
290.9583090579353
 31
0.0
 11
308.2386562779239
 21
290.9304090421216
 31
0.0
 11
308.2758867385018
 21
290.8932091726309
 31
0.0
 11
308.294502102593
 21
290.8699591594527
 31
0.0
 11
308.3550021027905
 21
290.8467092978688
 31
0.0
 11
308.382925015125
 21
290.8369040288959
 31
0.0
  0
LINE
  5
1BC5
102
{ACAD_REACTORS
330
1BA3
102
}
330
18
100
AcDbEntity
  8
ROGO
 62
     4
100
AcDbLine
 10
307.577523379483
 20
291.6936648163934
 30
0.0
 11
308.1953502342992
 21
290.8369040288959
 31
0.0
  0
LINE
  5
1BC6
102
{ACAD_REACTORS
330
1BA3
102
}
330
18
100
AcDbEntity
  8
ROGO
 62
     4
100
AcDbLine
 10
307.603227699116
 20
291.000025981887
 30
0.0
 11
307.720858109656
 21
290.8369040288959
 31
0.0
  0
LINE
  5
1BC7
102
{ACAD_REACTORS
330
1BC2
102
}
330
18
100
AcDbEntity
  8
ROGO
 62
     4
100
AcDbLine
 10
309.2798119737748
 20
291.1556712144319
 30
0.0
 11
309.1208643598449
 21
290.8369040288959
 31
0.0
  0
LINE
  5
1BC8
102
{ACAD_REACTORS
330
1B9D
102
}
330
18
100
AcDbEntity
  8
ROGO
 62
     4
100
AcDbLine
 10
312.0403714402445
 20
291.1556712144319
 30
0.0
 11
311.8814238263146
 21
290.8369040288958
 31
0.0
  0
ARC
  5
1BC9
102
{ACAD_REACTORS
330
1BC1
102
}
330
18
100
AcDbEntity
  8
ROGO
 62
     4
100
AcDbCircle
 10
309.9999359070344
 20
291.2652844226446
 30
0.0
 40
0.428742138250266
100
AcDbArc
 50
92.3538081120337
 51
270.0
  0
ARC
  5
1BCA
102
{ACAD_REACTORS
330
1BC1
102
}
330
18
100
AcDbEntity
  8
ROGO
 62
     4
100
AcDbCircle
 10
310.328770468133
 20
291.2649226781431
 30
0.0
 40
0.428742138250266
100
AcDbArc
 50
273.3290215232082
 51
90.0000000000006
  0
LINE
  5
1BCB
102
{ACAD_REACTORS
330
1BC2
102
}
330
18
100
AcDbEntity
  8
ROGO
 62
     4
100
AcDbLine
 10
308.3829250151249
 20
290.8369040288959
 30
0.0
 11
309.1208643598449
 21
290.8369040288959
 31
0.0
  0
LINE
  5
1BCC
102
{ACAD_REACTORS
330
1BA3
102
}
330
18
100
AcDbEntity
  8
ROGO
 62
     4
100
AcDbLine
 10
308.1953502342992
 20
290.8369040288959
 30
0.0
 11
307.720858109656
 21
290.8369040288959
 31
0.0
  0
LINE
  5
1BCD
330
18
100
AcDbEntity
  8
ROGO
 62
     4
100
AcDbLine
 10
309.982327404456
 20
290.8369040288959
 30
0.0
 11
310.3536673958138
 21
290.8369040288959
 31
0.0
  0
LINE
  5
1BCE
102
{ACAD_REACTORS
330
1BC1
102
}
330
18
100
AcDbEntity
  8
ROGO
 62
     4
100
AcDbLine
 10
309.9823274044557
 20
290.8369040288959
 30
0.0
 11
310.3536673958141
 21
290.8369040288959
 31
0.0
  0
LINE
  5
1BCF
102
{ACAD_REACTORS
330
1B9D
102
}
330
18
100
AcDbEntity
  8
ROGO
 62
     4
100
AcDbLine
 10
311.1434844815946
 20
290.8369040288959
 30
0.0
 11
311.8814238263146
 21
290.8369040288959
 31
0.0
  0
LINE
  5
1BD0
102
{ACAD_REACTORS
330
1BA3
102
}
330
18
100
AcDbEntity
  8
ROGO
 62
     4
100
AcDbLine
 10
307.3299362665545
 20
291.3790081856425
 30
0.0
 11
307.1807131751155
 21
291.1720756246224
 31
0.0
  0
LINE
  5
1BD1
102
{ACAD_REACTORS
330
1BA3
102
}
330
18
100
AcDbEntity
  8
ROGO
 62
     4
100
AcDbLine
 10
307.1807131751155
 20
291.1720756246225
 30
0.0
 11
307.4791593579936
 21
291.1720756246225
 31
0.0
  0
LINE
  5
1BD2
102
{ACAD_REACTORS
330
1BA3
102
}
330
18
100
AcDbEntity
  8
ROGO
 62
     4
100
AcDbLine
 10
307.3299362665545
 20
291.3790081856425
 30
0.0
 11
307.4791593579936
 21
291.1720756246224
 31
0.0
  0
SPLINE
  5
1BD3
102
{ACAD_REACTORS
330
1BC2
102
}
330
18
100
AcDbEntity
  8
ROGO
 62
     4
100
AcDbSpline
210
0.0
220
0.0
230
1.0
 70
     8
 71
     3
 72
    16
 73
    12
 74
    10
 42
0.0000000001
 43
0.0000000001
 44
0.0000000001
 40
0.0
 40
0.0
 40
0.0
 40
0.0
 40
0.0819415943558531
 40
0.1219641540168612
 40
0.1417005411967237
 40
0.1624994793436482
 40
0.192283499285785
 40
0.2194033328231624
 40
0.2476886873804718
 40
0.2951111281336964
 40
0.3420494343555523
 40
0.3420494343555523
 40
0.3420494343555523
 40
0.3420494343555523
 10
308.852962222515
 20
291.3748942551643
 30
0.0
 10
308.8252130824874
 20
291.3706637115616
 30
0.0
 10
308.7839104886731
 20
291.3643668524927
 30
0.0
 10
308.7465605253135
 20
291.3348010324265
 30
0.0
 10
308.7254977392435
 20
291.3172113374926
 30
0.0
 10
308.7183320855851
 20
291.2939175883115
 30
0.0
 10
308.6990873900908
 20
291.2760315646877
 30
0.0
 10
308.6832242869782
 20
291.251450410888
 30
0.0
 10
308.6794365375385
 20
291.2176877979894
 30
0.0
 10
308.6822168323485
 20
291.1703071162344
 30
0.0
 10
308.715437418634
 20
291.1605331326479
 30
0.0
 10
308.7319624897247
 20
291.1556712144319
 30
0.0
 11
308.852962222515
 21
291.3748942551643
 31
0.0
 11
308.7738471258309
 21
291.3535582208039
 31
0.0
 11
308.7412703055724
 21
291.33030835922
 31
0.0
 11
308.7273088494051
 21
291.3163583513131
 31
0.0
 11
308.7180010335574
 21
291.2977583407705
 31
0.0
 11
308.6993856694661
 21
291.2745084791867
 31
0.0
 11
308.6854242132988
 21
291.2512584660086
 31
0.0
 11
308.680770305375
 21
291.2233586017891
 31
0.0
 11
308.6900781212228
 21
291.1768585754328
 31
0.0
 11
308.7319624897247
 21
291.1556712144319
 31
0.0
  0
LINE
  5
1BD4
102
{ACAD_REACTORS
330
1BC2
102
}
330
18
100
AcDbEntity
  8
ROGO
 62
     4
100
AcDbLine
 10
309.5480729592887
 20
291.6936648163934
 30
0.0
 11
309.3891236621292
 21
291.3748942551643
 31
0.0
  0
LINE
  5
1BD5
102
{ACAD_REACTORS
330
1BC2
102
}
330
18
100
AcDbEntity
  8
ROGO
 62
     4
100
AcDbLine
 10
308.852962222515
 20
291.3748942551643
 30
0.0
 11
309.3891236621292
 21
291.3748942551643
 31
0.0
  0
LINE
  5
1BD6
102
{ACAD_REACTORS
330
1BC2
102
}
330
18
100
AcDbEntity
  8
ROGO
 62
     4
100
AcDbLine
 10
308.7319624897246
 20
291.1556712144319
 30
0.0
 11
309.2798119737748
 21
291.1556712144319
 31
0.0
  0
LINE
  5
1BD7
102
{ACAD_REACTORS
330
1BC2
102
}
330
18
100
AcDbEntity
  8
ROGO
 62
     4
100
AcDbLine
 10
308.690078121223
 20
291.6936648163934
 30
0.0
 11
309.5480729592887
 21
291.6936648163934
 31
0.0
  0
LINE
  5
1BD8
102
{ACAD_REACTORS
330
1BC1
102
}
330
18
100
AcDbEntity
  8
ROGO
 62
     4
100
AcDbLine
 10
310.1705143716479
 20
291.3473496234924
 30
0.0
 11
310.2015628265376
 21
291.3430098875899
 31
0.0
  0
LINE
  5
1BD9
102
{ACAD_REACTORS
330
1BC1
102
}
330
18
100
AcDbEntity
  8
ROGO
 62
     4
100
AcDbLine
 10
310.2760956496632
 20
291.2603218421123
 30
0.0
 11
310.2646939640123
 21
291.1787489698113
 31
0.0
  0
LINE
  5
1BDA
102
{ACAD_REACTORS
330
1BC1
102
}
330
18
100
AcDbEntity
  8
ROGO
 62
     4
100
AcDbLine
 10
310.0606271597161
 20
291.2089001904819
 30
0.0
 11
310.0720288453669
 21
291.2904730627829
 31
0.0
  0
LINE
  5
1BDB
102
{ACAD_REACTORS
330
1BC1
102
}
330
18
100
AcDbEntity
  8
ROGO
 62
     4
100
AcDbLine
 10
310.1409048065899
 20
291.1355092567841
 30
0.0
 11
310.1719532614796
 21
291.1311695208815
 31
0.0
  0
ARC
  5
1BDC
102
{ACAD_REACTORS
330
1BC1
102
}
330
18
100
AcDbEntity
  8
ROGO
 62
     4
100
AcDbCircle
 10
310.186250226473
 20
291.2542725306502
 30
0.0
 40
0.0900488436204939
100
AcDbArc
 50
3.851923331663601
 51
80.20940670206341
  0
ARC
  5
1BDD
102
{ACAD_REACTORS
330
1BC1
102
}
330
18
100
AcDbEntity
  8
ROGO
 62
     4
100
AcDbCircle
 10
310.1584307038113
 20
291.2545679121798
 30
0.0
 40
0.0935652765853374
100
AcDbArc
 50
82.57970078354313
 51
157.4341870372611
  0
ARC
  5
1BDE
102
{ACAD_REACTORS
330
1BC1
102
}
330
18
100
AcDbEntity
  8
ROGO
 62
     4
100
AcDbCircle
 10
310.1460687203151
 20
291.2217584893786
 30
0.0
 40
0.0864036812184622
100
AcDbArc
 50
188.5583509056651
 51
266.5736774635929
  0
ARC
  5
1BDF
102
{ACAD_REACTORS
330
1BC1
102
}
330
18
100
AcDbEntity
  8
ROGO
 62
     4
100
AcDbCircle
 10
310.190537482556
 20
291.2091192932759
 30
0.0
 40
0.0801345137211963
100
AcDbArc
 50
256.5902863289752
 51
337.7287536965499
  0
LINE
  5
1BE0
330
18
100
AcDbEntity
  8
ROGO
 62
     4
100
AcDbLine
 10
309.9823274044557
 20
291.6936648163934
 30
0.0
 11
310.2251274965984
 21
291.6936648163934
 31
0.0
  0
LINE
  5
1BE1
102
{ACAD_REACTORS
330
1BC1
102
}
330
18
100
AcDbEntity
  8
ROGO
 62
     4
100
AcDbLine
 10
309.9823274044557
 20
291.6936648163934
 30
0.0
 11
310.328770468133
 21
291.6936648163934
 31
0.0
  0
SPLINE
  5
1BE2
102
{ACAD_REACTORS
330
1B9D
102
}
330
18
100
AcDbEntity
  8
ROGO
 62
     4
100
AcDbSpline
210
0.0
220
0.0
230
1.0
 70
     8
 71
     3
 72
    16
 73
    12
 74
    10
 42
0.0000000001
 43
0.0000000001
 44
0.0000000001
 40
0.0
 40
0.0
 40
0.0
 40
0.0
 40
0.0819415943559481
 40
0.1219641540169099
 40
0.1417005411968125
 40
0.1624994793437117
 40
0.1922834992858129
 40
0.2194033328231903
 40
0.2476886873805558
 40
0.2951111281337135
 40
0.3420494343556458
 40
0.3420494343556458
 40
0.3420494343556458
 40
0.3420494343556458
 10
311.6135216889848
 20
291.3748942551643
 30
0.0
 10
311.5857725489572
 20
291.3706637115616
 30
0.0
 10
311.5444699551431
 20
291.364366852493
 30
0.0
 10
311.5071199917828
 20
291.3348010324263
 30
0.0
 10
311.4860572057133
 20
291.3172113374926
 30
0.0
 10
311.4788915520547
 20
291.2939175883115
 30
0.0
 10
311.4596468565605
 20
291.2760315646877
 30
0.0
 10
311.4437837534477
 20
291.2514504108879
 30
0.0
 10
311.4399960040083
 20
291.2176877979894
 30
0.0
 10
311.442776298818
 20
291.1703071162343
 30
0.0
 10
311.4759968851036
 20
291.1605331326478
 30
0.0
 10
311.4925219561943
 20
291.1556712144319
 30
0.0
 11
311.6135216889848
 21
291.3748942551643
 31
0.0
 11
311.5344065923005
 21
291.3535582208039
 31
0.0
 11
311.5018297720421
 21
291.33030835922
 31
0.0
 11
311.4878683158748
 21
291.3163583513131
 31
0.0
 11
311.478560500027
 21
291.2977583407705
 31
0.0
 11
311.4599451359358
 21
291.2745084791867
 31
0.0
 11
311.4459836797685
 21
291.2512584660086
 31
0.0
 11
311.4413297718446
 21
291.223358601789
 31
0.0
 11
311.4506375876924
 21
291.1768585754328
 31
0.0
 11
311.4925219561943
 21
291.1556712144319
 31
0.0
  0
LINE
  5
1BE3
102
{ACAD_REACTORS
330
1B9D
102
}
330
18
100
AcDbEntity
  8
ROGO
 62
     4
100
AcDbLine
 10
311.4925219561943
 20
291.1556712144319
 30
0.0
 11
312.0403714402446
 21
291.1556712144319
 31
0.0
  0
LINE
  5
1BE4
102
{ACAD_REACTORS
330
1B9D
102
}
330
18
100
AcDbEntity
  8
ROGO
 62
     4
100
AcDbLine
 10
311.6135216889846
 20
291.3748942551643
 30
0.0
 11
312.1496831285988
 21
291.3748942551643
 31
0.0
  0
LINE
  5
1BE5
102
{ACAD_REACTORS
330
1B9C
102
}
330
18
100
AcDbEntity
  8
ROGO
 62
     4
100
AcDbLine
 10
312.8218342834079
 20
291.0242911460936
 30
0.0
 11
313.1556056141764
 21
290.3549174757939
 31
0.0
  0
LINE
  5
1BE6
102
{ACAD_REACTORS
330
1B9C
102
}
330
18
100
AcDbEntity
  8
ROGO
 62
     4
100
AcDbLine
 10
312.4880737457884
 20
290.704345668036
 30
0.0
 11
312.6623099279203
 21
290.3549174757939
 31
0.0
  0
LINE
  5
1BE7
102
{ACAD_REACTORS
330
1B9C
102
}
330
18
100
AcDbEntity
  8
ROGO
 62
     4
100
AcDbLine
 10
312.4880737457884
 20
290.704345668036
 30
0.0
 11
312.3138375636565
 21
290.3549174757939
 31
0.0
  0
LINE
  5
1BE8
102
{ACAD_REACTORS
330
1B9C
102
}
330
18
100
AcDbEntity
  8
ROGO
 62
     4
100
AcDbLine
 10
312.6623099279203
 20
290.3549174757939
 30
0.0
 11
313.1556056141764
 21
290.3549174757939
 31
0.0
  0
LINE
  5
1BE9
102
{ACAD_REACTORS
330
1B9C
102
}
330
18
100
AcDbEntity
  8
ROGO
 62
     4
100
AcDbLine
 10
312.8218342834079
 20
291.0242911460936
 30
0.0
 11
313.6327695051473
 21
291.6936648163934
 31
0.0
  0
LINE
  5
1BEA
102
{ACAD_REACTORS
330
1B9C
102
}
330
18
100
AcDbEntity
  8
ROGO
 62
     4
100
AcDbLine
 10
313.1394738188912
 20
291.6936648163934
 30
0.0
 11
313.6327695051473
 21
291.6936648163934
 31
0.0
  0
LINE
  5
1BEB
102
{ACAD_REACTORS
330
1B9C
102
}
330
18
100
AcDbEntity
  8
ROGO
 62
     4
100
AcDbLine
 10
312.4880737457884
 20
291.6936648163934
 30
0.0
 11
312.9813802251935
 21
291.6936648163934
 31
0.0
  0
LINE
  5
1BEC
102
{ACAD_REACTORS
330
1B9C
102
}
330
18
100
AcDbEntity
  8
ROGO
 62
     4
100
AcDbLine
 10
312.9813802251935
 20
291.6936648163934
 30
0.0
 11
312.9084981506423
 21
291.5475008494972
 31
0.0
  0
LINE
  5
1BED
102
{ACAD_REACTORS
330
1B9C
102
}
330
18
100
AcDbEntity
  8
ROGO
 62
     4
100
AcDbLine
 10
312.9084981506423
 20
291.5475008494972
 30
0.0
 11
313.1394738188912
 21
291.6936648163934
 31
0.0
  0
LINE
  5
1BF7
330
18
100
AcDbEntity
  8
ROGO
 62
     4
100
AcDbLine
 10
307.0823491536261
 20
291.6219277366855
 30
0.0
 11
307.577523379483
 21
291.6219277366855
 31
0.0
  0
LINE
  5
1BF8
330
18
100
AcDbEntity
  8
ROGO
 62
     4
100
AcDbLine
 10
303.9255623457681
 20
290.4173698246908
 30
0.0
 11
311.8874422672689
 21
290.4173698246908
 31
0.0
  0
LINE
  5
1C05
330
18
100
AcDbEntity
  8
ROGO
 62
     4
100
AcDbLine
 10
303.9142501730489
 20
291.6219277366855
 30
0.0
 11
304.9663239330147
 21
291.6219277366855
 31
0.0
  0
LINE
  5
1C07
330
18
100
AcDbEntity
  8
ROGO
 62
     4
100
AcDbLine
 10
304.5482975609989
 20
291.0627663598967
 30
0.0
 11
304.2268642249649
 21
291.0627663598968
 31
0.0
  0
LINE
  5
1C23
330
18
100
AcDbEntity
  8
ROGO
 62
     4
100
AcDbLine
 10
307.1807131751155
 20
291.1003385449145
 30
0.0
 11
307.4791593579936
 21
291.1003385449145
 31
0.0
  0
LINE
  5
1C2B
330
18
100
AcDbEntity
  8
ROGO
 62
     4
100
AcDbLine
 10
310.2760956496632
 20
291.1885847624044
 30
0.0
 11
310.2646939640123
 21
291.1070118901033
 31
0.0
  0
LINE
  5
1C2D
330
18
100
AcDbEntity
  8
ROGO
 62
     4
100
AcDbLine
 10
310.1409048065899
 20
291.0637721770761
 30
0.0
 11
310.1719532614796
 21
291.0594324411736
 31
0.0
  0
ARC
  5
1C30
330
18
100
AcDbEntity
  8
ROGO
 62
     4
100
AcDbCircle
 10
310.1460687203151
 20
291.1500214096707
 30
0.0
 40
0.0864036812184622
100
AcDbArc
 50
188.5583509056651
 51
266.5736774635929
  0
ARC
  5
1C31
330
18
100
AcDbEntity
  8
ROGO
 62
     4
100
AcDbCircle
 10
310.190537482556
 20
291.1373822135679
 30
0.0
 40
0.0801345137211963
100
AcDbArc
 50
256.5902863289752
 51
337.7287536965499
  0
LINE
  5
1C32
330
18
100
AcDbEntity
  8
ROGO
 62
     4
100
AcDbLine
 10
309.9823274044557
 20
291.6219277366855
 30
0.0
 11
310.2251274965984
 21
291.6219277366855
 31
0.0
  0
LINE
  5
1C33
330
18
100
AcDbEntity
  8
ROGO
 62
     4
100
AcDbLine
 10
309.9823274044557
 20
291.6219277366855
 30
0.0
 11
310.328770468133
 21
291.6219277366855
 31
0.0
  0
LINE
  5
1C3F
330
18
100
AcDbEntity
  8
ROGO
 62
     4
100
AcDbLine
 10
312.9084981506423
 20
291.4757637697892
 30
0.0
 11
313.1394738188912
 21
291.6219277366855
 31
0.0
  0
LINE
  5
1C40
330
18
100
AcDbEntity
  8
0
  6
ByBlock
 62
     2
100
AcDbLine
 10
329.2763693161431
 20
285.0386185865339
 30
0.0
 11
339.3387835923967
 21
285.0386185865339
 31
0.0
  0
LINE
  5
1C41
330
18
100
AcDbEntity
  8
0
  6
ByBlock
 62
     2
100
AcDbLine
 10
333.044396932412
 20
225.5386185865339
 30
0.0
 11
339.3387835923967
 21
225.5386185865339
 31
0.0
  0
LINE
  5
1C42
330
18
100
AcDbEntity
  8
0
  6
ByBlock
 62
     2
100
AcDbLine
 10
338.0887835923967
 20
282.5386185865339
 30
0.0
 11
338.0887835923967
 21
228.0386185865339
 31
0.0
  0
INSERT
  5
1C43
330
18
100
AcDbEntity
  8
0
  6
ByBlock
 62
     2
100
AcDbBlockReference
  2
_OPEN
 10
338.0887835923967
 20
285.0386185865339
 30
0.0
 41
2.5
 42
2.5
 43
2.5
 50
90.0
  0
INSERT
  5
1C44
330
18
100
AcDbEntity
  8
0
  6
ByBlock
 62
     2
100
AcDbBlockReference
  2
_OPEN
 10
338.0887835923967
 20
225.5386185865339
 30
0.0
 41
2.5
 42
2.5
 43
2.5
 50
270.0
  0
MTEXT
  5
1C45
330
18
100
AcDbEntity
  8
0
  6
ByBlock
 62
     6
100
AcDbMText
 10
336.2137835923967
 20
255.2886185865339
 30
0.0
 40
2.5
 41
0.0
 71
     5
 72
     1
  1
\A1;59.5
  7
STYLE3
 11
0.0000000000000001
 21
1.0
 31
0.0
 73
     1
 44
1.0
  0
POINT
  5
1C46
330
18
100
AcDbEntity
  8
DEFPOINTS
  6
ByBlock
 62
     0
100
AcDbPoint
 10
329.2763693161431
 20
285.0386185865339
 30
0.0
  0
POINT
  5
1C47
330
18
100
AcDbEntity
  8
DEFPOINTS
  6
ByBlock
 62
     0
100
AcDbPoint
 10
333.044396932412
 20
225.5386185865339
 30
0.0
  0
POINT
  5
1C48
330
18
100
AcDbEntity
  8
DEFPOINTS
  6
ByBlock
 62
     0
100
AcDbPoint
 10
338.0887835923967
 20
225.5386185865339
 30
0.0
  0
LINE
  5
1C49
330
18
100
AcDbEntity
  8
文字
 62
     2
100
AcDbLine
 10
382.3006694783556
 20
258.1758066040143
 30
0.0
 11
375.5446251499911
 21
246.2488537920309
 31
0.0
1001
ACAD
1000
DSTYLE
1002
{
1070
   271
1070
     2
1002
}
  0
LINE
  5
1C4A
330
18
100
AcDbEntity
  8
文字
 62
     2
100
AcDbLine
 10
375.5446251499911
 20
246.2488537920309
 30
0.0
 11
370.6339108642768
 21
246.2488537920309
 31
0.0
1001
ACAD
1000
DSTYLE
1002
{
1070
   271
1070
     2
1002
}
  0
TEXT
  5
1C4B
330
18
100
AcDbEntity
  8
文字
 62
     6
100
AcDbText
 10
371.7033075275286
 20
246.9493566324733
 30
0.0
 40
2.5
  1
C
  7
STYLE3
100
AcDbText
  0
LINE
  5
1C4C
330
18
100
AcDbEntity
  8
0
  6
ByBlock
 62
     2
100
AcDbLine
 10
308.3239144264295
 20
318.0386185865339
 30
0.0
 11
333.044396932412
 21
318.0386185865339
 31
0.0
  0
LINE
  5
1C4D
330
18
100
AcDbEntity
  8
0
  6
ByBlock
 62
     2
100
AcDbLine
 10
308.3239144264295
 20
302.5386185865339
 30
0.0
 11
333.044396932412
 21
302.5386185865339
 31
0.0
  0
LINE
  5
1C4E
330
18
100
AcDbEntity
  8
0
  6
ByBlock
 62
     2
100
AcDbLine
 10
331.7943969324121
 20
315.5386185865339
 30
0.0
 11
331.7943969324121
 21
305.0386185865339
 31
0.0
  0
INSERT
  5
1C4F
330
18
100
AcDbEntity
  8
0
  6
ByBlock
 62
     2
100
AcDbBlockReference
  2
_OPEN
 10
331.7943969324121
 20
318.0386185865339
 30
0.0
 41
2.5
 42
2.5
 43
2.5
 50
90.0
  0
INSERT
  5
1C50
330
18
100
AcDbEntity
  8
0
  6
ByBlock
 62
     2
100
AcDbBlockReference
  2
_OPEN
 10
331.7943969324121
 20
302.5386185865339
 30
0.0
 41
2.5
 42
2.5
 43
2.5
 50
270.0
  0
MTEXT
  5
1C51
330
18
100
AcDbEntity
  8
0
  6
ByBlock
 62
     6
100
AcDbMText
 10
329.919396932412
 20
310.2886185865339
 30
0.0
 40
2.5
 41
0.0
 71
     5
 72
     1
  1
\A1;15.5
  7
STYLE3
 11
0.0000000000000001
 21
1.0
 31
0.0
 73
     1
 44
1.0
  0
POINT
  5
1C52
330
18
100
AcDbEntity
  8
DEFPOINTS
  6
ByBlock
 62
     0
100
AcDbPoint
 10
308.3239144264295
 20
318.0386185865339
 30
0.0
  0
POINT
  5
1C53
330
18
100
AcDbEntity
  8
DEFPOINTS
  6
ByBlock
 62
     0
100
AcDbPoint
 10
308.3239144264295
 20
302.5386185865339
 30
0.0
  0
POINT
  5
1C54
330
18
100
AcDbEntity
  8
DEFPOINTS
  6
ByBlock
 62
     0
100
AcDbPoint
 10
331.7943969324121
 20
302.5386185865339
 30
0.0
  0
LINE
  5
1C55
330
18
100
AcDbEntity
  8
0
  6
ByBlock
 62
     2
100
AcDbLine
 10
381.9438110680185
 20
301.8386185865339
 30
0.0
 11
381.9438110680185
 21
328.7417071247972
 31
0.0
  0
LINE
  5
1C56
330
18
100
AcDbEntity
  8
0
  6
ByBlock
 62
     2
100
AcDbLine
 10
397.7938110680185
 20
300.188618586534
 30
0.0
 11
397.7938110680185
 21
328.7417071247972
 31
0.0
  0
LINE
  5
1C57
330
18
100
AcDbEntity
  8
0
  6
ByBlock
 62
     2
100
AcDbLine
 10
384.4438110680185
 20
327.4917071247972
 30
0.0
 11
395.2938110680186
 21
327.4917071247972
 31
0.0
  0
INSERT
  5
1C58
330
18
100
AcDbEntity
  8
0
  6
ByBlock
 62
     2
100
AcDbBlockReference
  2
_OPEN
 10
381.9438110680185
 20
327.4917071247972
 30
0.0
 41
2.5
 42
2.5
 43
2.5
 50
180.0
  0
INSERT
  5
1C59
330
18
100
AcDbEntity
  8
0
  6
ByBlock
 62
     2
100
AcDbBlockReference
  2
_OPEN
 10
397.7938110680185
 20
327.4917071247972
 30
0.0
 41
2.5
 42
2.5
 43
2.5
  0
MTEXT
  5
1C5A
330
18
100
AcDbEntity
  8
0
  6
ByBlock
 62
     6
100
AcDbMText
 10
389.8688110680185
 20
329.3667071247972
 30
0.0
 40
2.5
 41
0.0
 71
     5
 72
     1
  1
\A1;15.85
  7
STYLE3
 73
     1
 44
1.0
  0
POINT
  5
1C5B
330
18
100
AcDbEntity
  8
DEFPOINTS
  6
ByBlock
 62
     0
100
AcDbPoint
 10
381.9438110680185
 20
301.8386185865339
 30
0.0
  0
POINT
  5
1C5C
330
18
100
AcDbEntity
  8
DEFPOINTS
  6
ByBlock
 62
     0
100
AcDbPoint
 10
397.7938110680185
 20
300.188618586534
 30
0.0
  0
POINT
  5
1C5D
330
18
100
AcDbEntity
  8
DEFPOINTS
  6
ByBlock
 62
     0
100
AcDbPoint
 10
397.7938110680185
 20
327.4917071247972
 30
0.0
  0
LINE
  5
1C5E
330
18
100
AcDbEntity
  8
寸法線
 62
     2
100
AcDbLine
 10
384.7133353684405
 20
301.0920140833882
 30
0.0
 11
379.4554397683102
 21
317.0684293109272
 31
0.0
1001
ACAD
1000
DSTYLE
1002
{
1070
   271
1070
     2
1002
}
  0
LINE
  5
1C5F
330
18
100
AcDbEntity
  8
寸法線
 62
     2
100
AcDbLine
 10
379.4554397683102
 20
317.0684293109272
 30
0.0
 11
374.6637731016435
 21
317.0684293109272
 31
0.0
1001
ACAD
1000
DSTYLE
1002
{
1070
   271
1070
     2
1002
}
  0
TEXT
  5
1C60
330
18
100
AcDbEntity
  8
文字
 62
     6
100
AcDbText
 10
375.5858923898356
 20
317.6934293109272
 30
0.0
 40
2.5
  1
B
  7
STYLE3
100
AcDbText
  0
INSERT
  5
1C6C
330
18
100
AcDbEntity
  8
文字
100
AcDbBlockReference
  2
AVE_RENDER
 10
401.8587549159702
 20
218.1081395175064
 30
0.0
  0
INSERT
  5
1FDE
330
18
100
AcDbEntity
  8
文字
100
AcDbBlockReference
  2
ROGO1
 10
300.7756054085867
 20
204.1511762370092
 30
0.0
  0
CIRCLE
  5
2167
330
18
100
AcDbEntity
  8
外形線
100
AcDbCircle
 10
308.3239144264295
 20
285.0386185865339
 30
0.0
 40
9.5
  0
LINE
  5
221C
330
18
100
AcDbEntity
  8
中心線
 48
0.3
100
AcDbLine
 10
308.9739144264294
 20
283.5786185865339
 30
0.0
 11
318.5739144264295
 21
283.5786185865339
 31
0.0
  0
LINE
  5
221D
330
18
100
AcDbEntity
  8
中心線
 48
0.3
100
AcDbLine
 10
313.7739144264295
 20
288.3786185865339
 30
0.0
 11
313.7739144264295
 21
278.7786185865339
 31
0.0
  0
ARC
  5
221E
330
18
100
AcDbEntity
  8
外形線
100
AcDbCircle
 10
313.7739144264295
 20
283.5786185865339
 30
0.0
 40
3.799999999999999
100
AcDbArc
 50
75.00000000000115
 51
254.9999999999851
  0
LINE
  5
221F
330
18
100
AcDbEntity
  8
外形線
100
AcDbLine
 10
314.757426797819
 20
287.2491367264324
 30
0.0
 11
314.6280172752677
 21
286.7661738132879
 31
0.0
  0
LINE
  5
2222
330
18
100
AcDbEntity
  8
外形線
100
AcDbLine
 10
311.0869086579205
 20
286.2656243550429
 30
0.0
 11
311.4404620485138
 21
285.9120709644495
 31
0.0
  0
LINE
  5
2223
330
18
100
AcDbEntity
  8
外形線
100
AcDbLine
 10
310.1033962865309
 20
282.5951062151443
 30
0.0
 11
310.5863591996755
 21
282.7245157376955
 31
0.0
  0
LINE
  5
2224
330
18
100
AcDbEntity
  8
外形線
100
AcDbLine
 10
312.7904020550398
 20
279.9081004466355
 30
0.0
 11
312.9198115775911
 21
280.3910633597801
 31
0.0
  0
TEXT
  5
2227
330
18
100
AcDbEntity
  8
文字
100
AcDbText
 10
314.0733859082614
 20
285.5038576889059
 30
0.0
 40
1.0
  1
0
  7
STYLE3
100
AcDbText
  0
TEXT
  5
2228
330
18
100
AcDbEntity
  8
文字
100
AcDbText
 10
310.9869885225095
 20
284.5299634574758
 30
0.0
 40
1.0
  1
0.5
  7
STYLE3
100
AcDbText
  0
TEXT
  5
2229
330
18
100
AcDbEntity
  8
文字
100
AcDbText
 10
310.7027149966395
 20
282.2778336445507
 30
0.0
 40
1.0
  1
1
  7
STYLE3
100
AcDbText
  0
TEXT
  5
222A
330
18
100
AcDbEntity
  8
文字
100
AcDbText
 10
312.0022499959987
 20
280.7561241639086
 30
0.0
 40
1.0
  1
1.5
  7
STYLE3
100
AcDbText
  0
INSERT
  5
223F
330
18
100
AcDbEntity
  8
外形線
100
AcDbBlockReference
  2
A$C4BFB2CFF
 10
313.7697582931584
 20
282.588677878309
 30
0.0
 50
44.75945492667417
  0
INSERT
  5
2250
330
18
100
AcDbEntity
  8
外形線
100
AcDbBlockReference
  2
A$C63053C59
 10
299.723914090015
 20
283.4251762065382
 30
0.0
  0
LINE
  5
24B0
102
{ACAD_REACTORS
330
2505
102
}
330
18
100
AcDbEntity
  8
針
100
AcDbLine
 10
299.9207326542702
 20
296.4855149389977
 30
0.0
 11
300.0339950334827
 21
296.5678048743186
 31
0.0
  0
HATCH
  5
24B1
102
{ACAD_REACTORS
330
2505
102
}
330
18
100
AcDbEntity
  8
針
100
AcDbHatch
 10
0.0
 20
0.0
 30
0.0
210
0.0
220
0.0
230
1.0
  2
SOLID
 70
     1
 71
     0
 91
        1
 92
        7
 72
     1
 73
     1
 93
        6
 10
306.9202328298991
 20
286.5204678317676
 42
-0.1640812035095831
 10
307.1011974555661
 20
285.9075047753774
 42
-0.1637712156695709
 10
307.8753948779185
 20
286.4699921277884
 42
-0.1640812035096
 10
307.3483535136022
 20
286.8315157155966
 42
0.0
 10
300.0339950334827
 20
296.5678048743187
 42
0.0
 10
299.9207326542702
 20
296.4855149389977
 42
0.0
 97
        0
 75
     0
 76
     1
 47
0.025221982651283
 98
        1
 10
305.5875531617863
 20
288.7462442634389
450
        0
451
        0
460
0.0
461
0.0
452
        1
462
1.0
453
        2
463
0.0
 63
     5
421
      255
463
1.0
 63
    51
421
 16777113
470
LINEAR
  0
LINE
  5
24B2
102
{ACAD_REACTORS
330
2505
102
}
330
18
100
AcDbEntity
  8
針
100
AcDbLine
 10
300.0339950334827
 20
296.5678048743186
 30
0.0
 11
299.9207326542702
 21
296.4855149389977
 31
0.0
  0
HATCH
  5
24B3
102
{ACAD_REACTORS
330
2505
102
}
330
18
100
AcDbEntity
  8
針
100
AcDbHatch
 10
0.0
 20
0.0
 30
0.0
210
0.0
220
0.0
230
1.0
  2
SOLID
 70
     1
 71
     0
 91
        1
 92
        7
 72
     1
 73
     1
 93
        8
 10
312.0298292900776
 20
279.5020381987955
 42
-0.2863987309425337
 10
312.0543371391689
 20
279.2917109153736
 42
3.911320250911082
 10
312.6367844011944
 20
279.7148836215553
 42
-0.2863987309426852
 10
312.444324609606
 20
279.8031866760922
 42
0.0
 10
309.6588204983341
 20
284.0291600982106
 42
-0.1053331282509125
 10
309.5829169882277
 20
284.2231968861939
 42
-0.1859706772386703
 10
308.7103733605091
 20
283.5892568331161
 42
-0.10533312825095
 10
308.871457837566
 20
283.4571076401991
 42
0.0
 97
        0
 75
     0
 76
     1
 47
0.0292545011116796
 98
        1
 10
309.7332727693035
 20
282.6405801737545
450
        0
451
        0
460
0.0
461
0.0
452
        1
462
1.0
453
        2
463
0.0
 63
     5
421
      255
463
1.0
 63
    51
421
 16777113
470
LINEAR
  0
ARC
  5
24B4
102
{ACAD_REACTORS
330
2505
102
}
330
18
100
AcDbEntity
  8
針
100
AcDbCircle
 10
308.4807496739916
 20
283.1451026227453
 30
0.0
 40
0.5
100
AcDbArc
 50
38.60956348104645
 51
62.66144748262805
  0
ARC
  5
24B5
102
{ACAD_REACTORS
330
2505
102
}
330
18
100
AcDbEntity
  8
針
100
AcDbCircle
 10
310.0762903656858
 20
284.3043307904243
 30
0.0
 40
0.5
100
AcDbArc
 50
189.3385525173754
 51
213.3904365189465
  0
ARC
  5
24B6
102
{ACAD_REACTORS
330
2505
102
}
330
18
100
AcDbEntity
  8
針
100
AcDbCircle
 10
308.1478746796536
 20
287.4321536306799
 30
0.0
 40
1.0
100
AcDbArc
 50
216.9155986228613
 51
254.1881170613591
  0
ARC
  5
24B7
102
{ACAD_REACTORS
330
2505
102
}
330
18
100
AcDbEntity
  8
針
100
AcDbCircle
 10
306.1019265991528
 20
285.9456853401052
 30
0.0
 40
1.0
100
AcDbArc
 50
357.8118829386388
 51
35.08440137713942
  0
LINE
  5
24B8
102
{ACAD_REACTORS
330
2505
102
}
330
18
100
AcDbEntity
  8
針
100
AcDbLine
 10
300.0339950334827
 20
296.5678048743186
 30
0.0
 11
307.3483535136022
 21
286.8315157155966
 31
0.0
  0
LINE
  5
24B9
102
{ACAD_REACTORS
330
2505
102
}
330
18
100
AcDbEntity
  8
針
100
AcDbLine
 10
306.9202328298991
 20
286.5204678317676
 30
0.0
 11
299.9207326542702
 21
296.4855149389977
 31
0.0
  0
LINE
  5
24BA
102
{ACAD_REACTORS
330
2505
102
}
330
18
100
AcDbEntity
  8
針
100
AcDbLine
 10
309.6588204983341
 20
284.0291600982106
 30
0.0
 11
312.444324609606
 21
279.8031866760922
 31
0.0
  0
LINE
  5
24BB
102
{ACAD_REACTORS
330
2505
102
}
330
18
100
AcDbEntity
  8
針
100
AcDbLine
 10
308.871457837566
 20
283.4571076401992
 30
0.0
 11
312.0298292900776
 21
279.5020381987955
 31
0.0
  0
ARC
  5
24BC
102
{ACAD_REACTORS
330
2505
102
}
330
18
100
AcDbEntity
  8
針
100
AcDbCircle
 10
312.7323038186231
 20
278.9709911287218
 30
0.0
 40
0.75
100
AcDbArc
 50
154.6829815593742
 51
97.31701844062024
  0
ARC
  5
24BD
102
{ACAD_REACTORS
330
2505
102
}
330
18
100
AcDbEntity
  8
針
100
AcDbCircle
 10
312.6113125565467
 20
279.9132549529776
 30
0.0
 40
0.2
100
AcDbArc
 50
213.3904365189465
 51
277.3170184406203
  0
ARC
  5
24BE
102
{ACAD_REACTORS
330
2505
102
}
330
18
100
AcDbEntity
  8
針
100
AcDbCircle
 10
311.8735460246479
 20
279.3772361918141
 30
0.0
 40
0.2
100
AcDbArc
 50
334.6829815593742
 51
38.60956348105561
  0
HATCH
  5
24BF
102
{ACAD_REACTORS
330
2505
102
}
330
18
100
AcDbEntity
  8
針
100
AcDbHatch
 10
0.0
 20
0.0
 30
0.0
210
0.0
220
0.0
230
1.0
  2
SOLID
 70
     1
 71
     0
 91
        1
 92
        7
 72
     1
 73
     1
 93
        6
 10
306.9202328298991
 20
286.5204678317676
 42
-0.1640812035095831
 10
307.1011974555661
 20
285.9075047753774
 42
-0.1637712156695709
 10
307.8753948779185
 20
286.4699921277884
 42
-0.1640812035096
 10
307.3483535136022
 20
286.8315157155966
 42
0.0
 10
300.0339950334827
 20
296.5678048743187
 42
0.0
 10
299.9207326542702
 20
296.4855149389977
 42
0.0
 97
        0
 75
     0
 76
     1
 47
0.025221982651283
 98
        1
 10
305.5875531617863
 20
288.7462442634389
450
        0
451
        0
460
0.0
461
0.0
452
        1
462
1.0
453
        2
463
0.0
 63
     5
421
      255
463
1.0
 63
    51
421
 16777113
470
LINEAR
  0
LINE
  5
24C0
102
{ACAD_REACTORS
330
2505
102
}
330
18
100
AcDbEntity
  8
針
100
AcDbLine
 10
300.0339950334827
 20
296.5678048743186
 30
0.0
 11
299.9207326542702
 21
296.4855149389977
 31
0.0
  0
HATCH
  5
24C1
102
{ACAD_REACTORS
330
2505
102
}
330
18
100
AcDbEntity
  8
針
100
AcDbHatch
 10
0.0
 20
0.0
 30
0.0
210
0.0
220
0.0
230
1.0
  2
SOLID
 70
     1
 71
     0
 91
        1
 92
        7
 72
     1
 73
     1
 93
        8
 10
312.0298292900776
 20
279.5020381987955
 42
-0.2863987309425337
 10
312.0543371391689
 20
279.2917109153736
 42
3.911320250911082
 10
312.6367844011944
 20
279.7148836215553
 42
-0.2863987309426852
 10
312.444324609606
 20
279.8031866760922
 42
0.0
 10
309.6588204983341
 20
284.0291600982106
 42
-0.1053331282509125
 10
309.5829169882277
 20
284.2231968861939
 42
-0.1859706772386703
 10
308.7103733605091
 20
283.5892568331161
 42
-0.10533312825095
 10
308.871457837566
 20
283.4571076401991
 42
0.0
 97
        0
 75
     0
 76
     1
 47
0.0292545011116796
 98
        1
 10
309.7332727693035
 20
282.6405801737545
450
        0
451
        0
460
0.0
461
0.0
452
        1
462
1.0
453
        2
463
0.0
 63
     5
421
      255
463
1.0
 63
    51
421
 16777113
470
LINEAR
  0
ARC
  5
24C2
102
{ACAD_REACTORS
330
2505
102
}
330
18
100
AcDbEntity
  8
針
100
AcDbCircle
 10
308.4807496739916
 20
283.1451026227453
 30
0.0
 40
0.5
100
AcDbArc
 50
38.60956348104645
 51
62.66144748262805
  0
ARC
  5
24C3
102
{ACAD_REACTORS
330
2505
102
}
330
18
100
AcDbEntity
  8
針
100
AcDbCircle
 10
310.0762903656858
 20
284.3043307904243
 30
0.0
 40
0.5
100
AcDbArc
 50
189.3385525173754
 51
213.3904365189465
  0
ARC
  5
24C4
102
{ACAD_REACTORS
330
2505
102
}
330
18
100
AcDbEntity
  8
針
100
AcDbCircle
 10
308.1478746796536
 20
287.4321536306799
 30
0.0
 40
1.0
100
AcDbArc
 50
216.9155986228613
 51
254.1881170613591
  0
ARC
  5
24C5
102
{ACAD_REACTORS
330
2505
102
}
330
18
100
AcDbEntity
  8
針
100
AcDbCircle
 10
306.1019265991528
 20
285.9456853401052
 30
0.0
 40
1.0
100
AcDbArc
 50
357.8118829386388
 51
35.08440137713942
  0
LINE
  5
24C6
102
{ACAD_REACTORS
330
2505
102
}
330
18
100
AcDbEntity
  8
針
100
AcDbLine
 10
300.0339950334827
 20
296.5678048743186
 30
0.0
 11
307.3483535136022
 21
286.8315157155966
 31
0.0
  0
LINE
  5
24C7
102
{ACAD_REACTORS
330
2505
102
}
330
18
100
AcDbEntity
  8
針
100
AcDbLine
 10
306.9202328298991
 20
286.5204678317676
 30
0.0
 11
299.9207326542702
 21
296.4855149389977
 31
0.0
  0
LINE
  5
24C8
102
{ACAD_REACTORS
330
2505
102
}
330
18
100
AcDbEntity
  8
針
100
AcDbLine
 10
309.6588204983341
 20
284.0291600982106
 30
0.0
 11
312.444324609606
 21
279.8031866760922
 31
0.0
  0
LINE
  5
24C9
102
{ACAD_REACTORS
330
2505
102
}
330
18
100
AcDbEntity
  8
針
100
AcDbLine
 10
308.871457837566
 20
283.4571076401992
 30
0.0
 11
312.0298292900776
 21
279.5020381987955
 31
0.0
  0
ARC
  5
24CA
102
{ACAD_REACTORS
330
2505
102
}
330
18
100
AcDbEntity
  8
針
100
AcDbCircle
 10
312.7323038186231
 20
278.9709911287218
 30
0.0
 40
0.75
100
AcDbArc
 50
154.6829815593742
 51
97.31701844062024
  0
ARC
  5
24CB
102
{ACAD_REACTORS
330
2505
102
}
330
18
100
AcDbEntity
  8
針
100
AcDbCircle
 10
312.6113125565467
 20
279.9132549529776
 30
0.0
 40
0.2
100
AcDbArc
 50
213.3904365189465
 51
277.3170184406203
  0
ARC
  5
24CC
102
{ACAD_REACTORS
330
2505
102
}
330
18
100
AcDbEntity
  8
針
100
AcDbCircle
 10
311.8735460246479
 20
279.3772361918141
 30
0.0
 40
0.2
100
AcDbArc
 50
334.6829815593742
 51
38.60956348105561
  0
HATCH
  5
24CD
102
{ACAD_REACTORS
330
2505
102
}
330
18
100
AcDbEntity
  8
針
100
AcDbHatch
 10
0.0
 20
0.0
 30
0.0
210
0.0
220
0.0
230
1.0
  2
SOLID
 70
     1
 71
     0
 91
        1
 92
        7
 72
     1
 73
     1
 93
        6
 10
306.9202328298991
 20
286.5204678317676
 42
-0.1640812035095831
 10
307.1011974555661
 20
285.9075047753774
 42
-0.1637712156695709
 10
307.8753948779185
 20
286.4699921277884
 42
-0.1640812035096
 10
307.3483535136022
 20
286.8315157155966
 42
0.0
 10
300.0339950334827
 20
296.5678048743187
 42
0.0
 10
299.9207326542702
 20
296.4855149389977
 42
0.0
 97
        0
 75
     0
 76
     1
 47
0.025221982651283
 98
        1
 10
305.5875531617863
 20
288.7462442634389
450
        0
451
        0
460
0.0
461
0.0
452
        1
462
1.0
453
        2
463
0.0
 63
     5
421
      255
463
1.0
 63
    51
421
 16777113
470
LINEAR
  0
LINE
  5
24CE
102
{ACAD_REACTORS
330
2505
102
}
330
18
100
AcDbEntity
  8
針
100
AcDbLine
 10
300.0339950334827
 20
296.5678048743186
 30
0.0
 11
299.9207326542702
 21
296.4855149389977
 31
0.0
  0
HATCH
  5
24CF
102
{ACAD_REACTORS
330
2505
102
}
330
18
100
AcDbEntity
  8
針
100
AcDbHatch
 10
0.0
 20
0.0
 30
0.0
210
0.0
220
0.0
230
1.0
  2
SOLID
 70
     1
 71
     0
 91
        1
 92
        7
 72
     1
 73
     1
 93
        8
 10
312.0298292900776
 20
279.5020381987955
 42
-0.2863987309425337
 10
312.0543371391689
 20
279.2917109153736
 42
3.911320250911082
 10
312.6367844011944
 20
279.7148836215553
 42
-0.2863987309426852
 10
312.444324609606
 20
279.8031866760922
 42
0.0
 10
309.6588204983341
 20
284.0291600982106
 42
-0.1053331282509125
 10
309.5829169882277
 20
284.2231968861939
 42
-0.1859706772386703
 10
308.7103733605091
 20
283.5892568331161
 42
-0.10533312825095
 10
308.871457837566
 20
283.4571076401991
 42
0.0
 97
        0
 75
     0
 76
     1
 47
0.0292545011116796
 98
        1
 10
309.7332727693035
 20
282.6405801737545
450
        0
451
        0
460
0.0
461
0.0
452
        1
462
1.0
453
        2
463
0.0
 63
     5
421
      255
463
1.0
 63
    51
421
 16777113
470
LINEAR
  0
ARC
  5
24D0
102
{ACAD_REACTORS
330
2505
102
}
330
18
100
AcDbEntity
  8
針
100
AcDbCircle
 10
308.4807496739916
 20
283.1451026227453
 30
0.0
 40
0.5
100
AcDbArc
 50
38.60956348104645
 51
62.66144748262805
  0
ARC
  5
24D1
102
{ACAD_REACTORS
330
2505
102
}
330
18
100
AcDbEntity
  8
針
100
AcDbCircle
 10
310.0762903656858
 20
284.3043307904243
 30
0.0
 40
0.5
100
AcDbArc
 50
189.3385525173754
 51
213.3904365189465
  0
ARC
  5
24D2
102
{ACAD_REACTORS
330
2505
102
}
330
18
100
AcDbEntity
  8
針
100
AcDbCircle
 10
308.1478746796536
 20
287.4321536306799
 30
0.0
 40
1.0
100
AcDbArc
 50
216.9155986228613
 51
254.1881170613591
  0
ARC
  5
24D3
102
{ACAD_REACTORS
330
2505
102
}
330
18
100
AcDbEntity
  8
針
100
AcDbCircle
 10
306.1019265991528
 20
285.9456853401052
 30
0.0
 40
1.0
100
AcDbArc
 50
357.8118829386388
 51
35.08440137713942
  0
LINE
  5
24D4
102
{ACAD_REACTORS
330
2505
102
}
330
18
100
AcDbEntity
  8
針
100
AcDbLine
 10
300.0339950334827
 20
296.5678048743186
 30
0.0
 11
307.3483535136022
 21
286.8315157155966
 31
0.0
  0
LINE
  5
24D5
102
{ACAD_REACTORS
330
2505
102
}
330
18
100
AcDbEntity
  8
針
100
AcDbLine
 10
306.9202328298991
 20
286.5204678317676
 30
0.0
 11
299.9207326542702
 21
296.4855149389977
 31
0.0
  0
LINE
  5
24D6
102
{ACAD_REACTORS
330
2505
102
}
330
18
100
AcDbEntity
  8
針
100
AcDbLine
 10
309.6588204983341
 20
284.0291600982106
 30
0.0
 11
312.444324609606
 21
279.8031866760922
 31
0.0
  0
LINE
  5
24D7
102
{ACAD_REACTORS
330
2505
102
}
330
18
100
AcDbEntity
  8
針
100
AcDbLine
 10
308.871457837566
 20
283.4571076401992
 30
0.0
 11
312.0298292900776
 21
279.5020381987955
 31
0.0
  0
ARC
  5
24D8
102
{ACAD_REACTORS
330
2505
102
}
330
18
100
AcDbEntity
  8
針
100
AcDbCircle
 10
312.7323038186231
 20
278.9709911287218
 30
0.0
 40
0.75
100
AcDbArc
 50
154.6829815593742
 51
97.31701844062024
  0
ARC
  5
24D9
102
{ACAD_REACTORS
330
2505
102
}
330
18
100
AcDbEntity
  8
針
100
AcDbCircle
 10
312.6113125565467
 20
279.9132549529776
 30
0.0
 40
0.2
100
AcDbArc
 50
213.3904365189465
 51
277.3170184406203
  0
ARC
  5
24DA
102
{ACAD_REACTORS
330
2505
102
}
330
18
100
AcDbEntity
  8
針
100
AcDbCircle
 10
311.8735460246479
 20
279.3772361918141
 30
0.0
 40
0.2
100
AcDbArc
 50
334.6829815593742
 51
38.60956348105561
  0
HATCH
  5
24DB
102
{ACAD_REACTORS
330
2505
102
}
330
18
100
AcDbEntity
  8
針
100
AcDbHatch
 10
0.0
 20
0.0
 30
0.0
210
0.0
220
0.0
230
1.0
  2
SOLID
 70
     1
 71
     0
 91
        1
 92
        7
 72
     1
 73
     1
 93
        6
 10
306.9202328298991
 20
286.5204678317676
 42
-0.1640812035095831
 10
307.1011974555661
 20
285.9075047753774
 42
-0.1637712156695709
 10
307.8753948779185
 20
286.4699921277884
 42
-0.1640812035096
 10
307.3483535136022
 20
286.8315157155966
 42
0.0
 10
300.0339950334827
 20
296.5678048743187
 42
0.0
 10
299.9207326542702
 20
296.4855149389977
 42
0.0
 97
        0
 75
     0
 76
     1
 47
0.025221982651283
 98
        1
 10
305.5875531617863
 20
288.7462442634389
450
        0
451
        0
460
0.0
461
0.0
452
        1
462
1.0
453
        2
463
0.0
 63
     5
421
      255
463
1.0
 63
    51
421
 16777113
470
LINEAR
  0
LINE
  5
24DC
102
{ACAD_REACTORS
330
2505
102
}
330
18
100
AcDbEntity
  8
針
100
AcDbLine
 10
300.0339950334827
 20
296.5678048743186
 30
0.0
 11
299.9207326542702
 21
296.4855149389977
 31
0.0
  0
HATCH
  5
24DD
102
{ACAD_REACTORS
330
2505
102
}
330
18
100
AcDbEntity
  8
針
100
AcDbHatch
 10
0.0
 20
0.0
 30
0.0
210
0.0
220
0.0
230
1.0
  2
SOLID
 70
     1
 71
     0
 91
        1
 92
        7
 72
     1
 73
     1
 93
        8
 10
312.0298292900776
 20
279.5020381987955
 42
-0.2863987309425337
 10
312.0543371391689
 20
279.2917109153736
 42
3.911320250911082
 10
312.6367844011944
 20
279.7148836215553
 42
-0.2863987309426852
 10
312.444324609606
 20
279.8031866760922
 42
0.0
 10
309.6588204983341
 20
284.0291600982106
 42
-0.1053331282509125
 10
309.5829169882277
 20
284.2231968861939
 42
-0.1859706772386703
 10
308.7103733605091
 20
283.5892568331161
 42
-0.10533312825095
 10
308.871457837566
 20
283.4571076401991
 42
0.0
 97
        0
 75
     0
 76
     1
 47
0.0292545011116796
 98
        1
 10
309.7332727693035
 20
282.6405801737545
450
        0
451
        0
460
0.0
461
0.0
452
        1
462
1.0
453
        2
463
0.0
 63
     5
421
      255
463
1.0
 63
    51
421
 16777113
470
LINEAR
  0
ARC
  5
24DE
102
{ACAD_REACTORS
330
2505
102
}
330
18
100
AcDbEntity
  8
針
100
AcDbCircle
 10
308.4807496739916
 20
283.1451026227453
 30
0.0
 40
0.5
100
AcDbArc
 50
38.60956348104645
 51
62.66144748262805
  0
ARC
  5
24DF
102
{ACAD_REACTORS
330
2505
102
}
330
18
100
AcDbEntity
  8
針
100
AcDbCircle
 10
310.0762903656858
 20
284.3043307904243
 30
0.0
 40
0.5
100
AcDbArc
 50
189.3385525173754
 51
213.3904365189465
  0
ARC
  5
24E0
102
{ACAD_REACTORS
330
2505
102
}
330
18
100
AcDbEntity
  8
針
100
AcDbCircle
 10
308.1478746796536
 20
287.4321536306799
 30
0.0
 40
1.0
100
AcDbArc
 50
216.9155986228613
 51
254.1881170613591
  0
ARC
  5
24E1
102
{ACAD_REACTORS
330
2505
102
}
330
18
100
AcDbEntity
  8
針
100
AcDbCircle
 10
306.1019265991528
 20
285.9456853401052
 30
0.0
 40
1.0
100
AcDbArc
 50
357.8118829386388
 51
35.08440137713942
  0
LINE
  5
24E2
102
{ACAD_REACTORS
330
2505
102
}
330
18
100
AcDbEntity
  8
針
100
AcDbLine
 10
300.0339950334827
 20
296.5678048743186
 30
0.0
 11
307.3483535136022
 21
286.8315157155966
 31
0.0
  0
LINE
  5
24E3
102
{ACAD_REACTORS
330
2505
102
}
330
18
100
AcDbEntity
  8
針
100
AcDbLine
 10
306.9202328298991
 20
286.5204678317676
 30
0.0
 11
299.9207326542702
 21
296.4855149389977
 31
0.0
  0
LINE
  5
24E4
102
{ACAD_REACTORS
330
2505
102
}
330
18
100
AcDbEntity
  8
針
100
AcDbLine
 10
309.6588204983341
 20
284.0291600982106
 30
0.0
 11
312.444324609606
 21
279.8031866760922
 31
0.0
  0
LINE
  5
24E5
102
{ACAD_REACTORS
330
2505
102
}
330
18
100
AcDbEntity
  8
針
100
AcDbLine
 10
308.871457837566
 20
283.4571076401992
 30
0.0
 11
312.0298292900776
 21
279.5020381987955
 31
0.0
  0
ARC
  5
24E6
102
{ACAD_REACTORS
330
2505
102
}
330
18
100
AcDbEntity
  8
針
100
AcDbCircle
 10
312.7323038186231
 20
278.9709911287218
 30
0.0
 40
0.75
100
AcDbArc
 50
154.6829815593742
 51
97.31701844062024
  0
ARC
  5
24E7
102
{ACAD_REACTORS
330
2505
102
}
330
18
100
AcDbEntity
  8
針
100
AcDbCircle
 10
312.6113125565467
 20
279.9132549529776
 30
0.0
 40
0.2
100
AcDbArc
 50
213.3904365189465
 51
277.3170184406203
  0
ARC
  5
24E8
102
{ACAD_REACTORS
330
2505
102
}
330
18
100
AcDbEntity
  8
針
100
AcDbCircle
 10
311.8735460246479
 20
279.3772361918141
 30
0.0
 40
0.2
100
AcDbArc
 50
334.6829815593742
 51
38.60956348105561
  0
HATCH
  5
24E9
102
{ACAD_REACTORS
330
2505
102
}
330
18
100
AcDbEntity
  8
針
100
AcDbHatch
 10
0.0
 20
0.0
 30
0.0
210
0.0
220
0.0
230
1.0
  2
SOLID
 70
     1
 71
     0
 91
        1
 92
        7
 72
     1
 73
     1
 93
        6
 10
306.9202328298991
 20
286.5204678317676
 42
-0.1640812035095831
 10
307.1011974555661
 20
285.9075047753774
 42
-0.1637712156695709
 10
307.8753948779185
 20
286.4699921277884
 42
-0.1640812035096
 10
307.3483535136022
 20
286.8315157155966
 42
0.0
 10
300.0339950334827
 20
296.5678048743187
 42
0.0
 10
299.9207326542702
 20
296.4855149389977
 42
0.0
 97
        0
 75
     0
 76
     1
 47
0.025221982651283
 98
        1
 10
305.5875531617863
 20
288.7462442634389
450
        0
451
        0
460
0.0
461
0.0
452
        1
462
1.0
453
        2
463
0.0
 63
     5
421
      255
463
1.0
 63
    51
421
 16777113
470
LINEAR
  0
LINE
  5
24EA
102
{ACAD_REACTORS
330
2505
102
}
330
18
100
AcDbEntity
  8
針
100
AcDbLine
 10
300.0339950334827
 20
296.5678048743186
 30
0.0
 11
299.9207326542702
 21
296.4855149389977
 31
0.0
  0
HATCH
  5
24EB
102
{ACAD_REACTORS
330
2505
102
}
330
18
100
AcDbEntity
  8
針
100
AcDbHatch
 10
0.0
 20
0.0
 30
0.0
210
0.0
220
0.0
230
1.0
  2
SOLID
 70
     1
 71
     0
 91
        1
 92
        7
 72
     1
 73
     1
 93
        8
 10
312.0298292900776
 20
279.5020381987955
 42
-0.2863987309425337
 10
312.0543371391689
 20
279.2917109153736
 42
3.911320250911082
 10
312.6367844011944
 20
279.7148836215553
 42
-0.2863987309426852
 10
312.444324609606
 20
279.8031866760922
 42
0.0
 10
309.6588204983341
 20
284.0291600982106
 42
-0.1053331282509125
 10
309.5829169882277
 20
284.2231968861939
 42
-0.1859706772386703
 10
308.7103733605091
 20
283.5892568331161
 42
-0.10533312825095
 10
308.871457837566
 20
283.4571076401991
 42
0.0
 97
        0
 75
     0
 76
     1
 47
0.0292545011116796
 98
        1
 10
309.7332727693035
 20
282.6405801737545
450
        0
451
        0
460
0.0
461
0.0
452
        1
462
1.0
453
        2
463
0.0
 63
     5
421
      255
463
1.0
 63
    51
421
 16777113
470
LINEAR
  0
ARC
  5
24EC
102
{ACAD_REACTORS
330
2505
102
}
330
18
100
AcDbEntity
  8
針
100
AcDbCircle
 10
308.4807496739916
 20
283.1451026227453
 30
0.0
 40
0.5
100
AcDbArc
 50
38.60956348104645
 51
62.66144748262805
  0
ARC
  5
24ED
102
{ACAD_REACTORS
330
2505
102
}
330
18
100
AcDbEntity
  8
針
100
AcDbCircle
 10
310.0762903656858
 20
284.3043307904243
 30
0.0
 40
0.5
100
AcDbArc
 50
189.3385525173754
 51
213.3904365189465
  0
ARC
  5
24EE
102
{ACAD_REACTORS
330
2505
102
}
330
18
100
AcDbEntity
  8
針
100
AcDbCircle
 10
308.1478746796536
 20
287.4321536306799
 30
0.0
 40
1.0
100
AcDbArc
 50
216.9155986228613
 51
254.1881170613591
  0
ARC
  5
24EF
102
{ACAD_REACTORS
330
2505
102
}
330
18
100
AcDbEntity
  8
針
100
AcDbCircle
 10
306.1019265991528
 20
285.9456853401052
 30
0.0
 40
1.0
100
AcDbArc
 50
357.8118829386388
 51
35.08440137713942
  0
LINE
  5
24F0
102
{ACAD_REACTORS
330
2505
102
}
330
18
100
AcDbEntity
  8
針
100
AcDbLine
 10
300.0339950334827
 20
296.5678048743186
 30
0.0
 11
307.3483535136022
 21
286.8315157155966
 31
0.0
  0
LINE
  5
24F1
102
{ACAD_REACTORS
330
2505
102
}
330
18
100
AcDbEntity
  8
針
100
AcDbLine
 10
306.9202328298991
 20
286.5204678317676
 30
0.0
 11
299.9207326542702
 21
296.4855149389977
 31
0.0
  0
LINE
  5
24F2
102
{ACAD_REACTORS
330
2505
102
}
330
18
100
AcDbEntity
  8
針
100
AcDbLine
 10
309.6588204983341
 20
284.0291600982106
 30
0.0
 11
312.444324609606
 21
279.8031866760922
 31
0.0
  0
LINE
  5
24F3
102
{ACAD_REACTORS
330
2505
102
}
330
18
100
AcDbEntity
  8
針
100
AcDbLine
 10
308.871457837566
 20
283.4571076401992
 30
0.0
 11
312.0298292900776
 21
279.5020381987955
 31
0.0
  0
ARC
  5
24F4
102
{ACAD_REACTORS
330
2505
102
}
330
18
100
AcDbEntity
  8
針
100
AcDbCircle
 10
312.7323038186231
 20
278.9709911287218
 30
0.0
 40
0.75
100
AcDbArc
 50
154.6829815593742
 51
97.31701844062024
  0
ARC
  5
24F5
102
{ACAD_REACTORS
330
2505
102
}
330
18
100
AcDbEntity
  8
針
100
AcDbCircle
 10
312.6113125565467
 20
279.9132549529776
 30
0.0
 40
0.2
100
AcDbArc
 50
213.3904365189465
 51
277.3170184406203
  0
ARC
  5
24F6
102
{ACAD_REACTORS
330
2505
102
}
330
18
100
AcDbEntity
  8
針
100
AcDbCircle
 10
311.8735460246479
 20
279.3772361918141
 30
0.0
 40
0.2
100
AcDbArc
 50
334.6829815593742
 51
38.60956348105561
  0
HATCH
  5
24F7
102
{ACAD_REACTORS
330
2505
102
}
330
18
100
AcDbEntity
  8
針
100
AcDbHatch
 10
0.0
 20
0.0
 30
0.0
210
0.0
220
0.0
230
1.0
  2
SOLID
 70
     1
 71
     0
 91
        1
 92
        7
 72
     1
 73
     1
 93
        6
 10
306.9202328298991
 20
286.5204678317676
 42
-0.1640812035095831
 10
307.1011974555661
 20
285.9075047753774
 42
-0.1637712156695709
 10
307.8753948779185
 20
286.4699921277884
 42
-0.1640812035096
 10
307.3483535136022
 20
286.8315157155966
 42
0.0
 10
300.0339950334827
 20
296.5678048743187
 42
0.0
 10
299.9207326542702
 20
296.4855149389977
 42
0.0
 97
        0
 75
     0
 76
     1
 47
0.025221982651283
 98
        1
 10
305.5875531617863
 20
288.7462442634389
450
        0
451
        0
460
0.0
461
0.0
452
        1
462
1.0
453
        2
463
0.0
 63
     5
421
      255
463
1.0
 63
    51
421
 16777113
470
LINEAR
  0
LINE
  5
24F8
102
{ACAD_REACTORS
330
2505
102
}
330
18
100
AcDbEntity
  8
針
100
AcDbLine
 10
300.0339950334827
 20
296.5678048743186
 30
0.0
 11
299.9207326542702
 21
296.4855149389977
 31
0.0
  0
HATCH
  5
24F9
102
{ACAD_REACTORS
330
2505
102
}
330
18
100
AcDbEntity
  8
針
100
AcDbHatch
 10
0.0
 20
0.0
 30
0.0
210
0.0
220
0.0
230
1.0
  2
SOLID
 70
     1
 71
     0
 91
        1
 92
        7
 72
     1
 73
     1
 93
        8
 10
312.0298292900776
 20
279.5020381987955
 42
-0.2863987309425337
 10
312.0543371391689
 20
279.2917109153736
 42
3.911320250911082
 10
312.6367844011944
 20
279.7148836215553
 42
-0.2863987309426852
 10
312.444324609606
 20
279.8031866760922
 42
0.0
 10
309.6588204983341
 20
284.0291600982106
 42
-0.1053331282509125
 10
309.5829169882277
 20
284.2231968861939
 42
-0.1859706772386703
 10
308.7103733605091
 20
283.5892568331161
 42
-0.10533312825095
 10
308.871457837566
 20
283.4571076401991
 42
0.0
 97
        0
 75
     0
 76
     1
 47
0.0292545011116796
 98
        1
 10
309.7332727693035
 20
282.6405801737545
450
        0
451
        0
460
0.0
461
0.0
452
        1
462
1.0
453
        2
463
0.0
 63
     5
421
      255
463
1.0
 63
    51
421
 16777113
470
LINEAR
  0
ARC
  5
24FA
102
{ACAD_REACTORS
330
2505
102
}
330
18
100
AcDbEntity
  8
針
100
AcDbCircle
 10
308.4807496739916
 20
283.1451026227453
 30
0.0
 40
0.5
100
AcDbArc
 50
38.60956348104645
 51
62.66144748262805
  0
ARC
  5
24FB
102
{ACAD_REACTORS
330
2505
102
}
330
18
100
AcDbEntity
  8
針
100
AcDbCircle
 10
310.0762903656858
 20
284.3043307904243
 30
0.0
 40
0.5
100
AcDbArc
 50
189.3385525173754
 51
213.3904365189465
  0
ARC
  5
24FC
102
{ACAD_REACTORS
330
2505
102
}
330
18
100
AcDbEntity
  8
針
100
AcDbCircle
 10
308.1478746796536
 20
287.4321536306799
 30
0.0
 40
1.0
100
AcDbArc
 50
216.9155986228613
 51
254.1881170613591
  0
ARC
  5
24FD
102
{ACAD_REACTORS
330
2505
102
}
330
18
100
AcDbEntity
  8
針
100
AcDbCircle
 10
306.1019265991528
 20
285.9456853401052
 30
0.0
 40
1.0
100
AcDbArc
 50
357.8118829386388
 51
35.08440137713942
  0
LINE
  5
24FE
102
{ACAD_REACTORS
330
2505
102
}
330
18
100
AcDbEntity
  8
針
100
AcDbLine
 10
300.0339950334827
 20
296.5678048743186
 30
0.0
 11
307.3483535136022
 21
286.8315157155966
 31
0.0
  0
LINE
  5
24FF
102
{ACAD_REACTORS
330
2505
102
}
330
18
100
AcDbEntity
  8
針
100
AcDbLine
 10
306.9202328298991
 20
286.5204678317676
 30
0.0
 11
299.9207326542702
 21
296.4855149389977
 31
0.0
  0
LINE
  5
2500
102
{ACAD_REACTORS
330
2505
102
}
330
18
100
AcDbEntity
  8
針
100
AcDbLine
 10
309.6588204983341
 20
284.0291600982106
 30
0.0
 11
312.444324609606
 21
279.8031866760922
 31
0.0
  0
LINE
  5
2501
102
{ACAD_REACTORS
330
2505
102
}
330
18
100
AcDbEntity
  8
針
100
AcDbLine
 10
308.871457837566
 20
283.4571076401992
 30
0.0
 11
312.0298292900776
 21
279.5020381987955
 31
0.0
  0
ARC
  5
2502
102
{ACAD_REACTORS
330
2505
102
}
330
18
100
AcDbEntity
  8
針
100
AcDbCircle
 10
312.7323038186231
 20
278.9709911287218
 30
0.0
 40
0.75
100
AcDbArc
 50
154.6829815593742
 51
97.31701844062024
  0
ARC
  5
2503
102
{ACAD_REACTORS
330
2505
102
}
330
18
100
AcDbEntity
  8
針
100
AcDbCircle
 10
312.6113125565467
 20
279.9132549529776
 30
0.0
 40
0.2
100
AcDbArc
 50
213.3904365189465
 51
277.3170184406203
  0
ARC
  5
2504
102
{ACAD_REACTORS
330
2505
102
}
330
18
100
AcDbEntity
  8
針
100
AcDbCircle
 10
311.8735460246479
 20
279.3772361918141
 30
0.0
 40
0.2
100
AcDbArc
 50
334.6829815593742
 51
38.60956348105561
  0
TEXT
  5
2568
330
18
100
AcDbEntity
  8
文字
100
AcDbText
 10
307.4317996888012
 20
357.5372852789909
 30
0.0
 40
4.0
  1
Model No.PCN-7A New Pic Test Indicator
  7
STYLE3
100
AcDbText
  0
LINE
  5
2569
330
18
100
AcDbEntity
  8
外形線
100
AcDbLine
 10
306.7533026888012
 20
355.1190912789909
 30
0.0
 11
429.7533026888013
 21
355.1190912789909
 31
0.0
  0
LINE
  5
256A
330
18
100
AcDbEntity
  8
外形線
100
AcDbLine
 10
306.7533026888012
 20
356.1190912789909
 30
0.0
 11
429.7533026888013
 21
356.1190912789909
 31
0.0
  0
LINE
  5
2574
330
18
100
AcDbEntity
  8
外形線
100
AcDbLine
 10
350.1079526888012
 20
192.9003362789908
 30
0.0
 11
490.8993706888012
 21
192.9003362789908
 31
0.0
  0
LINE
  5
2575
330
18
100
AcDbEntity
  8
外形線
100
AcDbLine
 10
350.1079526888012
 20
182.1201302789908
 30
0.0
 11
490.8993706888012
 21
182.1201302789908
 31
0.0
  0
TEXT
  5
2576
330
18
100
AcDbEntity
  8
0
  6
Continuous
100
AcDbText
 10
351.5654196888012
 20
184.0181202789908
 30
0.0
 40
2.1
  1
Design and specifications are subject to change without notice for future improvement.
  7
STYLE3
100
AcDbText
  0
TEXT
  5
2577
330
18
100
AcDbEntity
  8
0
  6
Continuous
100
AcDbText
 10
351.8569136888012
 20
187.9472682789908
 30
0.0
 40
3.5
  1
仕様及び外観は予告なく変更される場合がございますのでご了承下さい。
  7
STYLE3
100
AcDbText
  0
TEXT
  5
2578
330
18
100
AcDbEntity
  8
0
  6
Continuous
100
AcDbText
 10
351.2739286888012
 20
174.2534922789908
 30
0.0
 40
2.1
  1
3RD Angle Projection
  7
STYLE3
100
AcDbText
  0
TEXT
  5
2579
330
18
100
AcDbEntity
  8
0
  6
Continuous
100
AcDbText
 10
353.8973716888012
 20
177.7497752789909
 30
0.0
 40
3.0
  1
三　　角　　法
  7
STYLE3
100
AcDbText
  0
LINE
  5
257A
330
18
100
AcDbEntity
  8
外形線
100
AcDbLine
 10
350.1079526888012
 20
172.5053522789908
 30
0.0
 11
350.1079526888012
 21
192.9003362789908
 31
0.0
  0
LINE
  5
257B
330
18
100
AcDbEntity
  8
外形線
100
AcDbLine
 10
452.1307196888011
 20
182.1201302789908
 30
0.0
 11
452.1307196888011
 21
172.5053522789908
 31
0.0
  0
LINE
  5
257C
330
18
100
AcDbEntity
  8
外形線
100
AcDbLine
 10
422.3983696888011
 20
182.1201302789908
 30
0.0
 11
422.3983696888011
 21
172.5053522789908
 31
0.0
  0
LINE
  5
257D
330
18
100
AcDbEntity
  8
外形線
100
AcDbLine
 10
402.8682976888012
 20
182.1201302789908
 30
0.0
 11
402.8682976888012
 21
172.5053522789908
 31
0.0
  0
LINE
  5
257E
330
18
100
AcDbEntity
  8
外形線
100
AcDbLine
 10
385.3786806888012
 20
182.1201302789908
 30
0.0
 11
385.3786806888012
 21
172.5053522789908
 31
0.0
  0
TEXT
  5
257F
330
18
100
AcDbEntity
  8
0
  6
Continuous
100
AcDbText
 10
386.8361496888013
 20
177.7557302789908
 30
0.0
 40
3.0
  1
単位
  7
STYLE3
100
AcDbText
  0
TEXT
  5
2580
330
18
100
AcDbEntity
  8
0
  6
Continuous
100
AcDbText
 10
387.0078706888012
 20
174.2534932789908
 30
0.0
 40
2.1
  1
Unit
  7
STYLE3
100
AcDbText
  0
TEXT
  5
2581
330
18
100
AcDbEntity
  8
0
  6
Continuous
100
AcDbText
 10
404.1540456888012
 20
177.4643722789909
 30
0.0
 40
3.0
  1
尺 度
  7
STYLE3
100
AcDbText
  0
TEXT
  5
2582
330
18
100
AcDbEntity
  8
0
  6
Continuous
100
AcDbText
 10
394.8781976888012
 20
176.0016362789909
 30
0.0
 40
2.399999999999999
  1
mm
  7
STYLE3
100
AcDbText
  0
TEXT
  5
2583
330
18
100
AcDbEntity
  8
0
  6
Continuous
100
AcDbText
 10
404.6172606888012
 20
174.5448502789909
 30
0.0
 40
2.1
  1
Scale
  7
STYLE3
100
AcDbText
  0
TEXT
  5
2584
330
18
100
AcDbEntity
  8
0
  6
Continuous
100
AcDbText
 10
414.2365496888012
 20
176.2929932789909
 30
0.0
 40
2.399999999999999
  1
1/1
  7
STYLE3
100
AcDbText
  0
TEXT
  5
2585
330
18
100
AcDbEntity
  8
0
  6
Continuous
100
AcDbText
 10
424.3303206888012
 20
174.2534942789909
 30
0.0
 40
2.1
  1
Date
  7
STYLE3
100
AcDbText
  0
TEXT
  5
2586
330
18
100
AcDbEntity
  8
0
  6
Continuous
100
AcDbText
 10
423.9469596888012
 20
177.5865772789908
 30
0.0
 40
3.0
  1
日 付
  7
STYLE3
100
AcDbText
  0
TEXT
  5
2587
330
18
100
AcDbEntity
  8
0
  6
Continuous
100
AcDbText
 10
433.0751286888012
 20
176.0016352789909
 30
0.0
 40
2.1
  1
2010.06.22
  7
STYLE3
100
AcDbText
  0
TEXT
  5
2588
330
18
100
AcDbEntity
  8
0
  6
Continuous
100
AcDbText
 10
453.4796826888012
 20
178.0411322789908
 30
0.0
 40
3.0
  1
株式会社　尾崎製作所
  7
STYLE3
100
AcDbText
  0
TEXT
  5
2589
330
18
100
AcDbEntity
  8
0
  6
Continuous
100
AcDbText
 10
454.3541616888012
 20
174.2534932789908
 30
0.0
 40
2.1
  1
OZAKI MFG. CO., LTD.
  7
STYLE3
100
AcDbText
  0
ENDSEC
  0
SECTION
  2
OBJECTS
  0
DICTIONARY
  5
C
330
0
100
AcDbDictionary
281
     1
  3
ACAD_COLOR
350
2257
  3
ACAD_GROUP
350
D
  3
ACAD_IMAGE_DICT
350
B2C
  3
ACAD_LAYOUT
350
225A
  3
ACAD_MATERIAL
350
2256
  3
ACAD_MLINESTYLE
350
1B
  3
ACAD_PLOTSETTINGS
350
225B
  3
ACAD_PLOTSTYLENAME
350
2254
  3
ACAD_TABLESTYLE
350
2258
  3
ACDBVARIABLEDICTIONARY
350
1297
  3
AVE_ACITABLE
350
1835
  0
DICTIONARY
  5
2509
330
2
100
AcDbDictionary
280
     1
281
     1
  3
ACAD_LAYERSTATES
360
250A
  0
DICTIONARY
  5
2257
102
{ACAD_REACTORS
330
C
102
}
330
C
100
AcDbDictionary
281
     1
  0
DICTIONARY
  5
D
102
{ACAD_REACTORS
330
C
102
}
330
C
100
AcDbDictionary
281
     1
  3
*A1
350
24AF
  3
*A2
350
2505
  0
DICTIONARY
  5
B2C
102
{ACAD_REACTORS
330
C
102
}
330
C
100
AcDbDictionary
281
     1
  3
ROGO01
350
B2D
  0
DICTIONARY
  5
225A
102
{ACAD_REACTORS
330
C
102
}
330
C
100
AcDbDictionary
281
     1
  3
Model
350
225C
  3
レイアウト1
350
225D
  0
DICTIONARY
  5
2256
102
{ACAD_REACTORS
330
C
102
}
330
C
100
AcDbDictionary
281
     1
  0
DICTIONARY
  5
1B
102
{ACAD_REACTORS
330
C
102
}
330
C
100
AcDbDictionary
281
     1
  3
STANDARD
350
1C
  0
DICTIONARY
  5
225B
102
{ACAD_REACTORS
330
C
102
}
330
C
100
AcDbDictionary
281
     1
  0
ACDBDICTIONARYWDFLT
  5
2254
102
{ACAD_REACTORS
330
C
102
}
330
C
100
AcDbDictionary
281
     1
  3
Normal
350
2255
100
AcDbDictionaryWithDefault
340
2255
  0
DICTIONARY
  5
2258
102
{ACAD_REACTORS
330
C
102
}
330
C
100
AcDbDictionary
281
     1
  3
Standard
350
2259
  0
DICTIONARY
  5
1297
102
{ACAD_REACTORS
330
C
102
}
330
C
100
AcDbDictionary
281
     1
  3
CTABLESTYLE
350
2514
  3
SORTENTS
350
1298
  0
DICTIONARY
  5
1835
102
{ACAD_REACTORS
330
C
102
}
330
C
100
AcDbDictionary
281
     1
  0
DICTIONARY
  5
250A
102
{ACAD_REACTORS
330
2509
102
}
330
2509
100
AcDbDictionary
281
     1
  0
GROUP
  5
24AF
102
{ACAD_REACTORS
330
D
102
}
330
D
100
AcDbGroup
300

 70
     1
 71
     1
  0
GROUP
  5
2505
102
{ACAD_REACTORS
330
D
102
}
330
D
100
AcDbGroup
300

 70
     1
 71
     1
340
24DC
340
24CE
340
24C0
340
24B2
340
24B0
340
24F8
340
24EA
340
24E3
340
24E2
340
24DB
340
24D5
340
24D4
340
24CD
340
24C7
340
24C6
340
24BF
340
24B9
340
24B8
340
24B1
340
24FF
340
24FE
340
24F7
340
24F1
340
24F0
340
24E9
340
24E0
340
24D2
340
24C4
340
24B6
340
24FC
340
24EE
340
24E1
340
24D3
340
24C5
340
24B7
340
24FD
340
24EF
340
24DF
340
24DE
340
24D1
340
24D0
340
24C3
340
24C2
340
24B5
340
24B4
340
24FB
340
24FA
340
24ED
340
24EC
340
24E5
340
24E4
340
24DD
340
24D7
340
24D6
340
24CF
340
24C9
340
24C8
340
24C1
340
24BB
340
24BA
340
24B3
340
2501
340
2500
340
24F9
340
24F3
340
24F2
340
24EB
340
24D9
340
24D8
340
24CB
340
24CA
340
24BD
340
24BC
340
2503
340
2502
340
24F5
340
24F4
340
24E7
340
24E6
340
24DA
340
24CC
340
24BE
340
2504
340
24F6
340
24E8
  0
IMAGEDEF
  5
B2D
102
{ACAD_REACTORS
330
B2C
102
}
330
B2C
100
AcDbRasterImageDef
 90
        0
  1
D:\ﾃｽﾄ\rogo01.TIF
 10
3388.0
 20
4668.0
 11
0.0635
 21
0.0635
280
     1
281
     5
  0
LAYOUT
  5
225C
102
{ACAD_REACTORS
330
225A
102
}
330
225A
100
AcDbPlotSettings
  1

  2
A4 EPSON LP-6100.pc3
  4
A4
  6

 40
5.873749732971191
 41
5.873747825622558
 42
5.873748779296875
 43
5.873748779296875
 44
209.9733276367187
 45
297.0106506347656
 46
0.8
 47
25.0
 48
0.0
 49
0.0
140
0.0
141
0.0
142
1.0
143
1.0
 70
 28336
 72
     1
 73
     1
 74
     1
  7
AutoCad LT 98.ctb
 75
    16
147
1.0
 76
     1
 77
     2
 78
   300
148
-236.4655427980613
149
-171.6339896600951
100
AcDbLayout
  1
Model
 70
     1
 71
     0
 10
0.0
 20
0.0
 11
12.0
 21
9.0
 12
0.0
 22
0.0
 32
0.0
 14
0.0
 24
0.0
 34
0.0
 15
0.0
 25
0.0
 35
0.0
146
0.0
 13
0.0
 23
0.0
 33
0.0
 16
1.0
 26
0.0
 36
0.0
 17
0.0
 27
1.0
 37
0.0
 76
     0
330
18
1001
ACAD_PSEXT
1000
A4 EPSON LP-6100.pc3
1000
EPSON LP-6100
1000
\\SATO-MATE2
1000

1070
     0
  0
LAYOUT
  5
225D
102
{ACAD_REACTORS
330
225A
102
}
330
225A
100
AcDbPlotSettings
  1

  2
WIDR Printer
  4

  6

 40
0.0
 41
0.0
 42
0.0
 43
0.0
 44
0.0
 45
0.0
 46
0.0
 47
0.0
 48
0.0
 49
0.0
140
0.0
141
0.0
142
1.0
143
1.0
 70
   688
 72
     0
 73
     0
 74
     5
  7
AutoCad LT 98.ctb
 75
    16
147
1.0
 76
     0
 77
     2
 78
   300
148
0.0
149
0.0
100
AcDbLayout
  1
レイアウト1
 70
     1
 71
     1
 10
0.0
 20
0.0
 11
420.0
 21
297.0
 12
0.0
 22
0.0
 32
0.0
 14
1.000000000000000E+20
 24
1.000000000000000E+20
 34
1.000000000000000E+20
 15
-1.000000000000000E+20
 25
-1.000000000000000E+20
 35
-1.000000000000000E+20
146
0.0
 13
0.0
 23
0.0
 33
0.0
 16
1.0
 26
0.0
 36
0.0
 17
0.0
 27
1.0
 37
0.0
 76
     0
330
15
  0
MLINESTYLE
  5
1C
102
{ACAD_REACTORS
330
1B
102
}
330
1B
100
AcDbMlineStyle
  2
STANDARD
 70
     0
  3

 62
   256
 51
90.0
 52
90.0
 71
     2
 49
0.5
 62
   256
  6
BYLAYER
 49
-0.5
 62
   256
  6
BYLAYER
  0
ACDBPLACEHOLDER
  5
2255
102
{ACAD_REACTORS
330
2254
102
}
330
2254
  0
ACAD_PROXY_OBJECT
  5
2259
102
{ACAD_REACTORS
330
2258
102
}
330
2258
100
AcDbProxyObject
 90
      499
 91
      505
 95
  2555929
 70
     0
 93
     1849
310
4214DD185B99185C992420000000000000F83F0000000000003E0FC00000000000004901028000000C1008070000C3001FDFF8000000C1003FBFF000000182007F7FE00000030400FEFFC00000060801FDFF8000000C1003FBFF000000182000000000000000C2020B0000001820100E000186003FBFF000000182007F7FE0
310
0000030400FEFFC00000060801FDFF8000000C1003FBFF000000182007F7FE0000003040000000000000012404160000003040201C00030C007F7FE00000030400FEFFC00000060801FDFF8000000C1003FBFF000000182007F7FE00000030400FEFFC000000608000
340
F
340
F
340
F
 94
        0
  0
DICTIONARYVAR
  5
2514
102
{ACAD_REACTORS
330
1297
102
}
330
1297
100
DictionaryVariables
280
     0
  1
STANDARD
  0
DICTIONARYVAR
  5
1298
102
{ACAD_REACTORS
330
1297
102
}
330
1297
100
DictionaryVariables
280
     0
  1
96
  0
ENDSEC
  0
EOF
