  0
SECTION
  2
HEADER
  9
$ACADVER
  1
AC1018
  9
$ACADMAINTVER
 70
     0
  9
$DWGCODEPAGE
  3
ANSI_932
  9
$INSBASE
 10
0.0
 20
0.0
 30
0.0
  9
$EXTMIN
 10
236.4886379941705
 20
171.6235136330668
 30
-0.0015258207003583
  9
$EXTMAX
 10
491.9065729289581
 20
367.0613775925545
 30
0.0000000349246037
  9
$LIMMIN
 10
0.0
 20
0.0
  9
$LIMMAX
 10
420.0
 20
297.0
  9
$ORTHOMODE
 70
     0
  9
$REGENMODE
 70
     1
  9
$FILLMODE
 70
     1
  9
$QTEXTMODE
 70
     0
  9
$MIRRTEXT
 70
     1
  9
$LTSCALE
 40
1.0
  9
$ATTMODE
 70
     1
  9
$TEXTSIZE
 40
1.5
  9
$TRACEWID
 40
1.0
  9
$TEXTSTYLE
  7
STYLE3
  9
$CLAYER
  8
外形線
  9
$CELTYPE
  6
BYLAYER
  9
$CECOLOR
 62
   256
  9
$CELTSCALE
 40
1.0
  9
$DISPSILH
 70
     0
  9
$DIMSCALE
 40
1.0
  9
$DIMASZ
 40
2.5
  9
$DIMEXO
 40
0.0
  9
$DIMDLI
 40
3.75
  9
$DIMRND
 40
0.0
  9
$DIMDLE
 40
0.0
  9
$DIMEXE
 40
1.25
  9
$DIMTP
 40
0.0
  9
$DIMTM
 40
0.0
  9
$DIMTXT
 40
2.5
  9
$DIMCEN
 40
2.5
  9
$DIMTSZ
 40
0.0
  9
$DIMTOL
 70
     0
  9
$DIMLIM
 70
     0
  9
$DIMTIH
 70
     0
  9
$DIMTOH
 70
     0
  9
$DIMSE1
 70
     0
  9
$DIMSE2
 70
     0
  9
$DIMTAD
 70
     1
  9
$DIMZIN
 70
     8
  9
$DIMBLK
  1

  9
$DIMASO
 70
     1
  9
$DIMSHO
 70
     1
  9
$DIMPOST
  1

  9
$DIMAPOST
  1

  9
$DIMALT
 70
     0
  9
$DIMALTD
 70
     4
  9
$DIMALTF
 40
0.0394
  9
$DIMLFAC
 40
1.0
  9
$DIMTOFL
 70
     1
  9
$DIMTVP
 40
0.0
  9
$DIMTIX
 70
     0
  9
$DIMSOXD
 70
     0
  9
$DIMSAH
 70
     1
  9
$DIMBLK1
  1
OPEN
  9
$DIMBLK2
  1
OPEN
  9
$DIMSTYLE
  2
STYLE3
  9
$DIMCLRD
 70
     2
  9
$DIMCLRE
 70
     2
  9
$DIMCLRT
 70
     6
  9
$DIMTFAC
 40
1.0
  9
$DIMGAP
 40
0.625
  9
$DIMJUST
 70
     0
  9
$DIMSD1
 70
     0
  9
$DIMSD2
 70
     0
  9
$DIMTOLJ
 70
     1
  9
$DIMTZIN
 70
     0
  9
$DIMALTZ
 70
     0
  9
$DIMALTTZ
 70
     0
  9
$DIMUPT
 70
     0
  9
$DIMDEC
 70
     2
  9
$DIMTDEC
 70
     4
  9
$DIMALTU
 70
     8
  9
$DIMALTTD
 70
     4
  9
$DIMTXSTY
  7
STYLE3
  9
$DIMAUNIT
 70
     0
  9
$DIMADEC
 70
     0
  9
$DIMALTRND
 40
0.0
  9
$DIMAZIN
 70
     0
  9
$DIMDSEP
 70
    46
  9
$DIMATFIT
 70
     3
  9
$DIMFRAC
 70
     0
  9
$DIMLDRBLK
  1

  9
$DIMLUNIT
 70
     2
  9
$DIMLWD
 70
    -2
  9
$DIMLWE
 70
    -2
  9
$DIMTMOVE
 70
     0
  9
$LUNITS
 70
     2
  9
$LUPREC
 70
     4
  9
$SKETCHINC
 40
1.0
  9
$FILLETRAD
 40
0.0
  9
$AUNITS
 70
     0
  9
$AUPREC
 70
     0
  9
$MENU
  1
.
  9
$ELEVATION
 40
0.0
  9
$PELEVATION
 40
0.0
  9
$THICKNESS
 40
0.0
  9
$LIMCHECK
 70
     0
  9
$CHAMFERA
 40
0.1
  9
$CHAMFERB
 40
0.1
  9
$CHAMFERC
 40
20.0
  9
$CHAMFERD
 40
0.0
  9
$SKPOLY
 70
     0
  9
$TDCREATE
 40
2451066.662483449
  9
$TDUCREATE
 40
2451066.287483449
  9
$TDUPDATE
 40
2455362.564113495
  9
$TDUUPDATE
 40
2455362.189113496
  9
$TDINDWG
 40
0.8901520370
  9
$TDUSRTIMER
 40
0.8901520370
  9
$USRTIMER
 70
     1
  9
$ANGBASE
 50
0.0
  9
$ANGDIR
 70
     0
  9
$PDMODE
 70
     0
  9
$PDSIZE
 40
0.0
  9
$PLINEWID
 40
0.0
  9
$SPLFRAME
 70
     0
  9
$SPLINETYPE
 70
     6
  9
$SPLINESEGS
 70
     8
  9
$HANDSEED
  5
2345
  9
$SURFTAB1
 70
     6
  9
$SURFTAB2
 70
     6
  9
$SURFTYPE
 70
     6
  9
$SURFU
 70
     6
  9
$SURFV
 70
     6
  9
$UCSBASE
  2

  9
$UCSNAME
  2

  9
$UCSORG
 10
0.0
 20
0.0
 30
0.0
  9
$UCSXDIR
 10
1.0
 20
0.0
 30
0.0
  9
$UCSYDIR
 10
0.0
 20
1.0
 30
0.0
  9
$UCSORTHOREF
  2

  9
$UCSORTHOVIEW
 70
     0
  9
$UCSORGTOP
 10
0.0
 20
0.0
 30
0.0
  9
$UCSORGBOTTOM
 10
0.0
 20
0.0
 30
0.0
  9
$UCSORGLEFT
 10
0.0
 20
0.0
 30
0.0
  9
$UCSORGRIGHT
 10
0.0
 20
0.0
 30
0.0
  9
$UCSORGFRONT
 10
0.0
 20
0.0
 30
0.0
  9
$UCSORGBACK
 10
0.0
 20
0.0
 30
0.0
  9
$PUCSBASE
  2

  9
$PUCSNAME
  2

  9
$PUCSORG
 10
0.0
 20
0.0
 30
0.0
  9
$PUCSXDIR
 10
1.0
 20
0.0
 30
0.0
  9
$PUCSYDIR
 10
0.0
 20
1.0
 30
0.0
  9
$PUCSORTHOREF
  2

  9
$PUCSORTHOVIEW
 70
     0
  9
$PUCSORGTOP
 10
0.0
 20
0.0
 30
0.0
  9
$PUCSORGBOTTOM
 10
0.0
 20
0.0
 30
0.0
  9
$PUCSORGLEFT
 10
0.0
 20
0.0
 30
0.0
  9
$PUCSORGRIGHT
 10
0.0
 20
0.0
 30
0.0
  9
$PUCSORGFRONT
 10
0.0
 20
0.0
 30
0.0
  9
$PUCSORGBACK
 10
0.0
 20
0.0
 30
0.0
  9
$USERI1
 70
     0
  9
$USERI2
 70
     0
  9
$USERI3
 70
     0
  9
$USERI4
 70
     0
  9
$USERI5
 70
     0
  9
$USERR1
 40
0.0
  9
$USERR2
 40
0.0
  9
$USERR3
 40
0.0
  9
$USERR4
 40
0.0
  9
$USERR5
 40
0.0
  9
$WORLDVIEW
 70
     1
  9
$SHADEDGE
 70
     3
  9
$SHADEDIF
 70
    70
  9
$TILEMODE
 70
     1
  9
$MAXACTVP
 70
    48
  9
$PINSBASE
 10
0.0
 20
0.0
 30
0.0
  9
$PLIMCHECK
 70
     0
  9
$PEXTMIN
 10
1.000000000000000E+20
 20
1.000000000000000E+20
 30
1.000000000000000E+20
  9
$PEXTMAX
 10
-1.000000000000000E+20
 20
-1.000000000000000E+20
 30
-1.000000000000000E+20
  9
$PLIMMIN
 10
0.0
 20
0.0
  9
$PLIMMAX
 10
420.0
 20
297.0
  9
$UNITMODE
 70
     0
  9
$VISRETAIN
 70
     1
  9
$PLINEGEN
 70
     0
  9
$PSLTSCALE
 70
     1
  9
$TREEDEPTH
 70
  3020
  9
$CMLSTYLE
  2
STANDARD
  9
$CMLJUST
 70
     0
  9
$CMLSCALE
 40
20.0
  9
$PROXYGRAPHICS
 70
     1
  9
$MEASUREMENT
 70
     1
  9
$CELWEIGHT
370
    -1
  9
$ENDCAPS
280
     0
  9
$JOINSTYLE
280
     0
  9
$LWDISPLAY
290
     0
  9
$INSUNITS
 70
     0
  9
$HYPERLINKBASE
  1

  9
$STYLESHEET
  1
AutoCAD LT 98.ctb
  9
$XEDIT
290
     1
  9
$CEPSNTYPE
380
     0
  9
$PSTYLEMODE
290
     1
  9
$FINGERPRINTGUID
  2
{CC4F4913-A99D-45AF-B92F-190E87A5D007}
  9
$VERSIONGUID
  2
{720C1DB1-CCF5-49B1-8426-45E9CE08433D}
  9
$EXTNAMES
290
     1
  9
$PSVPSCALE
 40
0.0
  9
$OLESTARTUP
290
     0
  9
$SORTENTS
280
    96
  9
$INDEXCTL
280
     0
  9
$HIDETEXT
280
     0
  9
$XCLIPFRAME
290
     0
  9
$HALOGAP
280
     0
  9
$OBSCOLOR
 70
   257
  9
$OBSLTYPE
280
     0
  9
$INTERSECTIONDISPLAY
280
     0
  9
$INTERSECTIONCOLOR
 70
   257
  9
$DIMASSOC
280
     1
  9
$PROJECTNAME
  1

  0
ENDSEC
  0
SECTION
  2
CLASSES
  0
CLASS
  1
HATCH
  2
AcDbHatch
  3
ObjectDBX Classes
 90
        0
 91
       20
280
     0
281
     1
  0
CLASS
  1
LWPOLYLINE
  2
AcDbPolyline
  3
ObjectDBX Classes
 90
        0
 91
        1
280
     0
281
     1
  0
CLASS
  1
IMAGEDEF
  2
AcDbRasterImageDef
  3
ISM
 90
        0
 91
        1
280
     0
281
     0
  0
CLASS
  1
DICTIONARYVAR
  2
AcDbDictionaryVar
  3
ObjectDBX Classes
 90
        0
 91
        2
280
     0
281
     0
  0
CLASS
  1
ACDBDICTIONARYWDFLT
  2
AcDbDictionaryWithDefault
  3
ObjectDBX Classes
 90
        0
 91
        1
280
     0
281
     0
  0
CLASS
  1
TABLESTYLE
  2
AcDbTableStyle
  3
ObjectDBX Classes
 90
     2047
 91
        1
280
     0
281
     0
  0
CLASS
  1
SORTENTSTABLE
  2
AcDbSortentsTable
  3
ObjectDBX Classes
 90
        0
 91
        2
280
     0
281
     0
  0
ENDSEC
  0
SECTION
  2
TABLES
  0
TABLE
  2
VPORT
  5
8
330
0
100
AcDbSymbolTable
 70
     2
  0
VPORT
  5
2344
330
8
100
AcDbSymbolTableRecord
100
AcDbViewportTableRecord
  2
*Active
 70
     0
 10
0.0
 20
0.0
 11
1.0
 21
1.0
 12
364.1976054615643
 22
269.3424456128107
 13
0.0
 23
0.0
 14
10.0
 24
10.0
 15
10.0
 25
10.0
 16
0.0
 26
0.0
 36
1.0
 17
0.0
 27
0.0
 37
0.0
 40
196.9240834572785
 41
1.530456852791878
 42
50.0
 43
0.0
 44
0.0
 50
0.0
 51
0.0
 71
     0
 72
   100
 73
     1
 74
     1
 75
     0
 76
     0
 77
     0
 78
     0
281
     0
 65
     1
110
0.0
120
0.0
130
0.0
111
1.0
121
0.0
131
0.0
112
0.0
122
1.0
132
0.0
 79
     0
146
0.0
  0
ENDTAB
  0
TABLE
  2
LTYPE
  5
5
330
0
100
AcDbSymbolTable
 70
     5
  0
LTYPE
  5
12
330
5
100
AcDbSymbolTableRecord
100
AcDbLinetypeTableRecord
  2
BYBLOCK
 70
     0
  3

 72
    65
 73
     0
 40
0.0
  0
LTYPE
  5
13
330
5
100
AcDbSymbolTableRecord
100
AcDbLinetypeTableRecord
  2
BYLAYER
 70
     0
  3

 72
    65
 73
     0
 40
0.0
  0
LTYPE
  5
14
330
5
100
AcDbSymbolTableRecord
100
AcDbLinetypeTableRecord
  2
CONTINUOUS
 70
     0
  3
Solid line
 72
    65
 73
     0
 40
0.0
  0
LTYPE
  5
22
330
5
100
AcDbSymbolTableRecord
100
AcDbLinetypeTableRecord
  2
CENTER2
 70
     0
  3
Center (.5x) ___ _ ___ _ ___ _ ___ _ ___ _ ___
 72
    65
 73
     4
 40
28.575
 49
19.05
 74
     0
 49
-3.174999999999999
 74
     0
 49
3.174999999999999
 74
     0
 49
-3.174999999999999
 74
     0
  0
LTYPE
  5
23
330
5
100
AcDbSymbolTableRecord
100
AcDbLinetypeTableRecord
  2
HIDDEN2
 70
     0
  3
Hidden (.5x) _ _ _ _ _ _ _ _ _ _ _ _ _ _ _ _ _
 72
    65
 73
     2
 40
4.762499999999999
 49
3.174999999999999
 74
     0
 49
-1.587499999999999
 74
     0
  0
ENDTAB
  0
TABLE
  2
LAYER
  5
2
330
0
100
AcDbSymbolTable
 70
    12
  0
LAYER
  5
E
330
2
100
AcDbSymbolTableRecord
100
AcDbLayerTableRecord
  2
0
 70
     0
 62
     7
  6
CONTINUOUS
370
    -3
390
1D5D
  0
LAYER
  5
25
330
2
100
AcDbSymbolTableRecord
100
AcDbLayerTableRecord
  2
外形線
 70
     0
 62
     7
  6
CONTINUOUS
370
    -3
390
1D5D
  0
LAYER
  5
26
330
2
100
AcDbSymbolTableRecord
100
AcDbLayerTableRecord
  2
寸法線
 70
     0
 62
     2
  6
CONTINUOUS
370
    -3
390
1D5D
  0
LAYER
  5
27
330
2
100
AcDbSymbolTableRecord
100
AcDbLayerTableRecord
  2
中心線
 70
     0
 62
     4
  6
CENTER2
370
    -3
390
1D5D
  0
LAYER
  5
28
330
2
100
AcDbSymbolTableRecord
100
AcDbLayerTableRecord
  2
隠れ線
 70
     0
 62
     6
  6
HIDDEN2
370
    -3
390
1D5D
  0
LAYER
  5
2B
330
2
100
AcDbSymbolTableRecord
100
AcDbLayerTableRecord
  2
文字
 70
     0
 62
     6
  6
CONTINUOUS
370
    -3
390
1D5D
  0
LAYER
  5
2C
330
2
100
AcDbSymbolTableRecord
100
AcDbLayerTableRecord
  2
目盛
 70
     0
 62
    70
  6
CONTINUOUS
370
    -3
390
1D5D
  0
LAYER
  5
2D
330
2
100
AcDbSymbolTableRecord
100
AcDbLayerTableRecord
  2
針
 70
     0
 62
     5
  6
CONTINUOUS
370
    -3
390
1D5D
  0
LAYER
  5
53
330
2
100
AcDbSymbolTableRecord
100
AcDbLayerTableRecord
  2
DEFPOINTS
 70
     0
 62
     7
  6
CONTINUOUS
290
     0
370
    -3
390
1D5D
  0
LAYER
  5
A5
330
2
100
AcDbSymbolTableRecord
100
AcDbLayerTableRecord
  2
C
 70
     0
 62
     7
  6
CONTINUOUS
370
    -3
390
1D5D
  0
LAYER
  5
AD4
330
2
100
AcDbSymbolTableRecord
100
AcDbLayerTableRecord
  2
ROGO
 70
     0
 62
     6
  6
CONTINUOUS
370
    -3
390
1D5D
  0
LAYER
  5
1822
330
2
100
AcDbSymbolTableRecord
100
AcDbLayerTableRecord
  2
ASHADE
 70
     0
 62
     7
  6
CONTINUOUS
370
    -3
390
1D5D
  0
ENDTAB
  0
TABLE
  2
STYLE
  5
3
330
0
100
AcDbSymbolTable
 70
     3
  0
STYLE
  5
F
330
3
100
AcDbSymbolTableRecord
100
AcDbTextStyleTableRecord
  2
STANDARD
 70
     0
 40
0.0
 41
1.0
 50
0.0
 71
     0
 42
2.5
  3
txt
  4

  0
STYLE
  5
3F
330
3
100
AcDbSymbolTableRecord
100
AcDbTextStyleTableRecord
  2
STYLE3
 70
     0
 40
0.0
 41
1.0
 50
0.0
 71
     0
 42
1.5
  3
romans.shx
  4
bigfont.shx
  0
ENDTAB
  0
TABLE
  2
VIEW
  5
6
330
0
100
AcDbSymbolTable
 70
     0
  0
ENDTAB
  0
TABLE
  2
UCS
  5
7
330
0
100
AcDbSymbolTable
 70
     0
  0
ENDTAB
  0
TABLE
  2
APPID
  5
9
330
0
100
AcDbSymbolTable
 70
     7
  0
APPID
  5
10
330
9
100
AcDbSymbolTableRecord
100
AcDbRegAppTableRecord
  2
ACAD
 70
     0
  0
APPID
  5
1820
330
9
100
AcDbSymbolTableRecord
100
AcDbRegAppTableRecord
  2
AVE_RENDER
 70
     0
  0
APPID
  5
1821
330
9
100
AcDbSymbolTableRecord
100
AcDbRegAppTableRecord
  2
AVE_ENTITY_MATERIAL
 70
     0
  0
APPID
  5
182E
330
9
100
AcDbSymbolTableRecord
100
AcDbRegAppTableRecord
  2
AVE_FINISH
 70
     0
  0
APPID
  5
182F
330
9
100
AcDbSymbolTableRecord
100
AcDbRegAppTableRecord
  2
AVE_MATERIAL
 70
     0
  0
APPID
  5
1830
330
9
100
AcDbSymbolTableRecord
100
AcDbRegAppTableRecord
  2
AVE_GLOBAL
 70
     0
  0
APPID
  5
22BD
330
9
100
AcDbSymbolTableRecord
100
AcDbRegAppTableRecord
  2
ACAD_PSEXT
 70
     0
  0
ENDTAB
  0
TABLE
  2
DIMSTYLE
  5
A
330
0
100
AcDbSymbolTable
 70
     3
100
AcDbDimStyleTable
 71
     1
340
8F
  0
DIMSTYLE
105
1D
330
A
100
AcDbSymbolTableRecord
100
AcDbDimStyleTableRecord
  2
STANDARD
 70
     0
 41
2.5
 42
0.625
 43
3.75
 44
1.25
 73
     0
 74
     0
 77
     1
 78
     8
140
2.5
141
2.5
143
0.0394
147
0.625
171
     4
172
     1
273
     8
274
     4
277
     6
340
F
  0
DIMSTYLE
105
8F
330
A
100
AcDbSymbolTableRecord
100
AcDbDimStyleTableRecord
  2
STYLE3
 70
     0
 41
2.5
 42
0.0
 43
3.75
 44
1.25
 73
     0
 74
     0
 77
     1
 78
     8
140
2.5
141
2.5
143
0.0394
147
0.625
171
     4
172
     1
173
     1
176
     2
177
     2
178
     6
271
     1
273
     8
274
     4
340
3F
341
45
343
45
344
45
  0
ENDTAB
  0
TABLE
  2
BLOCK_RECORD
  5
1
330
0
100
AcDbSymbolTable
 70
    13
  0
BLOCK_RECORD
  5
18
330
1
100
AcDbSymbolTableRecord
100
AcDbBlockTableRecord
  2
*MODEL_SPACE
340
1D64
  0
BLOCK_RECORD
  5
15
330
1
100
AcDbSymbolTableRecord
100
AcDbBlockTableRecord
  2
*PAPER_SPACE
340
1D65
  0
BLOCK_RECORD
  5
45
330
1
100
AcDbSymbolTableRecord
100
AcDbBlockTableRecord
  2
_OPEN
340
0
102
{BLKREFS
331
1637
331
1638
331
1654
331
1669
331
166A
331
168B
331
168C
331
198B
331
198C
331
1C38
331
1C39
331
1C41
331
1C42
331
1C4C
331
1C4D
331
1C55
331
1C56
331
1C60
331
1C61
331
1C69
331
1C6A
331
1C73
331
1C74
331
1C7C
331
1C7D
331
1C85
331
1C86
331
1C8E
331
1C8F
331
1D3B
331
1D3C
331
1D47
331
1D48
102
}
  0
BLOCK_RECORD
  5
ADD
330
1
100
AcDbSymbolTableRecord
100
AcDbBlockTableRecord
  2
ROGO1
340
0
102
{BLKREFS
331
B43
331
B44
331
FCB
331
FCC
102
}
  0
BLOCK_RECORD
  5
1823
330
1
100
AcDbSymbolTableRecord
100
AcDbBlockTableRecord
  2
AVE_RENDER
340
0
102
{BLKREFS
331
1826
331
1827
331
1828
331
1829
331
182A
331
182B
331
182C
331
182D
102
}
  0
BLOCK_RECORD
  5
1831
330
1
100
AcDbSymbolTableRecord
100
AcDbBlockTableRecord
  2
AVE_GLOBAL
340
0
102
{BLKREFS
331
1834
102
}
  0
BLOCK_RECORD
  5
1D6A
102
{ACAD_XDICTIONARY
360
1D6B
102
}
330
1
100
AcDbSymbolTableRecord
100
AcDbBlockTableRecord
  2
PC_PCN針
340
0
102
{BLKREFS
331
22B9
102
}
  0
ENDTAB
  0
ENDSEC
  0
SECTION
  2
BLOCKS
  0
BLOCK
  5
19
330
18
100
AcDbEntity
  8
0
100
AcDbBlockBegin
  2
*MODEL_SPACE
 70
     0
 10
0.0
 20
0.0
 30
0.0
  3
*MODEL_SPACE
  1

  0
ENDBLK
  5
1A
330
18
100
AcDbEntity
  8
0
100
AcDbBlockEnd
  0
BLOCK
  5
16
330
15
100
AcDbEntity
 67
     1
  8
0
100
AcDbBlockBegin
  2
*PAPER_SPACE
 70
     0
 10
0.0
 20
0.0
 30
0.0
  3
*PAPER_SPACE
  1

  0
ENDBLK
  5
17
330
15
100
AcDbEntity
 67
     1
  8
0
100
AcDbBlockEnd
  0
BLOCK
  5
46
330
45
100
AcDbEntity
  8
0
100
AcDbBlockBegin
  2
_OPEN
 70
     0
 10
0.0
 20
0.0
 30
0.0
  3
_OPEN
  1

  0
LINE
  5
47
330
45
100
AcDbEntity
  8
0
  6
ByBlock
 62
     0
100
AcDbLine
 10
-1.0
 20
0.1666666666666666
 30
0.0
 11
0.0
 21
0.0
 31
0.0
  0
LINE
  5
48
330
45
100
AcDbEntity
  8
0
  6
ByBlock
 62
     0
100
AcDbLine
 10
0.0
 20
0.0
 30
0.0
 11
-1.0
 21
-0.1666666666666666
 31
0.0
  0
LINE
  5
49
330
45
100
AcDbEntity
  8
0
  6
ByBlock
 62
     0
100
AcDbLine
 10
0.0
 20
0.0
 30
0.0
 11
-1.0
 21
0.0
 31
0.0
  0
ENDBLK
  5
4A
330
45
100
AcDbEntity
  8
0
100
AcDbBlockEnd
  0
BLOCK
  5
B2A
330
ADD
100
AcDbEntity
  8
0
100
AcDbBlockBegin
  2
ROGO1
 70
     0
 10
0.0
 20
0.0
 30
0.0
  3
ROGO1
  1

  0
MTEXT
  5
B42
330
ADD
100
AcDbEntity
  8
DEFPOINTS
  6
Continuous
100
AcDbMText
 10
1039.786461861274
 20
160.9640365185991
 30
0.0
 40
1.0
 41
0.0
 71
     4
 72
     1
  1
\A1;
 73
     1
 44
1.0
  0
ENDBLK
  5
B2B
330
ADD
100
AcDbEntity
  8
0
100
AcDbBlockEnd
  0
BLOCK
  5
1824
330
1823
100
AcDbEntity
  8
ASHADE
100
AcDbBlockBegin
  2
AVE_RENDER
 70
     0
 10
0.0
 20
0.0
 30
0.0
  3
AVE_RENDER
  1
AVE_RENDER
  0
ENDBLK
  5
1825
330
1823
100
AcDbEntity
  8
0
100
AcDbBlockEnd
  0
BLOCK
  5
1832
330
1831
100
AcDbEntity
  8
ASHADE
100
AcDbBlockBegin
  2
AVE_GLOBAL
 70
     0
 10
0.0
 20
0.0
 30
0.0
  3
AVE_GLOBAL
  1
AVE_GLOBAL
  0
ENDBLK
  5
1833
330
1831
100
AcDbEntity
  8
0
100
AcDbBlockEnd
  0
BLOCK
  5
1D6D
330
1D6A
100
AcDbEntity
  8
0
100
AcDbBlockBegin
  2
PC_PCN針
 70
     0
 10
0.0
 20
0.0
 30
0.0
  3
PC_PCN針
  1

  0
HATCH
  5
1D6E
330
1D6A
100
AcDbEntity
  8
針
 62
     5
100
AcDbHatch
 10
0.0
 20
0.0
 30
0.0
210
0.0
220
0.0
230
1.0
  2
SOLID
 70
     1
 71
     1
 91
        2
 92
        7
 72
     1
 73
     1
 93
        7
 10
-2.023904563850578
 20
-0.2645931338153105
 42
-0.1640812035095904
 10
-1.421638696153195
 20
-0.4784803210162636
 42
-0.0813437861988258
 10
-1.5
 20
0.0
 42
-0.0813437861988211
 10
-1.421638696153195
 20
0.4784803210162352
 42
-0.1640812035095877
 10
-2.023904563850578
 20
0.2645931338153105
 42
0.0
 10
-14.19999999999993
 20
0.07000000000005
 42
0.0
 10
-14.20000000000004
 20
-0.0700000000000216
 42
0.0
 97
        6
330
1D72
330
1D74
330
1D6F
330
1D75
330
1D73
330
1D7B
 92
        7
 72
     1
 73
     1
 93
        9
 10
1.601307174430758
 20
0.4866168858272318
 42
-0.1053331282509662
 10
1.399713151580613
 20
0.5392616185973793
 42
-0.0921949713546931
 10
1.5
 20
0.0
 42
-0.0921949713546883
 10
1.399713151580613
 20
-0.5392616185973509
 42
-0.1053331282510194
 10
1.601307174430871
 20
-0.4866168858272318
 42
0.0
 10
6.657469727507077
 20
-0.256172195646343
 42
-0.2863987309427536
 10
6.842033426437637
 20
-0.359972204586029
 42
3.911320250910649
 10
6.842033426437637
 20
0.3599722045860858
 42
-0.2863987309427981
 10
6.657469727507077
 20
0.256172195646343
 42
0.0
 97
        8
330
1D79
330
1D76
330
1D71
330
1D7B
330
1D70
330
1D77
330
1D7A
330
1D78
 75
     0
 76
     1
 47
0.0259966004614645
 98
        2
 10
-6.998752094249084
 20
-0.0094903483859525
 10
3.014397170732763
 20
0.0944959703959967
450
        0
451
        0
460
0.0
461
0.0
452
        1
462
1.0
453
        2
463
0.0
 63
     5
421
      255
463
1.0
 63
    51
421
 16777113
470
LINEAR
  0
LINE
  5
1D6F
102
{ACAD_REACTORS
330
1D6E
102
}
330
1D6A
100
AcDbEntity
  8
針
100
AcDbLine
 10
-14.20000000000004
 20
0.0700000000000216
 30
0.0
 11
-14.20000000000004
 21
-0.0699999999999932
 31
0.0
  0
ARC
  5
1D70
102
{ACAD_REACTORS
330
1D6E
102
}
330
1D6A
100
AcDbEntity
  8
針
100
AcDbCircle
 10
1.624072039381871
 20
-0.9860983779005323
 30
0.0
 40
0.5
100
AcDbArc
 50
92.60956348104661
 51
116.6614474826241
  0
ARC
  5
1D71
102
{ACAD_REACTORS
330
1D6E
102
}
330
1D6A
100
AcDbEntity
  8
針
100
AcDbCircle
 10
1.624072039381871
 20
0.9860983779005323
 30
0.0
 40
0.5
100
AcDbArc
 50
243.3385525173759
 51
267.3904365189533
  0
ARC
  5
1D72
102
{ACAD_REACTORS
330
1D6E
102
}
330
1D6A
100
AcDbEntity
  8
針
100
AcDbCircle
 10
-2.039884094318267
 20
1.264465452967101
 30
0.0
 40
1.0
100
AcDbArc
 50
270.9155986228672
 51
308.1881170613605
  0
ARC
  5
1D73
102
{ACAD_REACTORS
330
1D6E
102
}
330
1D6A
100
AcDbEntity
  8
針
100
AcDbCircle
 10
-2.039884094318267
 20
-1.264465452967101
 30
0.0
 40
1.0
100
AcDbArc
 50
51.8118829386395
 51
89.08440137713276
  0
LINE
  5
1D74
102
{ACAD_REACTORS
330
1D6E
102
}
330
1D6A
100
AcDbEntity
  8
針
100
AcDbLine
 10
-14.20000000000004
 20
0.0700000000000216
 30
0.0
 11
-2.023904563850578
 21
0.2645931338153105
 31
0.0
  0
LINE
  5
1D75
102
{ACAD_REACTORS
330
1D6E
102
}
330
1D6A
100
AcDbEntity
  8
針
100
AcDbLine
 10
-2.023904563850578
 20
-0.2645931338153105
 30
0.0
 11
-14.20000000000004
 21
-0.0699999999999932
 31
0.0
  0
LINE
  5
1D76
102
{ACAD_REACTORS
330
1D6E
102
}
330
1D6A
100
AcDbEntity
  8
針
100
AcDbLine
 10
1.601307174430758
 20
0.4866168858272318
 30
0.0
 11
6.657469727507077
 21
0.256172195646343
 31
0.0
  0
LINE
  5
1D77
102
{ACAD_REACTORS
330
1D6E
102
}
330
1D6A
100
AcDbEntity
  8
針
100
AcDbLine
 10
1.601307174430758
 20
-0.4866168858272318
 30
0.0
 11
6.657469727507077
 21
-0.256172195646343
 31
0.0
  0
ARC
  5
1D78
102
{ACAD_REACTORS
330
1D6E
102
}
330
1D6A
100
AcDbEntity
  8
針
100
AcDbCircle
 10
7.5
 20
0.0
 30
0.0
 40
0.75
100
AcDbArc
 50
208.6829815593726
 51
151.3170184406274
  0
ARC
  5
1D79
102
{ACAD_REACTORS
330
1D6E
102
}
330
1D6A
100
AcDbEntity
  8
針
100
AcDbCircle
 10
6.666575673487614
 20
0.4559647924756405
 30
0.0
 40
0.2
100
AcDbArc
 50
267.3904365189468
 51
331.3170184406275
  0
ARC
  5
1D7A
102
{ACAD_REACTORS
330
1D6E
102
}
330
1D6A
100
AcDbEntity
  8
針
100
AcDbCircle
 10
6.666575673487614
 20
-0.4559647924756405
 30
0.0
 40
0.2
100
AcDbArc
 50
28.68298155937256
 51
92.60956348105315
  0
CIRCLE
  5
1D7B
102
{ACAD_REACTORS
330
1D6E
102
}
330
1D6A
100
AcDbEntity
  8
外形線
100
AcDbCircle
 10
0.0
 20
0.0
 30
0.0
 40
1.5
  0
CIRCLE
  5
1D7C
330
1D6A
100
AcDbEntity
  8
外形線
 62
     4
100
AcDbCircle
 10
0.0
 20
0.0
 30
0.0
 40
0.25
  0
ENDBLK
  5
1D7D
330
1D6A
100
AcDbEntity
  8
0
100
AcDbBlockEnd
  0
ENDSEC
  0
SECTION
  2
ENTITIES
  0
LWPOLYLINE
  5
10B
330
18
100
AcDbEntity
  8
C
100
AcDbPolyline
 90
        5
 70
     0
 43
0.4
 10
236.6915604445414
 20
366.8501752555372
 10
491.6915604445414
 20
366.8501752555372
 10
491.6915604445414
 20
171.8501752555372
 10
236.6915604445414
 20
171.8501752555372
 10
236.6915604445414
 20
366.8501752555372
  0
LINE
  5
16C
330
18
100
AcDbEntity
  8
外形線
100
AcDbLine
 10
305.5736145639469
 20
313.293068732702
 30
0.0
 11
311.5736145639469
 21
313.293068732702
 31
0.0
  0
LINE
  5
16E
330
18
100
AcDbEntity
  8
外形線
100
AcDbLine
 10
311.5736145639469
 20
313.293068732702
 30
0.0
 11
311.5736145639469
 21
298.3378559595621
 31
0.0
  0
LINE
  5
16F
330
18
100
AcDbEntity
  8
外形線
100
AcDbLine
 10
305.5736145639469
 20
313.293068732702
 30
0.0
 11
305.5736145639469
 21
298.3378559595621
 31
0.0
  0
ARC
  5
170
330
18
100
AcDbEntity
  8
外形線
100
AcDbCircle
 10
308.5736145639469
 20
308.0969163099954
 30
0.0
 40
6.0
100
AcDbArc
 50
60.0
 51
120.0
  0
CIRCLE
  5
172
330
18
100
AcDbEntity
  8
外形線
100
AcDbCircle
 10
308.5736145639469
 20
281.0969163099954
 30
0.0
 40
17.5
  0
CIRCLE
  5
307
330
18
100
AcDbEntity
  8
外形線
100
AcDbCircle
 10
308.5736145639469
 20
281.0969163099954
 30
0.0
 40
15.0
  0
LINE
  5
30A
330
18
100
AcDbEntity
  8
目盛
100
AcDbLine
 10
308.5736145639469
 20
296.0969163099954
 30
0.0
 11
308.5736145639469
 21
293.5969163099954
 31
0.0
  0
TEXT
  5
351
330
18
100
AcDbEntity
  8
文字
100
AcDbText
 10
307.7732055506757
 20
291.3689875451156
 30
0.0
 40
1.8
  1
0
  7
STYLE3
100
AcDbText
  0
TEXT
  5
352
330
18
100
AcDbEntity
  8
文字
100
AcDbText
 10
311.5396474452935
 20
290.1196667941947
 30
0.0
 40
1.8
  1
10
  7
STYLE3
100
AcDbText
  0
TEXT
  5
353
330
18
100
AcDbEntity
  8
文字
100
AcDbText
 10
315.0079642702849
 20
287.3545209501732
 30
0.0
 40
1.8
  1
20
  7
STYLE3
100
AcDbText
  0
TEXT
  5
354
330
18
100
AcDbEntity
  8
文字
100
AcDbText
 10
317.2174043519844
 20
282.5892707376494
 30
0.0
 40
1.8
  1
30
  7
STYLE3
100
AcDbText
  0
TEXT
  5
355
330
18
100
AcDbEntity
  8
文字
100
AcDbText
 10
317.1864247290216
 20
277.5719878174675
 30
0.0
 40
1.8
  1
40
  7
STYLE3
100
AcDbText
  0
TEXT
  5
356
330
18
100
AcDbEntity
  8
文字
100
AcDbText
 10
306.8750546594566
 20
269.071990344607
 30
0.0
 40
1.8
  1
70
  7
STYLE3
100
AcDbText
  0
TEXT
  5
357
330
18
100
AcDbEntity
  8
文字
100
AcDbText
 10
298.8473594934891
 20
273.4392433772384
 30
0.0
 40
1.8
  1
50
  7
STYLE3
100
AcDbText
  0
TEXT
  5
358
330
18
100
AcDbEntity
  8
文字
100
AcDbText
 10
296.5468167677538
 20
282.2470023992878
 30
0.0
 40
1.8
  1
30
  7
STYLE3
100
AcDbText
  0
TEXT
  5
359
330
18
100
AcDbEntity
  8
文字
100
AcDbText
 10
298.4427476931776
 20
286.7854372717894
 30
0.0
 40
1.8
  1
20
  7
STYLE3
100
AcDbText
  0
TEXT
  5
35A
330
18
100
AcDbEntity
  8
文字
100
AcDbText
 10
302.2505787601797
 20
290.1609708280665
 30
0.0
 40
1.8
  1
10
  7
STYLE3
100
AcDbText
  0
TEXT
  5
35E
330
18
100
AcDbEntity
  8
文字
100
AcDbText
 10
311.7501165500838
 20
280.6875765254202
 30
0.0
 40
0.8
  1
0.001mm
  7
STYLE3
100
AcDbText
  0
TEXT
  5
35F
330
18
100
AcDbEntity
  8
文字
100
AcDbText
 10
301.6331800792046
 20
280.7228652607459
 30
0.0
 40
0.8
  1
Jeweled
  7
STYLE3
100
AcDbText
  0
TEXT
  5
363
330
18
100
AcDbEntity
  8
文字
100
AcDbText
 10
305.784428153167
 20
274.1153201013877
 30
0.0
 40
1.0
  1
PCN-S
  7
STYLE3
100
AcDbText
  0
TEXT
  5
368
330
18
100
AcDbEntity
  8
文字
100
AcDbText
 10
304.3176599598947
 20
284.1105483658307
 30
0.0
 40
0.8
  1
MADE IN JAPAN
  7
STYLE3
100
AcDbText
  0
INSERT
  5
B43
330
18
100
AcDbEntity
  8
文字
100
AcDbBlockReference
  2
ROGO1
 10
301.1334577592202
 20
275.1168679656769
 30
0.0
  0
INSERT
  5
B44
330
18
100
AcDbEntity
  8
文字
100
AcDbBlockReference
  2
ROGO1
 10
301.1095809474122
 20
275.1436630917189
 30
0.0
  0
LINE
  5
CBB
330
18
100
AcDbEntity
  8
外形線
100
AcDbLine
 10
303.5736145639469
 20
244.8969163099954
 30
0.0
 11
303.5736145639469
 21
240.8969163099954
 31
0.0
  0
LINE
  5
CBC
330
18
100
AcDbEntity
  8
外形線
100
AcDbLine
 10
304.0736145639469
 20
245.8969163099954
 30
0.0
 11
304.0736145639469
 21
239.8969163099954
 31
0.0
  0
LINE
  5
CBD
330
18
100
AcDbEntity
  8
外形線
100
AcDbLine
 10
304.0736145639469
 20
240.8969163099954
 30
0.0
 11
303.5736145639469
 21
240.8969163099954
 31
0.0
  0
LINE
  5
CBE
330
18
100
AcDbEntity
  8
外形線
100
AcDbLine
 10
304.573614563947
 20
239.8969163099954
 30
0.0
 11
304.0736145639469
 21
239.8969163099954
 31
0.0
  0
LINE
  5
CBF
330
18
100
AcDbEntity
  8
外形線
100
AcDbLine
 10
304.0736145639469
 20
244.8969163099954
 30
0.0
 11
303.5736145639469
 21
244.8969163099954
 31
0.0
  0
LINE
  5
CC0
330
18
100
AcDbEntity
  8
外形線
100
AcDbLine
 10
304.573614563947
 20
245.8969163099954
 30
0.0
 11
304.0736145639469
 21
245.8969163099954
 31
0.0
  0
INSERT
  5
FCB
330
18
100
AcDbEntity
  8
文字
100
AcDbBlockReference
  2
ROGO1
 10
579.0605083803766
 20
282.754069537204
 30
0.0
  0
INSERT
  5
FCC
330
18
100
AcDbEntity
  8
文字
100
AcDbBlockReference
  2
ROGO1
 10
579.0366315685687
 20
282.780864663246
 30
0.0
  0
ARC
  5
1204
330
18
100
AcDbEntity
  8
外形線
100
AcDbCircle
 10
390.193511205536
 20
242.8969163099953
 30
0.0
 40
3.0
100
AcDbArc
 50
54.59406822686052
 51
215.4059317731395
  0
ARC
  5
1205
330
18
100
AcDbEntity
  8
外形線
100
AcDbCircle
 10
390.193511205536
 20
242.8969163099953
 30
0.0
 40
3.0
100
AcDbArc
 50
234.5940682268605
 51
35.4059317731395
  0
LINE
  5
1206
330
18
100
AcDbEntity
  8
外形線
100
AcDbLine
 10
392.3148315490956
 20
244.3111298723684
 30
0.0
 11
392.6387146624644
 21
244.6350129857373
 31
0.0
  0
LINE
  5
1208
330
18
100
AcDbEntity
  8
外形線
100
AcDbLine
 10
388.7792976431629
 20
240.7755959664357
 30
0.0
 11
388.0721908619764
 21
241.4827027476223
 31
0.0
  0
LINE
  5
1209
330
18
100
AcDbEntity
  8
外形線
100
AcDbLine
 10
388.7792976431629
 20
240.7755959664357
 30
0.0
 11
388.4554145297942
 21
240.4517128530669
 31
0.0
  0
LINE
  5
120A
330
18
100
AcDbEntity
  8
外形線
100
AcDbLine
 10
388.0721908619764
 20
241.4827027476223
 30
0.0
 11
387.7483077486075
 21
241.1588196342534
 31
0.0
  0
LINE
  5
120B
330
18
100
AcDbEntity
  8
外形線
100
AcDbLine
 10
392.3148315490956
 20
244.3111298723684
 30
0.0
 11
391.6077247679091
 21
245.0182366535549
 31
0.0
  0
LINE
  5
120C
330
18
100
AcDbEntity
  8
外形線
100
AcDbLine
 10
391.6077247679091
 20
245.0182366535549
 30
0.0
 11
391.9316078812779
 21
245.3421197669238
 31
0.0
  0
LINE
  5
120D
330
18
100
AcDbEntity
  8
外形線
100
AcDbLine
 10
388.7792976431629
 20
241.4827027476223
 30
0.0
 11
391.6077247679091
 21
244.3111298723685
 31
0.0
  0
CIRCLE
  5
1210
330
18
100
AcDbEntity
  8
外形線
100
AcDbCircle
 10
390.193511205536
 20
242.8969163099954
 30
0.0
 40
2.0
  0
LINE
  5
121E
330
18
100
AcDbEntity
  8
外形線
100
AcDbLine
 10
385.1837024740854
 20
292.3031414250137
 30
0.0
 11
384.1033199369865
 21
293.5906911949773
 31
0.0
  0
LINE
  5
121F
330
18
100
AcDbEntity
  8
外形線
100
AcDbLine
 10
383.9997363205541
 20
292.4067250414461
 30
0.0
 11
385.2872860905178
 21
293.487107578545
 31
0.0
  0
CIRCLE
  5
1221
330
18
100
AcDbEntity
  8
外形線
100
AcDbCircle
 10
384.643511205536
 20
292.9469163099954
 30
0.0
 40
1.5
  0
LINE
  5
1249
330
18
100
AcDbEntity
  8
外形線
100
AcDbLine
 10
393.193511205536
 20
313.0930687327021
 30
0.0
 11
393.193511205536
 21
297.8969163099955
 31
0.0
  0
LINE
  5
124A
330
18
100
AcDbEntity
  8
外形線
100
AcDbLine
 10
387.193511205536
 20
313.0930687327021
 30
0.0
 11
387.193511205536
 21
297.8969163099955
 31
0.0
  0
LINE
  5
1253
330
18
100
AcDbEntity
  8
外形線
100
AcDbLine
 10
387.193511205536
 20
297.8969163099955
 30
0.0
 11
393.193511205536
 21
297.8969163099955
 31
0.0
  0
LINE
  5
1259
330
18
100
AcDbEntity
  8
外形線
100
AcDbLine
 10
387.193511205536
 20
313.0930687327021
 30
0.0
 11
393.193511205536
 21
313.0930687327021
 31
0.0
  0
ARC
  5
125A
330
18
100
AcDbEntity
  8
外形線
100
AcDbCircle
 10
390.193511205536
 20
307.8969163099955
 30
0.0
 40
6.0
100
AcDbArc
 50
60.0
 51
120.0
  0
POINT
  5
1285
330
18
100
AcDbEntity
  8
DEFPOINTS
  6
ByBlock
 62
     0
100
AcDbPoint
 10
308.5736145639469
 20
281.0969163099954
 30
0.0
  0
POINT
  5
1286
330
18
100
AcDbEntity
  8
DEFPOINTS
  6
ByBlock
 62
     0
100
AcDbPoint
 10
308.5736145639469
 20
281.0969163099954
 30
0.0
  0
POINT
  5
1287
330
18
100
AcDbEntity
  8
DEFPOINTS
  6
ByBlock
 62
     0
100
AcDbPoint
 10
308.5736145639469
 20
281.0969163099954
 30
0.0
  0
POINT
  5
1288
330
18
100
AcDbEntity
  8
DEFPOINTS
  6
ByBlock
 62
     0
100
AcDbPoint
 10
308.5736145639469
 20
281.0969163099954
 30
0.0
  0
LINE
  5
12CA
330
18
100
AcDbEntity
  8
外形線
100
AcDbLine
 10
376.7572531741288
 20
298.5969163099954
 30
0.0
 11
379.9072531741288
 21
298.5969163099954
 31
0.0
  0
LINE
  5
12CC
330
18
100
AcDbEntity
  8
外形線
100
AcDbLine
 10
376.5572531741288
 20
298.3969163099954
 30
0.0
 11
376.5572531741287
 21
263.7969163099955
 31
0.0
  0
LINE
  5
12CD
330
18
100
AcDbEntity
  8
外形線
100
AcDbLine
 10
380.2572531741288
 20
298.2469163099953
 30
0.0
 11
380.2572531741288
 21
263.9469163099954
 31
0.0
  0
LINE
  5
12CE
330
18
100
AcDbEntity
  8
外形線
100
AcDbLine
 10
381.2572531741288
 20
298.2469163099954
 30
0.0
 11
381.2572531741288
 21
263.9469163099954
 31
0.0
  0
LINE
  5
12CF
330
18
100
AcDbEntity
  8
外形線
 48
0.5
100
AcDbLine
 10
376.5572531741288
 20
298.3969163099954
 30
0.0
 11
376.7572531741288
 21
298.5969163099954
 31
0.0
  0
LINE
  5
12D0
330
18
100
AcDbEntity
  8
外形線
100
AcDbLine
 10
379.9072531741288
 20
298.5969163099954
 30
0.0
 11
380.2572531741288
 21
298.2469163099954
 31
0.0
  0
LINE
  5
12EF
330
18
100
AcDbEntity
  8
外形線
100
AcDbLine
 10
379.9072531741288
 20
263.5969163099954
 30
0.0
 11
380.2572531741288
 21
263.9469163099954
 31
0.0
  0
LINE
  5
12F0
330
18
100
AcDbEntity
  8
外形線
 48
0.5
100
AcDbLine
 10
376.5572531741288
 20
263.7969163099953
 30
0.0
 11
376.7572531741288
 21
263.5969163099954
 31
0.0
  0
LINE
  5
12F1
330
18
100
AcDbEntity
  8
外形線
100
AcDbLine
 10
376.7572531741288
 20
263.5969163099954
 30
0.0
 11
379.9072531741288
 21
263.5969163099954
 31
0.0
  0
LINE
  5
12F5
330
18
100
AcDbEntity
  8
外形線
100
AcDbLine
 10
376.0572531741288
 20
297.5969163099953
 30
0.0
 11
376.0572531741288
 21
264.5969163099954
 31
0.0
  0
LINE
  5
12FF
330
18
100
AcDbEntity
  8
外形線
100
AcDbLine
 10
380.2572531741288
 20
298.2469163099953
 30
0.0
 11
381.2572531741288
 21
298.2469163099954
 31
0.0
  0
LINE
  5
1300
330
18
100
AcDbEntity
  8
外形線
100
AcDbLine
 10
380.2572531741288
 20
263.9469163099954
 30
0.0
 11
381.2572531741288
 21
263.9469163099954
 31
0.0
  0
LINE
  5
1308
330
18
100
AcDbEntity
  8
外形線
100
AcDbLine
 10
376.0572531741288
 20
297.5969163099954
 30
0.0
 11
376.5572531741288
 21
298.0969163099954
 31
0.0
  0
LINE
  5
1309
330
18
100
AcDbEntity
  8
外形線
100
AcDbLine
 10
376.0572531741288
 20
264.5969163099954
 30
0.0
 11
376.5572531741288
 21
264.0969163099954
 31
0.0
  0
LINE
  5
1312
330
18
100
AcDbEntity
  8
外形線
100
AcDbLine
 10
376.5572531741289
 20
297.8969163099954
 30
0.0
 11
380.2572531741288
 21
297.8969163099954
 31
0.0
  0
LINE
  5
1313
330
18
100
AcDbEntity
  8
外形線
100
AcDbLine
 10
376.5572531741289
 20
297.1969163099954
 30
0.0
 11
380.2572531741288
 21
297.1969163099954
 31
0.0
  0
LINE
  5
1314
330
18
100
AcDbEntity
  8
外形線
100
AcDbLine
 10
376.5572531741289
 20
296.3969163099954
 30
0.0
 11
380.2572531741288
 21
296.3969163099953
 31
0.0
  0
LINE
  5
1315
330
18
100
AcDbEntity
  8
外形線
100
AcDbLine
 10
376.5572531741289
 20
295.5969163099954
 30
0.0
 11
380.2572531741288
 21
295.5969163099954
 31
0.0
  0
LINE
  5
1316
330
18
100
AcDbEntity
  8
外形線
100
AcDbLine
 10
376.5572531741289
 20
294.6969163099954
 30
0.0
 11
380.2572531741288
 21
294.6969163099954
 31
0.0
  0
LINE
  5
1328
330
18
100
AcDbEntity
  8
外形線
100
AcDbLine
 10
376.5572531741288
 20
281.7969163099954
 30
0.0
 11
380.2572531741288
 21
281.7969163099954
 31
0.0
  0
LINE
  5
1329
330
18
100
AcDbEntity
  8
外形線
100
AcDbLine
 10
376.5572531741288
 20
280.3969163099954
 30
0.0
 11
380.2572531741288
 21
280.3969163099954
 31
0.0
  0
LINE
  5
132A
330
18
100
AcDbEntity
  8
外形線
100
AcDbLine
 10
376.5572531741288
 20
282.5969163099954
 30
0.0
 11
380.2572531741288
 21
282.5969163099954
 31
0.0
  0
LINE
  5
132B
330
18
100
AcDbEntity
  8
外形線
100
AcDbLine
 10
376.5572531741288
 20
279.5969163099954
 30
0.0
 11
380.2572531741288
 21
279.5969163099954
 31
0.0
  0
LINE
  5
132C
330
18
100
AcDbEntity
  8
外形線
100
AcDbLine
 10
376.5572531741288
 20
281.0969163099954
 30
0.0
 11
380.2572531741287
 21
281.0969163099954
 31
0.0
  0
LINE
  5
132D
330
18
100
AcDbEntity
  8
外形線
100
AcDbLine
 10
376.5572531741289
 20
267.4969163099953
 30
0.0
 11
380.2572531741288
 21
267.4969163099953
 31
0.0
  0
LINE
  5
132E
330
18
100
AcDbEntity
  8
外形線
100
AcDbLine
 10
376.5572531741289
 20
266.5969163099954
 30
0.0
 11
380.2572531741288
 21
266.5969163099954
 31
0.0
  0
LINE
  5
132F
330
18
100
AcDbEntity
  8
外形線
100
AcDbLine
 10
376.5572531741289
 20
265.7969163099954
 30
0.0
 11
380.2572531741288
 21
265.7969163099954
 31
0.0
  0
LINE
  5
1330
330
18
100
AcDbEntity
  8
外形線
100
AcDbLine
 10
376.5572531741289
 20
264.9969163099954
 30
0.0
 11
380.2572531741288
 21
264.9969163099954
 31
0.0
  0
LINE
  5
1331
330
18
100
AcDbEntity
  8
外形線
100
AcDbLine
 10
376.5572531741289
 20
264.2969163099954
 30
0.0
 11
380.2572531741288
 21
264.2969163099954
 31
0.0
  0
LINE
  5
1336
330
18
100
AcDbEntity
  8
外形線
100
AcDbLine
 10
381.2572531741288
 20
296.0969163099954
 30
0.0
 11
381.7572531741289
 21
296.0969163099954
 31
0.0
  0
ARC
  5
1337
330
18
100
AcDbEntity
  8
外形線
100
AcDbCircle
 10
381.7572531741289
 20
295.0969163099954
 30
0.0
 40
1.0
100
AcDbArc
 50
64.13462858156407
 51
90.0
  0
ARC
  5
1338
330
18
100
AcDbEntity
  8
外形線
100
AcDbCircle
 10
381.7572531741289
 20
267.0969163099954
 30
0.0
 40
1.0
100
AcDbArc
 50
270.0
 51
295.8653714184359
  0
LINE
  5
1339
330
18
100
AcDbEntity
  8
外形線
100
AcDbLine
 10
381.2572531741288
 20
266.0969163099954
 30
0.0
 11
381.7572531741289
 21
266.0969163099954
 31
0.0
  0
ARC
  5
133C
330
18
100
AcDbEntity
  8
外形線
100
AcDbCircle
 10
436.072542790113
 20
281.0969163099953
 30
0.0
 40
62.37903158457702
100
AcDbArc
 50
166.4545064755762
 51
193.5454935244236
  0
LINE
  5
1343
330
18
100
AcDbEntity
  8
外形線
100
AcDbLine
 10
375.9147225362396
 20
296.0900599354382
 30
0.0
 11
376.0572531741287
 21
296.0900599354382
 31
0.0
  0
ARC
  5
1345
330
18
100
AcDbEntity
  8
外形線
100
AcDbCircle
 10
375.9147225362395
 20
295.5900599354381
 30
0.0
 40
0.5
100
AcDbArc
 50
89.99999999999349
 51
166.4545064755751
  0
ARC
  5
1346
330
18
100
AcDbEntity
  8
外形線
100
AcDbCircle
 10
375.9147225362395
 20
266.6037726845526
 30
0.0
 40
0.5
100
AcDbArc
 50
193.5454935244249
 51
270.0000000000065
  0
LINE
  5
1347
330
18
100
AcDbEntity
  8
外形線
100
AcDbLine
 10
375.9147225362396
 20
266.1037726845525
 30
0.0
 11
376.0572531741287
 21
266.1037726845525
 31
0.0
  0
LINE
  5
138E
330
18
100
AcDbEntity
  8
外形線
100
AcDbLine
 10
313.073614563947
 20
245.8969163099954
 30
0.0
 11
313.073614563947
 21
239.8969163099954
 31
0.0
  0
LINE
  5
138F
330
18
100
AcDbEntity
  8
外形線
100
AcDbLine
 10
313.5736145639469
 20
244.8969163099954
 30
0.0
 11
313.5736145639469
 21
240.8969163099954
 31
0.0
  0
LINE
  5
1390
330
18
100
AcDbEntity
  8
外形線
100
AcDbLine
 10
312.573614563947
 20
239.8969163099954
 30
0.0
 11
313.073614563947
 21
239.8969163099954
 31
0.0
  0
LINE
  5
1391
330
18
100
AcDbEntity
  8
外形線
100
AcDbLine
 10
313.073614563947
 20
240.8969163099954
 30
0.0
 11
313.5736145639469
 21
240.8969163099954
 31
0.0
  0
LINE
  5
1392
330
18
100
AcDbEntity
  8
外形線
100
AcDbLine
 10
312.573614563947
 20
245.8969163099954
 30
0.0
 11
313.073614563947
 21
245.8969163099954
 31
0.0
  0
LINE
  5
1393
330
18
100
AcDbEntity
  8
外形線
100
AcDbLine
 10
313.073614563947
 20
244.8969163099954
 30
0.0
 11
313.5736145639469
 21
244.8969163099954
 31
0.0
  0
POINT
  5
14D3
330
18
100
AcDbEntity
  8
DEFPOINTS
  6
ByBlock
 62
     0
100
AcDbPoint
 10
390.193511205536
 20
242.8969163099954
 30
0.0
  0
POINT
  5
14D4
330
18
100
AcDbEntity
  8
DEFPOINTS
  6
ByBlock
 62
     0
100
AcDbPoint
 10
390.193511205536
 20
242.8969163099954
 30
0.0
  0
CIRCLE
  5
14E2
102
{ACAD_REACTORS
330
14E5
102
}
330
18
100
AcDbEntity
  8
外形線
100
AcDbCircle
 10
382.5503696158731
 20
254.2341043274757
 30
0.0
 40
0.222687898198611
  0
HATCH
  5
14E5
330
18
100
AcDbEntity
  8
外形線
100
AcDbHatch
 10
0.0
 20
0.0
 30
0.0
210
0.0
220
0.0
230
1.0
  2
SOLID
 70
     1
 71
     1
 91
        1
 92
        7
 72
     1
 73
     1
 93
        2
 10
382.7730575140717
 20
254.2341043274757
 42
1.0
 10
382.3276817176745
 20
254.2341043274757
 42
1.0
 97
        1
330
14E2
 75
     0
 76
     1
 47
0.0124670341605454
 98
        1
 10
382.6083469172195
 20
254.2109323873845
450
        0
451
        0
460
0.0
461
0.0
452
        0
462
0.0
453
        0
470

  0
TEXT
  5
14EC
330
18
100
AcDbEntity
  8
寸法線
 62
     6
100
AcDbText
 10
407.3950732099438
 20
278.8442469951078
 30
0.0
 40
2.5
  1
A
  7
STYLE3
100
AcDbText
  0
CIRCLE
  5
14EE
102
{ACAD_REACTORS
330
14F1
102
}
330
18
100
AcDbEntity
  8
外形線
100
AcDbCircle
 10
398.7810328396713
 20
268.9179770602497
 30
0.0
 40
0.222687898198611
  0
HATCH
  5
14F1
330
18
100
AcDbEntity
  8
外形線
100
AcDbHatch
 10
0.0
 20
0.0
 30
0.0
210
0.0
220
0.0
230
1.0
  2
SOLID
 70
     1
 71
     1
 91
        1
 92
        7
 72
     1
 73
     1
 93
        2
 10
399.0037207378699
 20
268.9179770602497
 42
1.0
 10
398.5583449414726
 20
268.9179770602497
 42
1.0
 97
        1
330
14EE
 75
     0
 76
     1
 47
0.0200805185115556
 98
        1
 10
398.9055489430869
 20
268.8011906322715
450
        0
451
        0
460
0.0
461
0.0
452
        0
462
0.0
453
        0
470

  0
CIRCLE
  5
14F8
102
{ACAD_REACTORS
330
151F
102
}
330
18
100
AcDbEntity
  8
外形線
100
AcDbCircle
 10
384.963035505958
 20
297.1503118068497
 30
0.0
 40
0.222687898198611
  0
HATCH
  5
151F
330
18
100
AcDbEntity
  8
外形線
100
AcDbHatch
 10
0.0
 20
0.0
 30
0.0
210
0.0
220
0.0
230
1.0
  2
SOLID
 70
     1
 71
     1
 91
        1
 92
        7
 72
     1
 73
     1
 93
        2
 10
385.1857234041566
 20
297.1503118068497
 42
1.0
 10
384.7403476077594
 20
297.1503118068497
 42
1.0
 97
        1
330
14F8
 75
     0
 76
     1
 47
0.0431140550968677
 98
        1
 10
385.0802856205432
 20
297.0409766360861
450
        0
451
        0
460
0.0
461
0.0
452
        0
462
0.0
453
        0
470

  0
LINE
  5
157C
330
18
100
AcDbEntity
  8
外形線
100
AcDbLine
 10
461.9514113613383
 20
274.8309966211686
 30
0.0
 11
474.83180468125
 21
274.8309966211687
 31
0.0
  0
LINE
  5
157F
330
18
100
AcDbEntity
  8
外形線
100
AcDbLine
 10
451.1566672496639
 20
278.1309966211687
 30
0.0
 11
463.8566672496639
 21
278.1309966211686
 31
0.0
  0
LINE
  5
1584
330
18
100
AcDbEntity
  8
外形線
100
AcDbLine
 10
461.9514113613383
 20
274.8309966211686
 30
0.0
 11
463.8566672496639
 21
278.1309966211686
 31
0.0
  0
LINE
  5
1585
330
18
100
AcDbEntity
  8
外形線
100
AcDbLine
 10
453.0619231379896
 20
274.8309966211686
 30
0.0
 11
451.1566672496639
 21
278.1309966211687
 31
0.0
  0
LINE
  5
1586
330
18
100
AcDbEntity
  8
外形線
100
AcDbLine
 10
453.0619231379896
 20
274.8309966211686
 30
0.0
 11
440.1815298180777
 21
274.8309966211686
 31
0.0
  0
CIRCLE
  5
1588
330
18
100
AcDbEntity
  8
外形線
100
AcDbCircle
 10
450.4666672496638
 20
276.3309966211687
 30
0.0
 40
1.5
  0
CIRCLE
  5
1589
330
18
100
AcDbEntity
  8
外形線
100
AcDbCircle
 10
464.5466672496639
 20
276.3309966211687
 30
0.0
 40
1.5
  0
LINE
  5
158C
330
18
100
AcDbEntity
  8
中心線
100
AcDbLine
 10
447.5298617451147
 20
276.3309966211687
 30
0.0
 11
453.6069259256265
 21
276.3309966211687
 31
0.0
  0
LINE
  5
158D
330
18
100
AcDbEntity
  8
中心線
100
AcDbLine
 10
464.5466672496639
 20
279.7474187353101
 30
0.0
 11
464.5466672496639
 21
272.6067690514784
 31
0.0
  0
LINE
  5
158E
330
18
100
AcDbEntity
  8
中心線
100
AcDbLine
 10
450.4666672496638
 20
279.7474187353101
 30
0.0
 11
450.4666672496638
 21
272.6067690514784
 31
0.0
  0
LINE
  5
1591
330
18
100
AcDbEntity
  8
中心線
100
AcDbLine
 10
461.6381889675574
 20
276.3309966211687
 30
0.0
 11
467.8714089098423
 21
276.3309966211687
 31
0.0
  0
LINE
  5
15A3
330
18
100
AcDbEntity
  8
寸法線
100
AcDbLine
 10
440.1815298180777
 20
272.6622404869272
 30
0.0
 11
442.3502859523193
 21
274.8309966211686
 31
0.0
  0
LINE
  5
15A4
330
18
100
AcDbEntity
  8
寸法線
100
AcDbLine
 10
440.1815298180777
 20
268.1721124263926
 30
0.0
 11
446.8404140128539
 21
274.8309966211686
 31
0.0
  0
LINE
  5
15A5
330
18
100
AcDbEntity
  8
寸法線
100
AcDbLine
 10
443.2362151511918
 20
266.7366696989721
 30
0.0
 11
451.3305420733884
 21
274.8309966211687
 31
0.0
  0
LINE
  5
15A6
330
18
100
AcDbEntity
  8
寸法線
100
AcDbLine
 10
452.4281936847143
 20
275.9286482324945
 30
0.0
 11
454.6305420733885
 21
278.1309966211687
 31
0.0
  0
LINE
  5
15A7
330
18
100
AcDbEntity
  8
寸法線
100
AcDbLine
 10
447.7263432117264
 20
266.7366696989721
 30
0.0
 11
459.1206701339232
 21
278.1309966211688
 31
0.0
  0
LINE
  5
15A8
330
18
100
AcDbEntity
  8
寸法線
100
AcDbLine
 10
452.216471272261
 20
266.7366696989721
 30
0.0
 11
463.6107981944577
 21
278.1309966211688
 31
0.0
  0
LINE
  5
15A9
330
18
100
AcDbEntity
  8
寸法線
100
AcDbLine
 10
456.7065993327956
 20
266.7366696989721
 30
0.0
 11
464.8009262549923
 21
274.8309966211688
 31
0.0
  0
LINE
  5
15AA
330
18
100
AcDbEntity
  8
寸法線
100
AcDbLine
 10
461.1967273933303
 20
266.7366696989721
 30
0.0
 11
469.2910543155268
 21
274.8309966211687
 31
0.0
  0
LINE
  5
15AB
330
18
100
AcDbEntity
  8
寸法線
100
AcDbLine
 10
465.6868554538647
 20
266.7366696989721
 30
0.0
 11
473.7811823760613
 21
274.8309966211687
 31
0.0
  0
LINE
  5
15AC
330
18
100
AcDbEntity
  8
寸法線
100
AcDbLine
 10
470.1769835143994
 20
266.7366696989722
 30
0.0
 11
474.83180468125
 21
271.3914908658229
 31
0.0
  0
LINE
  5
1634
330
18
100
AcDbEntity
  8
0
  6
ByBlock
 62
     2
100
AcDbLine
 10
463.8566672496639
 20
278.1309966211686
 30
0.0
 11
475.4765609586661
 21
298.2572429037114
 31
0.0
  0
LINE
  5
1635
330
18
100
AcDbEntity
  8
0
  6
ByBlock
 62
     2
100
AcDbLine
 10
451.1566672496639
 20
278.1309966211687
 30
0.0
 11
439.5367735406615
 21
298.2572429037111
 31
0.0
  0
ARC
  5
1636
330
18
100
AcDbEntity
  8
0
  6
ByBlock
 62
     2
100
AcDbCircle
 10
457.506667249664
 20
267.1324739931058
 30
0.0
 40
34.6897874180055
100
AcDbArc
 50
64.13004734756665
 51
115.869952652434
  0
INSERT
  5
1637
330
18
100
AcDbEntity
  8
0
  6
ByBlock
 62
     2
100
AcDbBlockReference
  2
_OPEN
 10
474.8515609586661
 20
297.1747111489808
 30
0.0
 41
2.5
 42
2.5
 43
2.5
 50
332.0650236737839
  0
INSERT
  5
1638
330
18
100
AcDbEntity
  8
0
  6
ByBlock
 62
     2
100
AcDbBlockReference
  2
_OPEN
 10
440.1617735406615
 20
297.1747111489806
 30
0.0
 41
2.5
 42
2.5
 43
2.5
 50
207.9349763262168
  0
MTEXT
  5
1639
330
18
100
AcDbEntity
  8
0
  6
ByBlock
 62
     6
100
AcDbMText
 10
459.0011283478871
 20
303.6972614111113
 30
0.0
 40
2.5
 41
0.0
 71
     5
 72
     1
  1
\A1;60°
  7
STYLE3
 73
     1
 44
1.0
  0
POINT
  5
163A
330
18
100
AcDbEntity
  8
DEFPOINTS
  6
ByBlock
 62
     0
100
AcDbPoint
 10
463.5304856184535
 20
301.2952455927031
 30
0.0
  0
POINT
  5
163B
330
18
100
AcDbEntity
  8
DEFPOINTS
  6
ByBlock
 62
     0
100
AcDbPoint
 10
453.0619231379896
 20
274.8309966211686
 30
0.0
  0
POINT
  5
163C
330
18
100
AcDbEntity
  8
DEFPOINTS
  6
ByBlock
 62
     0
100
AcDbPoint
 10
461.9514113613383
 20
274.8309966211686
 30
0.0
  0
POINT
  5
163D
330
18
100
AcDbEntity
  8
DEFPOINTS
  6
ByBlock
 62
     0
100
AcDbPoint
 10
463.8566672496639
 20
278.1309966211686
 30
0.0
  0
POINT
  5
163E
330
18
100
AcDbEntity
  8
DEFPOINTS
  6
ByBlock
 62
     0
100
AcDbPoint
 10
451.1566672496639
 20
278.1309966211687
 30
0.0
  0
LINE
  5
164E
330
18
100
AcDbEntity
  8
0
  6
ByBlock
 62
     2
100
AcDbLine
 10
448.2342722993766
 20
283.1927331548493
 30
0.0
 11
439.5367735406615
 21
298.2572429037112
 31
0.0
  0
LINE
  5
164F
330
18
100
AcDbEntity
  8
0
  6
ByBlock
 62
     2
100
AcDbLine
 10
449.1676291439871
 20
275.5809966211686
 30
0.0
 11
436.9408125715787
 21
296.7584641394054
 31
0.0
  0
LINE
  5
1651
330
18
100
AcDbEntity
  8
0
  6
ByBlock
 62
     2
100
AcDbLine
 10
435.4007490621175
 20
294.4259323846749
 30
0.0
 11
433.2356855526565
 21
293.175932384675
 31
0.0
  0
LINE
  5
1652
330
18
100
AcDbEntity
  8
0
  6
ByBlock
 62
     2
100
AcDbLine
 10
440.1617735406615
 20
297.1747111489806
 30
0.0
 11
437.5658125715786
 21
295.6759323846749
 31
0.0
  0
INSERT
  5
1654
330
18
100
AcDbEntity
  8
0
  6
ByBlock
 62
     2
100
AcDbBlockReference
  2
_OPEN
 10
437.5658125715786
 20
295.6759323846749
 30
0.0
 41
2.5
 42
2.5
 43
2.5
 50
29.99999999999951
  0
MTEXT
  5
1655
330
18
100
AcDbEntity
  8
0
  6
ByBlock
 62
     6
100
AcDbMText
 10
435.6175411474874
 20
298.0491193989236
 30
0.0
 40
2.5
 41
0.0
 71
     5
 72
     1
  1
φ1.5
  7
STYLE3
 11
0.8660254037844429
 21
0.4999999999999926
 31
0.0
 73
     1
 44
1.0
  0
POINT
  5
1656
330
18
100
AcDbEntity
  8
DEFPOINTS
  6
ByBlock
 62
     0
100
AcDbPoint
 10
448.2342722993766
 20
283.1927331548493
 30
0.0
 50
60.00000000000049
  0
POINT
  5
1657
330
18
100
AcDbEntity
  8
DEFPOINTS
  6
ByBlock
 62
     0
100
AcDbPoint
 10
449.1676291439871
 20
275.5809966211686
 30
0.0
 50
60.00000000000049
  0
POINT
  5
1658
330
18
100
AcDbEntity
  8
DEFPOINTS
  6
ByBlock
 62
     0
100
AcDbPoint
 10
437.5658125715786
 20
295.6759323846749
 30
0.0
 50
60.00000000000049
  0
LINE
  5
1664
330
18
100
AcDbEntity
  8
0
  6
ByBlock
 62
     2
100
AcDbLine
 10
463.8566672496639
 20
278.1309966211686
 30
0.0
 11
481.6128170033899
 21
278.1309966211686
 31
0.0
  0
LINE
  5
1665
330
18
100
AcDbEntity
  8
0
  6
ByBlock
 62
     2
100
AcDbLine
 10
474.83180468125
 20
274.8309966211687
 30
0.0
 11
481.6128170033899
 21
274.8309966211687
 31
0.0
  0
LINE
  5
1666
330
18
100
AcDbEntity
  8
0
  6
ByBlock
 62
     2
100
AcDbLine
 10
480.3628170033899
 20
280.6309966211687
 30
0.0
 11
480.3628170033899
 21
283.1309966211687
 31
0.0
  0
LINE
  5
1667
330
18
100
AcDbEntity
  8
0
  6
ByBlock
 62
     2
100
AcDbLine
 10
480.3628170033899
 20
272.3309966211687
 30
0.0
 11
480.3628170033899
 21
263.958064579173
 31
0.0
  0
LINE
  5
1668
330
18
100
AcDbEntity
  8
0
  6
ByBlock
 62
     2
100
AcDbLine
 10
480.3628170033899
 20
278.1309966211686
 30
0.0
 11
480.3628170033899
 21
274.8309966211687
 31
0.0
  0
INSERT
  5
1669
330
18
100
AcDbEntity
  8
0
  6
ByBlock
 62
     2
100
AcDbBlockReference
  2
_OPEN
 10
480.3628170033899
 20
278.1309966211686
 30
0.0
 41
2.5
 42
2.5
 43
2.5
 50
270.0
  0
INSERT
  5
166A
330
18
100
AcDbEntity
  8
0
  6
ByBlock
 62
     2
100
AcDbBlockReference
  2
_OPEN
 10
480.3628170033899
 20
274.8309966211687
 30
0.0
 41
2.5
 42
2.5
 43
2.5
 50
90.0
  0
MTEXT
  5
166B
330
18
100
AcDbEntity
  8
0
  6
ByBlock
 62
     6
100
AcDbMText
 10
478.4878170033899
 20
267.8181713023901
 30
0.0
 40
2.5
 41
0.0
 71
     5
 72
     1
  1
\A1;1.65
  7
STYLE3
 11
0.0000000000000001
 21
1.0
 31
0.0
 73
     1
 44
1.0
  0
POINT
  5
166C
330
18
100
AcDbEntity
  8
DEFPOINTS
  6
ByBlock
 62
     0
100
AcDbPoint
 10
463.8566672496639
 20
278.1309966211686
 30
0.0
  0
POINT
  5
166D
330
18
100
AcDbEntity
  8
DEFPOINTS
  6
ByBlock
 62
     0
100
AcDbPoint
 10
474.83180468125
 20
274.8309966211687
 30
0.0
  0
POINT
  5
166E
330
18
100
AcDbEntity
  8
DEFPOINTS
  6
ByBlock
 62
     0
100
AcDbPoint
 10
480.3628170033899
 20
274.8309966211687
 30
0.0
  0
TEXT
  5
166F
330
18
100
AcDbEntity
  8
文字
100
AcDbText
 10
435.6305077609473
 20
253.2652159605059
 30
0.0
 40
4.0
  1
A.B.C 断面図 
  7
STYLE3
100
AcDbText
  0
TEXT
  5
1670
330
18
100
AcDbEntity
  8
文字
100
AcDbText
 10
469.773254663877
 20
253.3774403363849
 30
0.0
 40
3.0
  1
S=2／1
  7
STYLE3
100
AcDbText
  0
LINE
  5
1671
330
18
100
AcDbEntity
  8
外形線
100
AcDbLine
 10
435.2935724237187
 20
252.5918697052323
 30
0.0
 11
485.1599529954865
 21
252.5918697052323
 31
0.0
  0
LINE
  5
1686
330
18
100
AcDbEntity
  8
0
  6
ByBlock
 62
     2
100
AcDbLine
 10
305.5736145639469
 20
313.293068732702
 30
0.0
 11
305.5736145639469
 21
324.8000048482587
 31
0.0
  0
LINE
  5
1687
330
18
100
AcDbEntity
  8
0
  6
ByBlock
 62
     2
100
AcDbLine
 10
311.5736145639469
 20
313.293068732702
 30
0.0
 11
311.5736145639469
 21
324.8000048482587
 31
0.0
  0
LINE
  5
1688
330
18
100
AcDbEntity
  8
0
  6
ByBlock
 62
     2
100
AcDbLine
 10
303.0736145639469
 20
323.5500048482586
 30
0.0
 11
300.573614563947
 21
323.5500048482586
 31
0.0
  0
LINE
  5
1689
330
18
100
AcDbEntity
  8
0
  6
ByBlock
 62
     2
100
AcDbLine
 10
314.0736145639469
 20
323.5500048482586
 30
0.0
 11
316.5736145639469
 21
323.5500048482586
 31
0.0
  0
LINE
  5
168A
330
18
100
AcDbEntity
  8
0
  6
ByBlock
 62
     2
100
AcDbLine
 10
305.5736145639469
 20
323.5500048482586
 30
0.0
 11
311.5736145639469
 21
323.5500048482586
 31
0.0
  0
INSERT
  5
168B
330
18
100
AcDbEntity
  8
0
  6
ByBlock
 62
     2
100
AcDbBlockReference
  2
_OPEN
 10
305.5736145639469
 20
323.5500048482586
 30
0.0
 41
2.5
 42
2.5
 43
2.5
  0
INSERT
  5
168C
330
18
100
AcDbEntity
  8
0
  6
ByBlock
 62
     2
100
AcDbBlockReference
  2
_OPEN
 10
311.5736145639469
 20
323.5500048482586
 30
0.0
 41
2.5
 42
2.5
 43
2.5
 50
180.0
  0
MTEXT
  5
168D
330
18
100
AcDbEntity
  8
0
  6
ByBlock
 62
     6
100
AcDbMText
 10
308.0488154213569
 20
326.369114480746
 30
0.0
 40
2.5
 41
0.0
 71
     5
 72
     1
  1
\A1;φ6.0
  7
STYLE3
 73
     1
 44
1.0
  0
POINT
  5
168E
330
18
100
AcDbEntity
  8
DEFPOINTS
  6
ByBlock
 62
     0
100
AcDbPoint
 10
305.5736145639469
 20
313.293068732702
 30
0.0
  0
POINT
  5
168F
330
18
100
AcDbEntity
  8
DEFPOINTS
  6
ByBlock
 62
     0
100
AcDbPoint
 10
311.5736145639469
 20
313.293068732702
 30
0.0
  0
POINT
  5
1690
330
18
100
AcDbEntity
  8
DEFPOINTS
  6
ByBlock
 62
     0
100
AcDbPoint
 10
311.5736145639469
 20
323.5500048482586
 30
0.0
  0
TEXT
  5
1691
330
18
100
AcDbEntity
  8
文字
100
AcDbText
 10
314.5739667510033
 20
327.9322800962694
 30
0.0
 40
1.5
  1
0
  7
STYLE3
100
AcDbText
  0
TEXT
  5
1692
330
18
100
AcDbEntity
  8
文字
100
AcDbText
 10
312.7014668325475
 20
326.2354347429386
 30
0.0
 40
1.5
  1
-0.03
  7
STYLE3
100
AcDbText
  0
LINE
  5
16EE
330
18
100
AcDbEntity
  8
中心線
 48
0.5
100
AcDbLine
 10
308.5736145639469
 20
315.740568197741
 30
0.0
 11
308.5736145639469
 21
228.4933311681533
 31
0.0
  0
LINE
  5
16EF
330
18
100
AcDbEntity
  8
外形線
100
AcDbLine
 10
310.9236145639469
 20
238.8969163099954
 30
0.0
 11
312.5736145639469
 21
238.8969163099953
 31
0.0
  0
LINE
  5
16F2
330
18
100
AcDbEntity
  8
外形線
100
AcDbLine
 10
304.573614563947
 20
264.0601912725946
 30
0.0
 11
304.573614563947
 21
238.8969163099953
 31
0.0
  0
LINE
  5
16F3
330
18
100
AcDbEntity
  8
外形線
100
AcDbLine
 10
311.7736145639469
 20
263.8919751592677
 30
0.0
 11
311.7736145639469
 21
248.7969163099954
 31
0.0
  0
LINE
  5
16F9
330
18
100
AcDbEntity
  8
中心線
 48
0.5
100
AcDbLine
 10
300.4455688445191
 20
242.8969163099954
 30
0.0
 11
316.662090675737
 21
242.8969163099954
 31
0.0
  0
LINE
  5
16FD
330
18
100
AcDbEntity
  8
外形線
100
AcDbLine
 10
310.9236145639469
 20
238.8969163099954
 30
0.0
 11
310.8352408711023
 21
246.4086802017957
 31
0.0
  0
ARC
  5
16FE
330
18
100
AcDbEntity
  8
外形線
100
AcDbCircle
 10
309.8353100680715
 20
246.3969163099954
 30
0.0
 40
1.0
100
AcDbArc
 50
0.674036897984668
 51
90.0
  0
LINE
  5
16FF
330
18
100
AcDbEntity
  8
外形線
100
AcDbLine
 10
306.2236145639469
 20
238.8969163099954
 30
0.0
 11
306.3119882567916
 21
246.4086802017957
 31
0.0
  0
LINE
  5
1700
330
18
100
AcDbEntity
  8
外形線
100
AcDbLine
 10
306.2236145639469
 20
238.8969163099954
 30
0.0
 11
304.573614563947
 21
238.8969163099953
 31
0.0
  0
ARC
  5
1701
330
18
100
AcDbEntity
  8
外形線
100
AcDbCircle
 10
307.3119190598224
 20
246.3969163099954
 30
0.0
 40
1.0
100
AcDbArc
 50
90.0
 51
179.3259631020153
  0
LINE
  5
1702
330
18
100
AcDbEntity
  8
外形線
100
AcDbLine
 10
312.573614563947
 20
264.0601912725946
 30
0.0
 11
312.5736145639469
 21
238.8969163099953
 31
0.0
  0
LINE
  5
1703
330
18
100
AcDbEntity
  8
外形線
100
AcDbLine
 10
311.7736145639469
 20
248.7969163099954
 30
0.0
 11
312.5736145639469
 21
248.7969163099954
 31
0.0
  0
LINE
  5
1704
330
18
100
AcDbEntity
  8
外形線
100
AcDbLine
 10
305.5736145639469
 20
259.8969163099954
 30
0.0
 11
311.573614563947
 21
259.8969163099954
 31
0.0
  0
LINE
  5
1707
330
18
100
AcDbEntity
  8
中心線
 48
0.5
100
AcDbLine
 10
287.1469836843185
 20
281.0969163099954
 30
0.0
 11
329.5260694536606
 21
281.0969163099954
 31
0.0
  0
INSERT
  5
1826
330
18
100
AcDbEntity
  8
ASHADE
 62
     1
100
AcDbBlockReference
  2
AVE_RENDER
 10
0.0
 20
0.0
 30
0.0
1001
AVE_RENDER
1002
{
1070
     7
1000
Pref
1070
    30
1070
    20
1070
     1
1070
     0
1000

1070
    10
1070
     1
1070
    10
1040
1.0
1070
     1
1040
0.3
1040
0.7
1040
0.0
1040
10.0
1010
-1.0
1020
-1.0
1030
-1.0
1040
0.3
1070
    49
1070
     0
1070
     0
1010
1.0
1020
1.0
1030
1.0
1040
45.0
1070
     1
1070
     0
1000
WCS
1040
0.0
1070
     0
1040
10.0
1002
}
  0
INSERT
  5
1827
330
18
100
AcDbEntity
  8
ASHADE
 62
     3
100
AcDbBlockReference
  2
AVE_RENDER
 10
0.0
 20
0.0
 30
0.0
1001
AVE_RENDER
1002
{
1070
     0
1000
Full Opt
1070
     0
1070
     1
1070
     1
1070
     1
1070
     0
1070
     0
1070
     0
1070
     1
1070
     1
1040
0.0001
1040
0.0001
1002
}
  0
INSERT
  5
1828
330
18
100
AcDbEntity
  8
ASHADE
 62
     4
100
AcDbBlockReference
  2
AVE_RENDER
 10
0.0
 20
0.0
 30
0.0
1001
AVE_RENDER
1002
{
1070
     0
1000
Quick Opt
1070
     0
1070
     1
1070
     1
1070
     1
1070
     0
1070
     0
1070
     1
1002
}
  0
INSERT
  5
1829
330
18
100
AcDbEntity
  8
ASHADE
 62
     5
100
AcDbBlockReference
  2
AVE_RENDER
 10
0.0
 20
0.0
 30
0.0
1001
AVE_RENDER
1002
{
1070
     1
1000
Scanl Opt
1070
     2
1070
     0
1070
     2
1040
2.0
1040
4.0
1070
     0
1070
     1
1070
     0
1040
0.03
1002
}
  0
INSERT
  5
182A
330
18
100
AcDbEntity
  8
ASHADE
 62
     6
100
AcDbBlockReference
  2
AVE_RENDER
 10
0.0
 20
0.0
 30
0.0
1001
AVE_RENDER
1002
{
1070
     2
1000
Raytr Opt
1070
     2
1070
     0
1070
     2
1040
2.0
1040
4.0
1070
     0
1070
     1
1070
     1
1040
0.03
1070
     3
1040
0.03
1002
}
  0
INSERT
  5
182B
330
18
100
AcDbEntity
  8
ASHADE
 62
     7
100
AcDbBlockReference
  2
AVE_RENDER
 10
0.0
 20
0.0
 30
0.0
1001
AVE_RENDER
1002
{
1070
     0
1000
RFile Opt
1070
     1
1070
   640
1070
   480
1070
 10000
1070
     1
1070
     8
1070
     8
1070
     0
1070
     0
1070
     0
1070
     0
1070
     0
1070
     0
1070
     0
1002
}
  0
INSERT
  5
182C
330
18
100
AcDbEntity
  8
ASHADE
 62
     8
100
AcDbBlockReference
  2
AVE_RENDER
 10
0.0
 20
0.0
 30
0.0
1001
AVE_RENDER
1002
{
1070
     0
1000
Fog Opt
1070
     0
1070
     0
1040
0.0
1040
1.0
1040
0.0
1040
1.0
1010
0.5
1020
0.5
1030
0.5
1002
}
  0
INSERT
  5
182D
330
18
100
AcDbEntity
  8
ASHADE
 62
     9
100
AcDbBlockReference
  2
AVE_RENDER
 10
0.0
 20
0.0
 30
0.0
1001
AVE_RENDER
1002
{
1070
     0
1000
BG Opt
1070
     0
1070
     1
1010
0.0
1020
0.0
1030
0.0
1010
1.0
1020
0.0
1030
0.0
1010
0.0
1020
1.0
1030
0.0
1010
0.0
1020
0.0
1030
1.0
1040
0.5
1040
0.33
1040
0.0
1000

1070
     1
1000

1070
     1
1070
     1
1040
1.0
1040
1.0
1040
0.0
1040
0.0
1070
     0
1002
}
  0
INSERT
  5
1834
330
18
100
AcDbEntity
  8
ASHADE
 62
     1
100
AcDbBlockReference
  2
AVE_GLOBAL
 10
0.0
 20
0.0
 30
0.0
1001
AVE_MATERIAL
1002
{
1000
*GLOBAL*
1000
1
1000
Global finish.
1002
{
1002
}
1002
{
1070
    63
1002
{
1002
{
1010
-1.0
1020
-1.0
1030
-1.0
1002
}
1040
0.1000000014901161
1000

1040
0.0
1002
{
1002
}
1040
0.0
1002
{
1002
}
1040
0.0
1002
}
1002
{
1002
{
1010
-1.0
1020
-1.0
1030
-1.0
1002
}
1040
0.6999999880790711
1000

1040
0.0
1002
{
1002
}
1040
0.0
1002
{
1002
}
1040
0.0
1002
}
1002
{
1002
{
1010
-1.0
1020
-1.0
1030
-1.0
1002
}
1040
0.2000000029802322
1000

1040
0.0
1002
{
1002
}
1040
0.0
1002
{
1002
}
1040
0.0
1002
}
1002
{
1070
     0
1002
{
1070
     1
1002
{
1040
1.0
1040
1.0
1000

1040
0.0
1002
{
1002
}
1040
0.0
1002
{
1002
}
1040
0.0
1002
}
1002
}
1040
1.0
1040
0.0
1040
0.0
1002
}
1002
{
1040
1.0
1040
1.0
1000

1040
0.0
1002
{
1002
}
1040
0.0
1002
{
1002
}
1040
0.0
1002
}
1002
{
1040
0.5
1040
1.0
1000

1040
0.0
1002
{
1002
}
1040
0.0
1002
{
1002
}
1040
0.0
1002
}
1002
{
1070
     0
1040
0.0
1002
{
1002
}
1040
1.0
1002
{
1002
}
1040
0.0
1002
}
1002
{
1040
0.0
1002
{
1002
{
1010
0.0
1020
0.0
1030
0.0
1002
}
1040
1.0
1000

1040
0.0
1002
{
1002
}
1040
0.0
1002
{
1002
}
1040
0.0
1002
}
1002
}
1002
{
1002
{
1070
     1
1002
{
1040
0.0
1040
1.0
1000

1040
0.0
1002
{
1002
}
1040
0.0
1002
{
1002
}
1040
0.0
1002
}
1002
}
1040
0.0
1002
{
1002
}
1010
1.0
1020
0.0
1030
0.0
1010
0.0
1020
1.0
1030
0.0
1010
0.0
1020
0.0
1030
1.0
1070
     0
1002
}
1002
{
1002
{
1040
1.0
1040
1.0
1002
{
1070
     1
1002
{
1040
1.0
1040
1.0
1000

1040
0.0
1002
{
1002
}
1040
0.0
1002
{
1002
}
1040
0.0
1002
}
1002
}
1002
}
1070
     0
1040
0.0
1002
{
1002
}
1002
}
1002
{
1002
}
1002
}
1002
{
1071
        3
1070
     3
1070
     0
1002
{
1070
     2
1070
     0
1070
     0
1040
0.0
1002
}
1070
     0
1070
     2
1002
{
1002
}
1002
}
1002
{
1040
8030.0
1040
190.3000030517578
1040
0.3050000071525574
1040
228.0
1040
545.0
1040
14.0
1040
17.39999961853027
1040
0.4560000002384186
1002
}
1002
}
  0
ARC
  5
1837
330
18
100
AcDbEntity
  8
外形線
100
AcDbCircle
 10
390.193511205536
 20
242.8969163099953
 30
0.0
 40
4.0
100
AcDbArc
 50
199.9281732991189
 51
341.6307198030625
  0
LINE
  5
1838
330
18
100
AcDbEntity
  8
中心線
 48
0.5
100
AcDbLine
 10
382.234534071713
 20
242.8969163099954
 30
0.0
 11
398.4510559029309
 21
242.8969163099954
 31
0.0
  0
LINE
  5
183A
330
18
100
AcDbEntity
  8
中心線
 48
0.5
100
AcDbLine
 10
390.193511205536
 20
316.1115318430676
 30
0.0
 11
390.193511205536
 21
228.0006187890307
 31
0.0
  0
LINE
  5
183F
330
18
100
AcDbEntity
  8
外形線
100
AcDbLine
 10
382.193511205536
 20
296.2469163099954
 30
0.0
 11
398.043511205536
 21
296.2469163099955
 31
0.0
  0
LINE
  5
1852
330
18
100
AcDbEntity
  8
外形線
100
AcDbLine
 10
382.193511205536
 20
297.8969163099954
 30
0.0
 11
397.693511205536
 21
297.8969163099955
 31
0.0
  0
LINE
  5
1854
330
18
100
AcDbEntity
  8
外形線
100
AcDbLine
 10
398.043511205536
 20
295.8969163099954
 30
0.0
 11
399.693511205536
 21
295.8969163099954
 31
0.0
  0
LINE
  5
1855
330
18
100
AcDbEntity
  8
外形線
100
AcDbLine
 10
399.693511205536
 20
295.8969163099954
 30
0.0
 11
399.693511205536
 21
258.3469163099954
 31
0.0
  0
LINE
  5
1858
330
18
100
AcDbEntity
  8
外形線
100
AcDbLine
 10
398.043511205536
 20
256.6969163099954
 30
0.0
 11
399.693511205536
 21
258.3469163099954
 31
0.0
  0
LINE
  5
187E
330
18
100
AcDbEntity
  8
外形線
100
AcDbLine
 10
382.193511205536
 20
297.8969163099954
 30
0.0
 11
382.193511205536
 21
259.8969163099956
 31
0.0
  0
LINE
  5
187F
330
18
100
AcDbEntity
  8
外形線
100
AcDbLine
 10
398.043511205536
 20
296.2469163099955
 30
0.0
 11
398.043511205536
 21
252.1969163099954
 31
0.0
  0
LINE
  5
1882
330
18
100
AcDbEntity
  8
外形線
100
AcDbLine
 10
397.693511205536
 20
296.2469163099955
 30
0.0
 11
397.693511205536
 21
297.8969163099955
 31
0.0
  0
LINE
  5
1886
330
18
100
AcDbEntity
  8
外形線
100
AcDbLine
 10
398.043511205536
 20
252.1969163099954
 30
0.0
 11
393.9896916622442
 21
241.6363553475238
 31
0.0
  0
LINE
  5
1889
330
18
100
AcDbEntity
  8
外形線
100
AcDbLine
 10
382.193511205536
 20
259.8969163099956
 30
0.0
 11
386.4330286335781
 21
241.5335488518239
 31
0.0
  0
LINE
  5
188A
330
18
100
AcDbEntity
  8
外形線
100
AcDbLine
 10
380.5858005986404
 20
259.5257470703282
 30
0.0
 11
383.3859618167465
 21
247.3969163099954
 31
0.0
  0
LINE
  5
188B
330
18
100
AcDbEntity
  8
外形線
100
AcDbLine
 10
382.193511205536
 20
259.8969163099956
 30
0.0
 11
380.5858005986404
 21
259.5257470703282
 31
0.0
  0
LINE
  5
188C
330
18
100
AcDbEntity
  8
外形線
100
AcDbLine
 10
383.3859618167465
 20
247.3969163099954
 30
0.0
 11
385.0793635946056
 21
247.3969163099955
 31
0.0
  0
LINE
  5
188D
330
18
100
AcDbEntity
  8
外形線
100
AcDbLine
 10
311.5736145639469
 20
247.3969163099955
 30
0.0
 11
305.5736145639469
 21
247.3969163099954
 31
0.0
  0
LINE
  5
188E
330
18
100
AcDbEntity
  8
外形線
100
AcDbLine
 10
311.573614563947
 20
259.5257470703282
 30
0.0
 11
305.5736145639469
 21
259.5257470703282
 31
0.0
  0
LINE
  5
188F
330
18
100
AcDbEntity
  8
外形線
100
AcDbLine
 10
311.573614563947
 20
259.8969163099954
 30
0.0
 11
311.5736145639469
 21
247.3969163099955
 31
0.0
  0
LINE
  5
1890
330
18
100
AcDbEntity
  8
外形線
100
AcDbLine
 10
305.5736145639469
 20
259.8969163099954
 30
0.0
 11
305.5736145639469
 21
247.3969163099954
 31
0.0
  0
LINE
  5
1891
330
18
100
AcDbEntity
  8
中心線
 48
0.5
100
AcDbLine
 10
308.0950224143796
 20
248.8969163099954
 30
0.0
 11
312.0334016784043
 21
248.8969163099954
 31
0.0
  0
LINE
  5
1892
330
18
100
AcDbEntity
  8
中心線
 48
0.5
100
AcDbLine
 10
309.7736145639469
 20
251.0850221241027
 30
0.0
 11
309.773614563947
 21
246.3474498187517
 31
0.0
  0
CIRCLE
  5
1897
330
18
100
AcDbEntity
  8
外形線
100
AcDbCircle
 10
309.7736145639469
 20
248.8969163099954
 30
0.0
 40
1.0
  0
CIRCLE
  5
1898
330
18
100
AcDbEntity
  8
外形線
100
AcDbCircle
 10
309.7736145639469
 20
248.8969163099954
 30
0.0
 40
0.675
  0
LINE
  5
18A8
330
18
100
AcDbEntity
  8
中心線
 48
0.5
100
AcDbLine
 10
384.643511205536
 20
295.6261394659451
 30
0.0
 11
384.643511205536
 21
290.3460204528995
 31
0.0
  0
LINE
  5
18B7
330
18
100
AcDbEntity
  8
外形線
100
AcDbLine
 10
384.7446047174735
 20
248.8469163099954
 30
0.0
 11
396.7575666881674
 21
248.8469163099955
 31
0.0
  0
LINE
  5
18B9
330
18
100
AcDbEntity
  8
中心線
 48
0.5
100
AcDbLine
 10
381.6590298994191
 20
292.9469163099954
 30
0.0
 11
387.4978013338339
 21
292.9469163099955
 31
0.0
  0
LINE
  5
18BD
330
18
100
AcDbEntity
  8
中心線
 48
0.5
100
AcDbLine
 10
383.1590298994191
 20
251.1469163099954
 30
0.0
 11
388.9978013338339
 21
251.1469163099955
 31
0.0
  0
LINE
  5
18BE
330
18
100
AcDbEntity
  8
外形線
100
AcDbLine
 10
386.6837024740854
 20
250.5031414250137
 30
0.0
 11
385.6033199369865
 21
251.7906911949773
 31
0.0
  0
LINE
  5
18BF
330
18
100
AcDbEntity
  8
外形線
100
AcDbLine
 10
385.4997363205541
 20
250.606725041446
 30
0.0
 11
386.7872860905178
 21
251.6871075785449
 31
0.0
  0
CIRCLE
  5
18C0
330
18
100
AcDbEntity
  8
外形線
100
AcDbCircle
 10
386.143511205536
 20
251.1469163099954
 30
0.0
 40
1.5
  0
LINE
  5
18C1
330
18
100
AcDbEntity
  8
中心線
 48
0.5
100
AcDbLine
 10
386.143511205536
 20
253.8261394659451
 30
0.0
 11
386.143511205536
 21
248.5460204528995
 31
0.0
  0
LINE
  5
18C2
330
18
100
AcDbEntity
  8
中心線
 48
0.5
100
AcDbLine
 10
392.559029899419
 20
251.1469163099955
 30
0.0
 11
398.3978013338338
 21
251.1469163099956
 31
0.0
  0
LINE
  5
18C3
330
18
100
AcDbEntity
  8
外形線
100
AcDbLine
 10
396.0837024740854
 20
250.5031414250137
 30
0.0
 11
395.0033199369865
 21
251.7906911949774
 31
0.0
  0
LINE
  5
18C4
330
18
100
AcDbEntity
  8
外形線
100
AcDbLine
 10
394.8997363205541
 20
250.6067250414461
 30
0.0
 11
396.1872860905178
 21
251.687107578545
 31
0.0
  0
CIRCLE
  5
18C5
330
18
100
AcDbEntity
  8
外形線
100
AcDbCircle
 10
395.543511205536
 20
251.1469163099955
 30
0.0
 40
1.5
  0
LINE
  5
18C6
330
18
100
AcDbEntity
  8
中心線
 48
0.5
100
AcDbLine
 10
395.543511205536
 20
253.8261394659452
 30
0.0
 11
395.5435112055359
 21
248.5460204528995
 31
0.0
  0
LINE
  5
18C7
330
18
100
AcDbEntity
  8
中心線
 48
0.5
100
AcDbLine
 10
395.543511205536
 20
295.626139465945
 30
0.0
 11
395.5435112055359
 21
290.3460204528994
 31
0.0
  0
LINE
  5
18C9
330
18
100
AcDbEntity
  8
中心線
 48
0.5
100
AcDbLine
 10
392.559029899419
 20
292.9469163099955
 30
0.0
 11
398.3978013338338
 21
292.9469163099956
 31
0.0
  0
LINE
  5
18CA
330
18
100
AcDbEntity
  8
外形線
100
AcDbLine
 10
396.0837024740854
 20
292.3031414250137
 30
0.0
 11
395.0033199369864
 21
293.5906911949774
 31
0.0
  0
LINE
  5
18CB
330
18
100
AcDbEntity
  8
外形線
100
AcDbLine
 10
394.899736320554
 20
292.4067250414461
 30
0.0
 11
396.1872860905177
 21
293.487107578545
 31
0.0
  0
CIRCLE
  5
18CC
330
18
100
AcDbEntity
  8
外形線
100
AcDbCircle
 10
395.5435112055359
 20
292.9469163099955
 30
0.0
 40
1.5
  0
LINE
  5
18CF
330
18
100
AcDbEntity
  8
中心線
 48
0.5
100
AcDbLine
 10
370.3312386571037
 20
281.0969163099954
 30
0.0
 11
403.9949381338751
 21
281.0969163099954
 31
0.0
  0
LINE
  5
192E
330
18
100
AcDbEntity
  8
外形線
100
AcDbLine
 10
307.4736145639469
 20
236.7369163099954
 30
0.0
 11
307.9736145639469
 21
231.9969163099954
 31
0.0
  0
LINE
  5
192F
330
18
100
AcDbEntity
  8
外形線
100
AcDbLine
 10
309.673614563947
 20
236.7369163099954
 30
0.0
 11
309.1736145639469
 21
231.9969163099954
 31
0.0
  0
LINE
  5
1930
330
18
100
AcDbEntity
  8
中心線
 48
0.5
100
AcDbLine
 10
306.1902123189622
 20
231.1969163099954
 30
0.0
 11
311.5343625291942
 21
231.1969163099954
 31
0.0
  0
LINE
  5
1931
330
18
100
AcDbEntity
  8
隠れ線
 62
     4
 48
0.3
100
AcDbLine
 10
308.5736145639469
 20
232.1965381397732
 30
0.0
 11
307.9736145639469
 21
231.9969163099954
 31
0.0
  0
LINE
  5
1932
330
18
100
AcDbEntity
  8
外形線
100
AcDbLine
 10
307.9736145639469
 20
231.9969163099954
 30
0.0
 11
309.1736145639469
 21
231.9969163099954
 31
0.0
  0
ARC
  5
1933
330
18
100
AcDbEntity
  8
外形線
100
AcDbCircle
 10
308.5736145639469
 20
231.1969163099954
 30
0.0
 40
1.0
100
AcDbArc
 50
126.869897645842
 51
53.13010235415791
  0
LINE
  5
1934
330
18
100
AcDbEntity
  8
隠れ線
 62
     4
 48
0.3
100
AcDbLine
 10
308.5736145639469
 20
232.1965381397732
 30
0.0
 11
309.1736145639469
 21
231.9969163099954
 31
0.0
  0
LINE
  5
1936
330
18
100
AcDbEntity
  8
外形線
 62
     4
100
AcDbLine
 10
309.2406018620549
 20
237.5369163099954
 30
0.0
 11
307.9066272658391
 21
237.5369163099954
 31
0.0
  0
LINE
  5
193A
330
18
100
AcDbEntity
  8
外形線
100
AcDbLine
 10
307.4736145639469
 20
239.0369163099954
 30
0.0
 11
308.5736145639469
 21
239.0369163099954
 31
0.0
  0
LINE
  5
193C
330
18
100
AcDbEntity
  8
外形線
100
AcDbLine
 10
307.4736145639469
 20
237.7869163099954
 30
0.0
 11
307.9066272658392
 21
237.5369163099955
 31
0.0
  0
LINE
  5
193D
330
18
100
AcDbEntity
  8
外形線
100
AcDbLine
 10
307.4736145639469
 20
237.2869163099954
 30
0.0
 11
307.9066272658392
 21
237.5369163099955
 31
0.0
  0
LINE
  5
1940
330
18
100
AcDbEntity
  8
外形線
100
AcDbLine
 10
308.5736145639469
 20
239.0369163099954
 30
0.0
 11
309.673614563947
 21
239.0369163099954
 31
0.0
  0
LINE
  5
1945
330
18
100
AcDbEntity
  8
外形線
100
AcDbLine
 10
308.5736145639469
 20
239.1369163099954
 30
0.0
 11
310.3736145639469
 21
239.1369163099954
 31
0.0
  0
LINE
  5
1946
330
18
100
AcDbEntity
  8
外形線
100
AcDbLine
 10
308.5736145639469
 20
239.1369163099954
 30
0.0
 11
307.0736145639468
 21
239.1369163099954
 31
0.0
  0
LINE
  5
1948
330
18
100
AcDbEntity
  8
外形線
100
AcDbLine
 10
309.573614563947
 20
247.3969163099955
 30
0.0
 11
309.5736145639469
 21
239.2369163099954
 31
0.0
  0
LINE
  5
1949
330
18
100
AcDbEntity
  8
外形線
100
AcDbLine
 10
306.973614563947
 20
246.6369163099954
 30
0.0
 11
306.9736145639469
 21
239.2369163099954
 31
0.0
  0
LINE
  5
194A
330
18
100
AcDbEntity
  8
外形線
100
AcDbLine
 10
307.0736145639469
 20
246.7369163099954
 30
0.0
 11
309.4736145639469
 21
246.7369163099954
 31
0.0
  0
LINE
  5
194B
330
18
100
AcDbEntity
  8
外形線
100
AcDbLine
 10
306.973614563947
 20
246.6369163099954
 30
0.0
 11
307.0736145639469
 21
246.7369163099954
 31
0.0
  0
LINE
  5
194C
330
18
100
AcDbEntity
  8
外形線
100
AcDbLine
 10
309.4736145639469
 20
246.7369163099954
 30
0.0
 11
309.5736145639469
 21
246.6369163099954
 31
0.0
  0
LINE
  5
194D
330
18
100
AcDbEntity
  8
外形線
100
AcDbLine
 10
306.9736145639469
 20
239.2369163099954
 30
0.0
 11
307.0736145639469
 21
239.1369163099954
 31
0.0
  0
LINE
  5
194E
330
18
100
AcDbEntity
  8
外形線
100
AcDbLine
 10
309.5736145639469
 20
239.2369163099954
 30
0.0
 11
309.4736145639469
 21
239.1369163099954
 31
0.0
  0
LINE
  5
194F
330
18
100
AcDbEntity
  8
外形線
100
AcDbLine
 10
310.3736145639469
 20
247.2396667295861
 30
0.0
 11
310.3736145639469
 21
239.1369163099954
 31
0.0
  0
LINE
  5
1952
330
18
100
AcDbEntity
  8
外形線
100
AcDbLine
 10
306.5706941480037
 20
244.8969163099954
 30
0.0
 11
306.5706941480037
 21
240.8969163099954
 31
0.0
  0
LINE
  5
1953
330
18
100
AcDbEntity
  8
外形線
100
AcDbLine
 10
306.5706941480037
 20
244.8969163099954
 30
0.0
 11
306.294202799241
 21
244.8969163099954
 31
0.0
  0
LINE
  5
1954
330
18
100
AcDbEntity
  8
外形線
100
AcDbLine
 10
306.5706941480037
 20
240.8969163099954
 30
0.0
 11
306.2471439757116
 21
240.8969163099954
 31
0.0
  0
LINE
  5
1955
330
18
100
AcDbEntity
  8
外形線
100
AcDbLine
 10
306.5706941480037
 20
243.5469163099954
 30
0.0
 11
306.9736145639469
 21
243.5469163099954
 31
0.0
  0
LINE
  5
1956
330
18
100
AcDbEntity
  8
外形線
100
AcDbLine
 10
306.5706941480037
 20
242.2469163099954
 30
0.0
 11
306.9736145639469
 21
242.2469163099954
 31
0.0
  0
LINE
  5
1957
330
18
100
AcDbEntity
  8
外形線
100
AcDbLine
 10
310.3736145639469
 20
243.5469163099954
 30
0.0
 11
310.868908681594
 21
243.5469163099954
 31
0.0
  0
LINE
  5
1958
330
18
100
AcDbEntity
  8
外形線
100
AcDbLine
 10
310.3736145639469
 20
242.2469163099954
 30
0.0
 11
310.8842027992411
 21
242.2469163099954
 31
0.0
  0
LINE
  5
1985
330
18
100
AcDbEntity
  8
0
  6
ByBlock
 62
     2
100
AcDbLine
 10
399.693511205536
 20
295.8969163099954
 30
0.0
 11
399.693511205536
 21
324.8000048482587
 31
0.0
  0
LINE
  5
1986
330
18
100
AcDbEntity
  8
0
  6
ByBlock
 62
     2
100
AcDbLine
 10
395.5435112055361
 20
323.5500048482586
 30
0.0
 11
393.0435112055361
 21
323.5500048482586
 31
0.0
  0
LINE
  5
1987
330
18
100
AcDbEntity
  8
0
  6
ByBlock
 62
     2
100
AcDbLine
 10
402.193511205536
 20
323.5500048482586
 30
0.0
 11
411.0301371369092
 21
323.5500048482586
 31
0.0
  0
MTEXT
  5
1988
330
18
100
AcDbEntity
  8
0
  6
ByBlock
 62
     6
100
AcDbMText
 10
406.5966720828765
 20
325.7838405425175
 30
0.0
 40
2.5
 41
0.0
 71
     5
 72
     1
  1
\A1;1.65
  7
STYLE3
 73
     1
 44
1.0
  0
LINE
  5
1989
330
18
100
AcDbEntity
  8
0
  6
ByBlock
 62
     2
100
AcDbLine
 10
398.043511205536
 20
323.5500048482586
 30
0.0
 11
399.693511205536
 21
323.5500048482586
 31
0.0
  0
LINE
  5
198A
330
18
100
AcDbEntity
  8
0
  6
ByBlock
 62
     2
100
AcDbLine
 10
398.043511205536
 20
323.5500048482586
 30
0.0
 11
399.693511205536
 21
323.5500048482586
 31
0.0
  0
INSERT
  5
198B
330
18
100
AcDbEntity
  8
0
  6
ByBlock
 62
     2
100
AcDbBlockReference
  2
_OPEN
 10
398.043511205536
 20
323.5500048482586
 30
0.0
 41
2.5
 42
2.5
 43
2.5
  0
INSERT
  5
198C
330
18
100
AcDbEntity
  8
0
  6
ByBlock
 62
     2
100
AcDbBlockReference
  2
_OPEN
 10
399.693511205536
 20
323.5500048482586
 30
0.0
 41
2.5
 42
2.5
 43
2.5
 50
180.0
  0
POINT
  5
198D
330
18
100
AcDbEntity
  8
DEFPOINTS
  6
ByBlock
 62
     0
100
AcDbPoint
 10
398.043511205536
 20
296.2469163099955
 30
0.0
  0
POINT
  5
198E
330
18
100
AcDbEntity
  8
DEFPOINTS
  6
ByBlock
 62
     0
100
AcDbPoint
 10
399.693511205536
 20
295.8969163099954
 30
0.0
  0
POINT
  5
198F
330
18
100
AcDbEntity
  8
DEFPOINTS
  6
ByBlock
 62
     0
100
AcDbPoint
 10
399.693511205536
 20
323.5500048482586
 30
0.0
  0
TEXT
  5
1AA1
330
18
100
AcDbEntity
  8
文字
100
AcDbText
 10
301.9829646706497
 20
285.5969163099954
 30
0.0
 40
1.5
  1
NEW PIC-TEST
 41
0.8
  7
STYLE3
100
AcDbText
  0
LINE
  5
1ABF
330
18
100
AcDbEntity
  8
外形線
100
AcDbLine
 10
309.673614563947
 20
239.0369163099954
 30
0.0
 11
309.673614563947
 21
237.7869163099954
 31
0.0
  0
LINE
  5
1AC0
330
18
100
AcDbEntity
  8
外形線
100
AcDbLine
 10
307.4736145639469
 20
239.0369163099954
 30
0.0
 11
307.4736145639469
 21
237.7869163099954
 31
0.0
  0
LINE
  5
1AC1
330
18
100
AcDbEntity
  8
外形線
100
AcDbLine
 10
307.4736145639469
 20
239.0369163099954
 30
0.0
 11
307.5736145639469
 21
239.1369163099954
 31
0.0
  0
LINE
  5
1AC2
330
18
100
AcDbEntity
  8
外形線
100
AcDbLine
 10
309.673614563947
 20
239.0369163099954
 30
0.0
 11
309.5736145639469
 21
239.1369163099954
 31
0.0
  0
LINE
  5
1AC5
330
18
100
AcDbEntity
  8
外形線
100
AcDbLine
 10
309.673614563947
 20
237.7869163099954
 30
0.0
 11
307.4736145639469
 21
237.7869163099954
 31
0.0
  0
LINE
  5
1AC6
330
18
100
AcDbEntity
  8
外形線
100
AcDbLine
 10
309.6736145639469
 20
237.2869163099954
 30
0.0
 11
307.4736145639469
 21
237.2869163099954
 31
0.0
  0
LINE
  5
1AC7
330
18
100
AcDbEntity
  8
外形線
100
AcDbLine
 10
309.6736145639469
 20
237.2869163099954
 30
0.0
 11
309.2406018620546
 21
237.5369163099955
 31
0.0
  0
LINE
  5
1AC8
330
18
100
AcDbEntity
  8
外形線
100
AcDbLine
 10
309.673614563947
 20
237.7869163099954
 30
0.0
 11
309.2406018620546
 21
237.5369163099955
 31
0.0
  0
LINE
  5
1AC9
330
18
100
AcDbEntity
  8
外形線
100
AcDbLine
 10
309.673614563947
 20
237.2869163099954
 30
0.0
 11
309.673614563947
 21
236.7369163099954
 31
0.0
  0
LINE
  5
1ACA
330
18
100
AcDbEntity
  8
外形線
100
AcDbLine
 10
307.4736145639469
 20
237.2869163099954
 30
0.0
 11
307.4736145639469
 21
236.7369163099954
 31
0.0
  0
LINE
  5
1ACB
330
18
100
AcDbEntity
  8
外形線
100
AcDbLine
 10
307.4736145639469
 20
236.7369163099954
 30
0.0
 11
309.673614563947
 21
236.7369163099954
 31
0.0
  0
LINE
  5
1ACC
330
18
100
AcDbEntity
  8
中心線
 48
0.5
100
AcDbLine
 10
300.4455688445191
 20
231.1969163099954
 30
0.0
 11
316.662090675737
 21
231.1969163099954
 31
0.0
  0
ARC
  5
1AF9
330
18
100
AcDbEntity
  8
外形線
100
AcDbCircle
 10
390.193511205536
 20
231.1969163099953
 30
0.0
 40
1.0
100
AcDbArc
 50
126.869897645842
 51
53.13010235415791
  0
LINE
  5
1AFA
330
18
100
AcDbEntity
  8
中心線
 48
0.5
100
AcDbLine
 10
387.8101089605513
 20
231.1969163099953
 30
0.0
 11
393.1542591707834
 21
231.1969163099953
 31
0.0
  0
LINE
  5
1AFC
330
18
100
AcDbEntity
  8
外形線
100
AcDbLine
 10
389.093511205536
 20
236.7369163099954
 30
0.0
 11
391.2935112055361
 21
236.7369163099953
 31
0.0
  0
LINE
  5
1AFD
330
18
100
AcDbEntity
  8
隠れ線
 62
     4
 48
0.3
100
AcDbLine
 10
390.193511205536
 20
232.1965381397731
 30
0.0
 11
389.593511205536
 21
231.9969163099953
 31
0.0
  0
LINE
  5
1AFE
330
18
100
AcDbEntity
  8
外形線
100
AcDbLine
 10
389.593511205536
 20
231.9969163099953
 30
0.0
 11
390.793511205536
 21
231.9969163099953
 31
0.0
  0
LINE
  5
1AFF
330
18
100
AcDbEntity
  8
外形線
100
AcDbLine
 10
391.293511205536
 20
237.2869163099954
 30
0.0
 11
389.093511205536
 21
237.2869163099953
 31
0.0
  0
LINE
  5
1B00
330
18
100
AcDbEntity
  8
外形線
 62
     4
100
AcDbLine
 10
390.860498503644
 20
237.5369163099953
 30
0.0
 11
389.5265239074281
 21
237.5369163099953
 31
0.0
  0
LINE
  5
1B01
330
18
100
AcDbEntity
  8
外形線
100
AcDbLine
 10
391.2935112055361
 20
237.7869163099953
 30
0.0
 11
389.093511205536
 21
237.7869163099953
 31
0.0
  0
LINE
  5
1B02
330
18
100
AcDbEntity
  8
外形線
100
AcDbLine
 10
389.0935112055359
 20
237.2869163099953
 30
0.0
 11
389.093511205536
 21
236.7369163099954
 31
0.0
  0
LINE
  5
1B03
330
18
100
AcDbEntity
  8
外形線
100
AcDbLine
 10
389.093511205536
 20
236.7369163099954
 30
0.0
 11
389.593511205536
 21
231.9969163099953
 31
0.0
  0
LINE
  5
1B04
330
18
100
AcDbEntity
  8
外形線
100
AcDbLine
 10
389.093511205536
 20
237.2869163099953
 30
0.0
 11
389.5265239074283
 21
237.5369163099954
 31
0.0
  0
LINE
  5
1B05
330
18
100
AcDbEntity
  8
外形線
100
AcDbLine
 10
389.093511205536
 20
237.7869163099953
 30
0.0
 11
389.5265239074283
 21
237.5369163099954
 31
0.0
  0
LINE
  5
1B06
330
18
100
AcDbEntity
  8
外形線
100
AcDbLine
 10
391.2935112055361
 20
237.2869163099953
 30
0.0
 11
391.2935112055361
 21
236.7369163099953
 31
0.0
  0
LINE
  5
1B07
330
18
100
AcDbEntity
  8
外形線
100
AcDbLine
 10
391.2935112055361
 20
236.7369163099953
 30
0.0
 11
390.793511205536
 21
231.9969163099953
 31
0.0
  0
LINE
  5
1B08
330
18
100
AcDbEntity
  8
隠れ線
 62
     4
 48
0.3
100
AcDbLine
 10
390.193511205536
 20
232.1965381397731
 30
0.0
 11
390.793511205536
 21
231.9969163099953
 31
0.0
  0
LINE
  5
1B09
330
18
100
AcDbEntity
  8
外形線
100
AcDbLine
 10
391.293511205536
 20
237.2869163099954
 30
0.0
 11
390.8604985036437
 21
237.5369163099954
 31
0.0
  0
LINE
  5
1B0A
330
18
100
AcDbEntity
  8
外形線
100
AcDbLine
 10
391.2935112055361
 20
237.7869163099953
 30
0.0
 11
390.8604985036437
 21
237.5369163099954
 31
0.0
  0
LINE
  5
1B0B
330
18
100
AcDbEntity
  8
外形線
100
AcDbLine
 10
389.0935112055359
 20
239.0369163099953
 30
0.0
 11
389.093511205536
 21
237.7869163099953
 31
0.0
  0
LINE
  5
1B0C
330
18
100
AcDbEntity
  8
外形線
100
AcDbLine
 10
389.0935112055359
 20
239.0369163099953
 30
0.0
 11
389.193511205536
 21
239.1369163099953
 31
0.0
  0
LINE
  5
1B0D
330
18
100
AcDbEntity
  8
外形線
100
AcDbLine
 10
391.2935112055361
 20
239.0369163099953
 30
0.0
 11
391.2935112055361
 21
237.7869163099953
 31
0.0
  0
LINE
  5
1B0E
330
18
100
AcDbEntity
  8
外形線
100
AcDbLine
 10
389.0935112055359
 20
239.0369163099953
 30
0.0
 11
390.193511205536
 21
239.0369163099953
 31
0.0
  0
LINE
  5
1B0F
330
18
100
AcDbEntity
  8
外形線
100
AcDbLine
 10
390.193511205536
 20
239.0369163099953
 30
0.0
 11
391.2935112055361
 21
239.0369163099953
 31
0.0
  0
LINE
  5
1B10
330
18
100
AcDbEntity
  8
外形線
100
AcDbLine
 10
391.2935112055361
 20
239.0369163099953
 30
0.0
 11
391.193511205536
 21
239.1369163099953
 31
0.0
  0
LINE
  5
1B21
330
18
100
AcDbEntity
  8
目盛
100
AcDbLine
 10
309.2465870192047
 20
296.0818123081151
 30
0.0
 11
309.1792897736788
 21
294.5833227083032
 31
0.0
  0
LINE
  5
1B22
330
18
100
AcDbEntity
  8
目盛
100
AcDbLine
 10
309.9182041974984
 20
296.036530719924
 30
0.0
 11
309.7837452341433
 21
294.5425692789311
 31
0.0
  0
LINE
  5
1B23
330
18
100
AcDbEntity
  8
目盛
100
AcDbLine
 10
310.5871135512118
 20
295.9611627365145
 30
0.0
 11
310.3857636524853
 21
294.4747380938625
 31
0.0
  0
LINE
  5
1B24
330
18
100
AcDbEntity
  8
目盛
100
AcDbLine
 10
311.2519679859265
 20
295.8558601389748
 30
0.0
 11
310.9841326437285
 21
294.3799657560769
 31
0.0
  0
LINE
  5
1B67
330
18
100
AcDbEntity
  8
目盛
100
AcDbLine
 10
307.9006421086892
 20
296.0818123081151
 30
0.0
 11
307.967939354215
 21
294.5833227083031
 31
0.0
  0
LINE
  5
1B68
330
18
100
AcDbEntity
  8
目盛
100
AcDbLine
 10
307.2290249303955
 20
296.036530719924
 30
0.0
 11
307.3634838937506
 21
294.5425692789311
 31
0.0
  0
LINE
  5
1B69
330
18
100
AcDbEntity
  8
目盛
100
AcDbLine
 10
306.5601155766821
 20
295.9611627365144
 30
0.0
 11
306.7614654754085
 21
294.4747380938625
 31
0.0
  0
LINE
  5
1B6A
330
18
100
AcDbEntity
  8
目盛
100
AcDbLine
 10
305.8952611419674
 20
295.8558601389748
 30
0.0
 11
306.1630964841652
 21
294.3799657560769
 31
0.0
  0
LINE
  5
1B6B
330
18
100
AcDbEntity
  8
目盛
100
AcDbLine
 10
305.2358005546022
 20
295.7208349927228
 30
0.0
 11
305.792102889493
 21
293.2835152122682
 31
0.0
  0
LINE
  5
1B6C
330
18
100
AcDbEntity
  8
目盛
100
AcDbLine
 10
304.5830618804469
 20
295.5563592204332
 30
0.0
 11
304.9821171487968
 21
294.1104149293894
 31
0.0
  0
LINE
  5
1B6D
330
18
100
AcDbEntity
  8
目盛
100
AcDbLine
 10
303.9383596483228
 20
295.3627640544227
 30
0.0
 11
304.4018851398852
 21
293.93617927998
 31
0.0
  0
LINE
  5
1B6E
330
18
100
AcDbEntity
  8
目盛
100
AcDbLine
 10
303.3029922027268
 20
295.1404393695914
 30
0.0
 11
303.8300544388488
 21
293.7360870636319
 31
0.0
  0
LINE
  5
1B6F
330
18
100
AcDbEntity
  8
目盛
100
AcDbLine
 10
302.678239089138
 20
294.8898328982671
 30
0.0
 11
303.2677766366189
 21
293.51054123944
 31
0.0
  0
LINE
  5
1B70
330
18
100
AcDbEntity
  8
目盛
100
AcDbLine
 10
302.0653584771836
 20
294.6114493285317
 30
0.0
 11
303.1500678249774
 21
292.3590271587756
 31
0.0
  0
LINE
  5
1B71
330
18
100
AcDbEntity
  8
目盛
100
AcDbLine
 10
301.4655846268519
 20
294.3058492878464
 30
0.0
 11
302.1763876205614
 21
292.9849559900613
 31
0.0
  0
LINE
  5
1B72
330
18
100
AcDbEntity
  8
目盛
100
AcDbLine
 10
300.8801254028583
 20
293.9736482140234
 30
0.0
 11
301.6494743189672
 21
292.6859750236206
 31
0.0
  0
LINE
  5
1B73
330
18
100
AcDbEntity
  8
目盛
100
AcDbLine
 10
300.3101598421654
 20
293.6155151158149
 30
0.0
 11
301.1365053143435
 21
292.363655235233
 31
0.0
  0
LINE
  5
1B74
330
18
100
AcDbEntity
  8
目盛
100
AcDbLine
 10
299.7568357795598
 20
293.2321712256195
 30
0.0
 11
300.6385136579984
 21
292.0186457340571
 31
0.0
  0
LINE
  5
1B75
330
18
100
AcDbEntity
  8
目盛
100
AcDbLine
 10
299.221267536066
 20
292.8243885470158
 30
0.0
 11
300.7799920407127
 21
290.8698098408458
 31
0.0
  0
LINE
  5
1B76
330
18
100
AcDbEntity
  8
目盛
100
AcDbLine
 10
298.7045336748512
 20
292.3929883000495
 30
0.0
 11
299.6914417637608
 21
291.2633811010441
 31
0.0
  0
LINE
  5
1B77
330
18
100
AcDbEntity
  8
目盛
100
AcDbLine
 10
298.207674829144
 20
291.9388392674063
 30
0.0
 11
299.2442688026243
 21
290.8546469716652
 31
0.0
  0
LINE
  5
1B78
330
18
100
AcDbEntity
  8
目盛
100
AcDbLine
 10
297.731691606536
 20
291.4628560447983
 30
0.0
 11
298.8158839022771
 21
290.4262620713181
 31
0.0
  0
LINE
  5
1B79
330
18
100
AcDbEntity
  8
目盛
100
AcDbLine
 10
297.2775425738928
 20
290.965997199091
 30
0.0
 11
298.4071497728982
 21
289.9790891101814
 31
0.0
  0
LINE
  5
1B7A
330
18
100
AcDbEntity
  8
目盛
100
AcDbLine
 10
296.8461423269265
 20
290.4492633378763
 30
0.0
 11
298.8007210330966
 21
288.8905388332295
 31
0.0
  0
LINE
  5
1B7B
330
18
100
AcDbEntity
  8
目盛
100
AcDbLine
 10
296.4383596483227
 20
289.9136950943825
 30
0.0
 11
297.6518851398851
 21
289.0320172159438
 31
0.0
  0
LINE
  5
1B7C
330
18
100
AcDbEntity
  8
目盛
100
AcDbLine
 10
296.0550157581273
 20
289.360371031777
 30
0.0
 11
297.3068756387093
 21
288.5340255595988
 31
0.0
  0
LINE
  5
1B7D
330
18
100
AcDbEntity
  8
目盛
100
AcDbLine
 10
295.6968826599188
 20
288.790405471084
 30
0.0
 11
296.9845558503217
 21
288.0210565549751
 31
0.0
  0
LINE
  5
1B7E
330
18
100
AcDbEntity
  8
目盛
100
AcDbLine
 10
295.3646815860958
 20
288.2049462470903
 30
0.0
 11
296.6855748838809
 21
287.4941432533808
 31
0.0
  0
LINE
  5
1B7F
330
18
100
AcDbEntity
  8
目盛
100
AcDbLine
 10
295.0590815454106
 20
287.6051723967588
 30
0.0
 11
297.3115037151666
 21
286.5204630489649
 31
0.0
  0
LINE
  5
1B80
330
18
100
AcDbEntity
  8
目盛
100
AcDbLine
 10
294.7806979756752
 20
286.9922917848042
 30
0.0
 11
296.1599896345024
 21
286.4027542373234
 31
0.0
  0
LINE
  5
1B81
330
18
100
AcDbEntity
  8
目盛
100
AcDbLine
 10
294.5300915043508
 20
286.3675386712156
 30
0.0
 11
295.9344438103105
 21
285.8404764350936
 31
0.0
  0
LINE
  5
1B82
330
18
100
AcDbEntity
  8
目盛
100
AcDbLine
 10
294.3077668195197
 20
285.7321712256196
 30
0.0
 11
295.7343515939623
 21
285.2686457340571
 31
0.0
  0
LINE
  5
1B83
330
18
100
AcDbEntity
  8
目盛
100
AcDbLine
 10
294.1141716535091
 20
285.0874689934955
 30
0.0
 11
295.5601159445529
 21
284.6884137251454
 31
0.0
  0
LINE
  5
1B84
330
18
100
AcDbEntity
  8
目盛
100
AcDbLine
 10
293.9496958812195
 20
284.4347303193401
 30
0.0
 11
296.3870156616741
 21
283.8784279844493
 31
0.0
  0
LINE
  5
1B85
330
18
100
AcDbEntity
  8
目盛
100
AcDbLine
 10
293.8146707349675
 20
283.7752697319749
 30
0.0
 11
295.2905651178654
 21
283.5074343897769
 31
0.0
  0
LINE
  5
1B86
330
18
100
AcDbEntity
  8
目盛
100
AcDbLine
 10
293.7093681374279
 20
283.1104152972603
 30
0.0
 11
295.1957927800798
 21
282.9090653985338
 31
0.0
  0
LINE
  5
1B87
330
18
100
AcDbEntity
  8
目盛
100
AcDbLine
 10
293.6340001540184
 20
282.4415059435469
 30
0.0
 11
295.1279615950112
 21
282.3070469801917
 31
0.0
  0
LINE
  5
1B88
330
18
100
AcDbEntity
  8
目盛
100
AcDbLine
 10
293.5887185658272
 20
281.7698887652531
 30
0.0
 11
295.0872081656391
 21
281.7025915197273
 31
0.0
  0
LINE
  5
1B89
330
18
100
AcDbEntity
  8
目盛
100
AcDbLine
 10
293.5736145639469
 20
281.0969163099954
 30
0.0
 11
296.0736145639469
 21
281.0969163099954
 31
0.0
  0
LINE
  5
1B8A
330
18
100
AcDbEntity
  8
目盛
100
AcDbLine
 10
293.5887185658271
 20
280.4239438547376
 30
0.0
 11
295.0872081656391
 21
280.4912411002634
 31
0.0
  0
LINE
  5
1B8B
330
18
100
AcDbEntity
  8
目盛
100
AcDbLine
 10
293.6340001540182
 20
279.7523266764439
 30
0.0
 11
295.1279615950111
 21
279.8867856397991
 31
0.0
  0
LINE
  5
1B8C
330
18
100
AcDbEntity
  8
目盛
100
AcDbLine
 10
293.7093681374278
 20
279.0834173227306
 30
0.0
 11
295.1957927800797
 21
279.284767221457
 31
0.0
  0
LINE
  5
1B8D
330
18
100
AcDbEntity
  8
目盛
100
AcDbLine
 10
293.8146707349674
 20
278.4185628880158
 30
0.0
 11
295.2905651178653
 21
278.6863982302137
 31
0.0
  0
LINE
  5
1B8E
330
18
100
AcDbEntity
  8
目盛
100
AcDbLine
 10
293.9496958812195
 20
277.7591023006507
 30
0.0
 11
296.387015661674
 21
278.3154046355415
 31
0.0
  0
LINE
  5
1B8F
330
18
100
AcDbEntity
  8
目盛
100
AcDbLine
 10
294.1141716535092
 20
277.1063636264953
 30
0.0
 11
295.560115944553
 21
277.5054188948453
 31
0.0
  0
LINE
  5
1B90
330
18
100
AcDbEntity
  8
目盛
100
AcDbLine
 10
294.3077668195197
 20
276.4616613943712
 30
0.0
 11
295.7343515939624
 21
276.9251868859336
 31
0.0
  0
LINE
  5
1B91
330
18
100
AcDbEntity
  8
目盛
100
AcDbLine
 10
294.5300915043509
 20
275.8262939487752
 30
0.0
 11
295.9344438103105
 21
276.3533561848972
 31
0.0
  0
LINE
  5
1B92
330
18
100
AcDbEntity
  8
目盛
100
AcDbLine
 10
294.7806979756752
 20
275.2015408351865
 30
0.0
 11
296.1599896345024
 21
275.7910783826674
 31
0.0
  0
LINE
  5
1B93
330
18
100
AcDbEntity
  8
目盛
100
AcDbLine
 10
295.0590815454107
 20
274.588660223232
 30
0.0
 11
297.3115037151668
 21
275.6733695710259
 31
0.0
  0
LINE
  5
1B94
330
18
100
AcDbEntity
  8
目盛
100
AcDbLine
 10
295.3646815860959
 20
273.9888863729003
 30
0.0
 11
296.685574883881
 21
274.6996893666099
 31
0.0
  0
LINE
  5
1B95
330
18
100
AcDbEntity
  8
目盛
100
AcDbLine
 10
295.6968826599189
 20
273.4034271489068
 30
0.0
 11
296.9845558503217
 21
274.1727760650156
 31
0.0
  0
LINE
  5
1B96
330
18
100
AcDbEntity
  8
目盛
100
AcDbLine
 10
296.0550157581274
 20
272.8334615882138
 30
0.0
 11
297.3068756387093
 21
273.6598070603919
 31
0.0
  0
LINE
  5
1B97
330
18
100
AcDbEntity
  8
目盛
100
AcDbLine
 10
296.4383596483228
 20
272.2801375256082
 30
0.0
 11
297.6518851398852
 21
273.1618154040469
 31
0.0
  0
LINE
  5
1B98
330
18
100
AcDbEntity
  8
目盛
100
AcDbLine
 10
296.8461423269265
 20
271.7445692821144
 30
0.0
 11
298.8007210330966
 21
273.3032937867612
 31
0.0
  0
LINE
  5
1B99
330
18
100
AcDbEntity
  8
目盛
100
AcDbLine
 10
297.2775425738929
 20
271.2278354208997
 30
0.0
 11
298.4071497728983
 21
272.2147435098093
 31
0.0
  0
LINE
  5
1B9A
330
18
100
AcDbEntity
  8
目盛
100
AcDbLine
 10
297.731691606536
 20
270.7309765751924
 30
0.0
 11
298.8158839022771
 21
271.7675705486727
 31
0.0
  0
LINE
  5
1B9B
330
18
100
AcDbEntity
  8
目盛
100
AcDbLine
 10
298.207674829144
 20
270.2549933525845
 30
0.0
 11
299.2442688026244
 21
271.3391856483256
 31
0.0
  0
LINE
  5
1B9C
330
18
100
AcDbEntity
  8
目盛
100
AcDbLine
 10
298.7045336748514
 20
269.8008443199412
 30
0.0
 11
299.691441763761
 21
270.9304515189466
 31
0.0
  0
LINE
  5
1B9D
330
18
100
AcDbEntity
  8
目盛
100
AcDbLine
 10
299.221267536066
 20
269.3694440729749
 30
0.0
 11
300.7799920407129
 21
271.324022779145
 31
0.0
  0
LINE
  5
1B9E
330
18
100
AcDbEntity
  8
目盛
100
AcDbLine
 10
299.7568357795599
 20
268.9616613943711
 30
0.0
 11
300.6385136579986
 21
270.1751868859336
 31
0.0
  0
LINE
  5
1B9F
330
18
100
AcDbEntity
  8
目盛
100
AcDbLine
 10
300.3101598421654
 20
268.5783175041759
 30
0.0
 11
301.1365053143435
 21
269.8301773847578
 31
0.0
  0
LINE
  5
1BA0
330
18
100
AcDbEntity
  8
目盛
100
AcDbLine
 10
300.8801254028584
 20
268.2201844059674
 30
0.0
 11
301.6494743189672
 21
269.5078575963702
 31
0.0
  0
LINE
  5
1BA1
330
18
100
AcDbEntity
  8
目盛
100
AcDbLine
 10
301.465584626852
 20
267.8879833321443
 30
0.0
 11
302.1763876205615
 21
269.2088766299293
 31
0.0
  0
LINE
  5
1BA2
330
18
100
AcDbEntity
  8
目盛
100
AcDbLine
 10
302.0653584771836
 20
267.5823832914591
 30
0.0
 11
303.1500678249774
 21
269.8348054612151
 31
0.0
  0
LINE
  5
1BA3
330
18
100
AcDbEntity
  8
目盛
100
AcDbLine
 10
302.678239089138
 20
267.3039997217236
 30
0.0
 11
303.2677766366189
 21
268.6832913805508
 31
0.0
  0
LINE
  5
1BA4
330
18
100
AcDbEntity
  8
目盛
100
AcDbLine
 10
303.3029922027267
 20
267.0533932503992
 30
0.0
 11
303.8300544388487
 21
268.457745556359
 31
0.0
  0
LINE
  5
1BA5
330
18
100
AcDbEntity
  8
目盛
100
AcDbLine
 10
303.9383596483227
 20
266.8310685655681
 30
0.0
 11
304.4018851398851
 21
268.2576533400108
 31
0.0
  0
LINE
  5
1BA6
330
18
100
AcDbEntity
  8
目盛
100
AcDbLine
 10
304.5830618804467
 20
266.6374733995576
 30
0.0
 11
304.9821171487968
 21
268.0834176906013
 31
0.0
  0
LINE
  5
1BA7
330
18
100
AcDbEntity
  8
目盛
100
AcDbLine
 10
305.2358005546021
 20
266.472997627268
 30
0.0
 11
305.7921028894929
 21
268.9103174077226
 31
0.0
  0
LINE
  5
1BA8
330
18
100
AcDbEntity
  8
目盛
100
AcDbLine
 10
305.8952611419675
 20
266.3379724810159
 30
0.0
 11
306.1630964841654
 21
267.8138668639138
 31
0.0
  0
LINE
  5
1BA9
330
18
100
AcDbEntity
  8
目盛
100
AcDbLine
 10
306.5601155766821
 20
266.2326698834763
 30
0.0
 11
306.7614654754086
 21
267.7190945261282
 31
0.0
  0
LINE
  5
1BAA
330
18
100
AcDbEntity
  8
目盛
100
AcDbLine
 10
307.2290249303955
 20
266.1573019000667
 30
0.0
 11
307.3634838937506
 21
267.6512633410596
 31
0.0
  0
LINE
  5
1BAB
330
18
100
AcDbEntity
  8
目盛
100
AcDbLine
 10
307.9006421086893
 20
266.1120203118756
 30
0.0
 11
307.9679393542151
 21
267.6105099116875
 31
0.0
  0
LINE
  5
1BAC
330
18
100
AcDbEntity
  8
目盛
100
AcDbLine
 10
308.573614563947
 20
266.0969163099953
 30
0.0
 11
308.573614563947
 21
268.5969163099953
 31
0.0
  0
LINE
  5
1BAD
330
18
100
AcDbEntity
  8
目盛
100
AcDbLine
 10
309.2465870192047
 20
266.1120203118756
 30
0.0
 11
309.1792897736789
 21
267.6105099116877
 31
0.0
  0
LINE
  5
1BAE
330
18
100
AcDbEntity
  8
目盛
100
AcDbLine
 10
309.9182041974984
 20
266.1573019000668
 30
0.0
 11
309.7837452341433
 21
267.6512633410597
 31
0.0
  0
LINE
  5
1BAF
330
18
100
AcDbEntity
  8
目盛
100
AcDbLine
 10
310.5871135512118
 20
266.2326698834764
 30
0.0
 11
310.3857636524854
 21
267.7190945261283
 31
0.0
  0
LINE
  5
1BB0
330
18
100
AcDbEntity
  8
目盛
100
AcDbLine
 10
311.2519679859265
 20
266.337972481016
 30
0.0
 11
310.9841326437287
 21
267.8138668639139
 31
0.0
  0
LINE
  5
1BB1
330
18
100
AcDbEntity
  8
目盛
100
AcDbLine
 10
311.9114285732917
 20
266.4729976272681
 30
0.0
 11
311.3551262384009
 21
268.9103174077226
 31
0.0
  0
LINE
  5
1BB2
330
18
100
AcDbEntity
  8
目盛
100
AcDbLine
 10
312.564167247447
 20
266.6374733995576
 30
0.0
 11
312.165111979097
 21
268.0834176906013
 31
0.0
  0
LINE
  5
1BB3
330
18
100
AcDbEntity
  8
目盛
100
AcDbLine
 10
313.2088694795711
 20
266.831068565568
 30
0.0
 11
312.7453439880087
 21
268.2576533400107
 31
0.0
  0
LINE
  5
1BB4
330
18
100
AcDbEntity
  8
目盛
100
AcDbLine
 10
313.8442369251671
 20
267.0533932503992
 30
0.0
 11
313.317174689045
 21
268.4577455563589
 31
0.0
  0
LINE
  5
1BB5
330
18
100
AcDbEntity
  8
目盛
100
AcDbLine
 10
314.4689900387558
 20
267.3039997217236
 30
0.0
 11
313.879452491275
 21
268.6832913805508
 31
0.0
  0
LINE
  5
1BB6
330
18
100
AcDbEntity
  8
目盛
100
AcDbLine
 10
315.0818706507103
 20
267.5823832914591
 30
0.0
 11
313.9971613029164
 21
269.834805461215
 31
0.0
  0
LINE
  5
1BB7
330
18
100
AcDbEntity
  8
目盛
100
AcDbLine
 10
315.681644501042
 20
267.8879833321442
 30
0.0
 11
314.9708415073324
 21
269.2088766299294
 31
0.0
  0
LINE
  5
1BB8
330
18
100
AcDbEntity
  8
目盛
100
AcDbLine
 10
316.2671037250355
 20
268.2201844059673
 30
0.0
 11
315.4977548089267
 21
269.5078575963701
 31
0.0
  0
LINE
  5
1BB9
330
18
100
AcDbEntity
  8
目盛
100
AcDbLine
 10
316.8370692857285
 20
268.5783175041757
 30
0.0
 11
316.0107238135503
 21
269.8301773847577
 31
0.0
  0
LINE
  5
1BBA
330
18
100
AcDbEntity
  8
目盛
100
AcDbLine
 10
317.390393348334
 20
268.9616613943712
 30
0.0
 11
316.5087154698954
 21
270.1751868859336
 31
0.0
  0
LINE
  5
1BBB
330
18
100
AcDbEntity
  8
目盛
100
AcDbLine
 10
317.9259615918279
 20
269.3694440729749
 30
0.0
 11
316.3672370871811
 21
271.3240227791449
 31
0.0
  0
LINE
  5
1BBC
330
18
100
AcDbEntity
  8
目盛
100
AcDbLine
 10
318.4426954530427
 20
269.8008443199412
 30
0.0
 11
317.4557873641331
 21
270.9304515189466
 31
0.0
  0
LINE
  5
1BBD
330
18
100
AcDbEntity
  8
目盛
100
AcDbLine
 10
318.9395542987499
 20
270.2549933525844
 30
0.0
 11
317.9029603252697
 21
271.3391856483255
 31
0.0
  0
LINE
  5
1BBE
330
18
100
AcDbEntity
  8
目盛
100
AcDbLine
 10
319.4155375213578
 20
270.7309765751924
 30
0.0
 11
318.3313452256168
 21
271.7675705486727
 31
0.0
  0
LINE
  5
1BBF
330
18
100
AcDbEntity
  8
目盛
100
AcDbLine
 10
319.8696865540011
 20
271.2278354208997
 30
0.0
 11
318.7400793549958
 21
272.2147435098093
 31
0.0
  0
LINE
  5
1BC0
330
18
100
AcDbEntity
  8
目盛
100
AcDbLine
 10
320.3010868009674
 20
271.7445692821144
 30
0.0
 11
318.3465080947973
 21
273.3032937867612
 31
0.0
  0
LINE
  5
1BC1
330
18
100
AcDbEntity
  8
目盛
100
AcDbLine
 10
320.7088694795711
 20
272.2801375256083
 30
0.0
 11
319.4953439880087
 21
273.1618154040471
 31
0.0
  0
LINE
  5
1BC2
330
18
100
AcDbEntity
  8
目盛
100
AcDbLine
 10
321.0922133697664
 20
272.8334615882138
 30
0.0
 11
319.8403534891845
 21
273.659807060392
 31
0.0
  0
LINE
  5
1BC3
330
18
100
AcDbEntity
  8
目盛
100
AcDbLine
 10
321.4503464679749
 20
273.4034271489067
 30
0.0
 11
320.1626732775721
 21
274.1727760650156
 31
0.0
  0
LINE
  5
1BC4
330
18
100
AcDbEntity
  8
目盛
100
AcDbLine
 10
321.782547541798
 20
273.9888863729004
 30
0.0
 11
320.4616542440129
 21
274.6996893666099
 31
0.0
  0
LINE
  5
1BC5
330
18
100
AcDbEntity
  8
目盛
100
AcDbLine
 10
322.0881475824832
 20
274.588660223232
 30
0.0
 11
319.8357254127272
 21
275.6733695710259
 31
0.0
  0
LINE
  5
1BC6
330
18
100
AcDbEntity
  8
目盛
100
AcDbLine
 10
322.3665311522187
 20
275.2015408351866
 30
0.0
 11
320.9872394933916
 21
275.7910783826674
 31
0.0
  0
LINE
  5
1BC7
330
18
100
AcDbEntity
  8
目盛
100
AcDbLine
 10
322.6171376235431
 20
275.8262939487752
 30
0.0
 11
321.2127853175834
 21
276.3533561848972
 31
0.0
  0
LINE
  5
1BC8
330
18
100
AcDbEntity
  8
目盛
100
AcDbLine
 10
322.8394623083743
 20
276.4616613943712
 30
0.0
 11
321.4128775339315
 21
276.9251868859336
 31
0.0
  0
LINE
  5
1BC9
330
18
100
AcDbEntity
  8
目盛
100
AcDbLine
 10
323.0330574743847
 20
277.1063636264953
 30
0.0
 11
321.587113183341
 21
277.5054188948454
 31
0.0
  0
LINE
  5
1BCA
330
18
100
AcDbEntity
  8
目盛
100
AcDbLine
 10
323.1975332466743
 20
277.7591023006507
 30
0.0
 11
320.7602134662197
 21
278.3154046355414
 31
0.0
  0
LINE
  5
1BCB
330
18
100
AcDbEntity
  8
目盛
100
AcDbLine
 10
323.3325583929264
 20
278.4185628880158
 30
0.0
 11
321.8566640100285
 21
278.6863982302137
 31
0.0
  0
LINE
  5
1BCC
330
18
100
AcDbEntity
  8
目盛
100
AcDbLine
 10
323.437860990466
 20
279.0834173227304
 30
0.0
 11
321.9514363478141
 21
279.2847672214569
 31
0.0
  0
LINE
  5
1BCD
330
18
100
AcDbEntity
  8
目盛
100
AcDbLine
 10
323.5132289738755
 20
279.7523266764438
 30
0.0
 11
322.0192675328827
 21
279.886785639799
 31
0.0
  0
LINE
  5
1BCE
330
18
100
AcDbEntity
  8
目盛
100
AcDbLine
 10
323.5585105620667
 20
280.4239438547376
 30
0.0
 11
322.0600209622547
 21
280.4912411002634
 31
0.0
  0
LINE
  5
1BCF
330
18
100
AcDbEntity
  8
目盛
100
AcDbLine
 10
323.5736145639469
 20
281.0969163099953
 30
0.0
 11
321.0736145639469
 21
281.0969163099953
 31
0.0
  0
LINE
  5
1BD0
330
18
100
AcDbEntity
  8
目盛
100
AcDbLine
 10
323.5585105620667
 20
281.7698887652531
 30
0.0
 11
322.0600209622547
 21
281.7025915197273
 31
0.0
  0
LINE
  5
1BD1
330
18
100
AcDbEntity
  8
目盛
100
AcDbLine
 10
323.5132289738756
 20
282.4415059435469
 30
0.0
 11
322.0192675328827
 21
282.3070469801917
 31
0.0
  0
LINE
  5
1BD2
330
18
100
AcDbEntity
  8
目盛
100
AcDbLine
 10
323.437860990466
 20
283.1104152972603
 30
0.0
 11
321.9514363478141
 21
282.9090653985338
 31
0.0
  0
LINE
  5
1BD3
330
18
100
AcDbEntity
  8
目盛
100
AcDbLine
 10
323.3325583929264
 20
283.775269731975
 30
0.0
 11
321.8566640100285
 21
283.5074343897771
 31
0.0
  0
LINE
  5
1BD4
330
18
100
AcDbEntity
  8
目盛
100
AcDbLine
 10
323.1975332466743
 20
284.4347303193401
 30
0.0
 11
320.7602134662197
 21
283.8784279844493
 31
0.0
  0
LINE
  5
1BD5
330
18
100
AcDbEntity
  8
目盛
100
AcDbLine
 10
323.0330574743847
 20
285.0874689934956
 30
0.0
 11
321.5871131833409
 21
284.6884137251454
 31
0.0
  0
LINE
  5
1BD6
330
18
100
AcDbEntity
  8
目盛
100
AcDbLine
 10
322.8394623083743
 20
285.7321712256195
 30
0.0
 11
321.4128775339315
 21
285.2686457340571
 31
0.0
  0
LINE
  5
1BD7
330
18
100
AcDbEntity
  8
目盛
100
AcDbLine
 10
322.617137623543
 20
286.3675386712155
 30
0.0
 11
321.2127853175834
 21
285.8404764350935
 31
0.0
  0
LINE
  5
1BD8
330
18
100
AcDbEntity
  8
目盛
100
AcDbLine
 10
322.3665311522187
 20
286.9922917848043
 30
0.0
 11
320.9872394933916
 21
286.4027542373234
 31
0.0
  0
LINE
  5
1BD9
330
18
100
AcDbEntity
  8
目盛
100
AcDbLine
 10
322.0881475824833
 20
287.6051723967587
 30
0.0
 11
319.8357254127272
 21
286.5204630489648
 31
0.0
  0
LINE
  5
1BDA
330
18
100
AcDbEntity
  8
目盛
100
AcDbLine
 10
321.782547541798
 20
288.2049462470904
 30
0.0
 11
320.4616542440129
 21
287.4941432533809
 31
0.0
  0
LINE
  5
1BDB
330
18
100
AcDbEntity
  8
目盛
100
AcDbLine
 10
321.4503464679749
 20
288.790405471084
 30
0.0
 11
320.1626732775722
 21
288.0210565549751
 31
0.0
  0
LINE
  5
1BDC
330
18
100
AcDbEntity
  8
目盛
100
AcDbLine
 10
321.0922133697665
 20
289.3603710317769
 30
0.0
 11
319.8403534891845
 21
288.5340255595988
 31
0.0
  0
LINE
  5
1BDD
330
18
100
AcDbEntity
  8
目盛
100
AcDbLine
 10
320.7088694795711
 20
289.9136950943825
 30
0.0
 11
319.4953439880087
 21
289.0320172159438
 31
0.0
  0
LINE
  5
1BDE
330
18
100
AcDbEntity
  8
目盛
100
AcDbLine
 10
320.3010868009674
 20
290.4492633378763
 30
0.0
 11
318.3465080947974
 21
288.8905388332296
 31
0.0
  0
LINE
  5
1BDF
330
18
100
AcDbEntity
  8
目盛
100
AcDbLine
 10
319.8696865540011
 20
290.9659971990911
 30
0.0
 11
318.7400793549957
 21
289.9790891101815
 31
0.0
  0
LINE
  5
1BE0
330
18
100
AcDbEntity
  8
目盛
100
AcDbLine
 10
319.4155375213579
 20
291.4628560447983
 30
0.0
 11
318.3313452256168
 21
290.4262620713181
 31
0.0
  0
LINE
  5
1BE1
330
18
100
AcDbEntity
  8
目盛
100
AcDbLine
 10
318.9395542987499
 20
291.9388392674063
 30
0.0
 11
317.9029603252697
 21
290.8546469716652
 31
0.0
  0
LINE
  5
1BE2
330
18
100
AcDbEntity
  8
目盛
100
AcDbLine
 10
318.4426954530426
 20
292.3929883000495
 30
0.0
 11
317.455787364133
 21
291.2633811010442
 31
0.0
  0
LINE
  5
1BE3
330
18
100
AcDbEntity
  8
目盛
100
AcDbLine
 10
317.9259615918279
 20
292.8243885470158
 30
0.0
 11
316.3672370871811
 21
290.8698098408457
 31
0.0
  0
LINE
  5
1BE4
330
18
100
AcDbEntity
  8
目盛
100
AcDbLine
 10
317.3903933483339
 20
293.2321712256197
 30
0.0
 11
316.5087154698952
 21
292.0186457340571
 31
0.0
  0
LINE
  5
1BE5
330
18
100
AcDbEntity
  8
目盛
100
AcDbLine
 10
316.8370692857284
 20
293.6155151158149
 30
0.0
 11
316.0107238135503
 21
292.363655235233
 31
0.0
  0
LINE
  5
1BE6
330
18
100
AcDbEntity
  8
目盛
100
AcDbLine
 10
316.2671037250355
 20
293.9736482140234
 30
0.0
 11
315.4977548089267
 21
292.6859750236206
 31
0.0
  0
LINE
  5
1BE7
330
18
100
AcDbEntity
  8
目盛
100
AcDbLine
 10
315.6816445010418
 20
294.3058492878464
 30
0.0
 11
314.9708415073324
 21
292.9849559900615
 31
0.0
  0
LINE
  5
1BE8
330
18
100
AcDbEntity
  8
目盛
100
AcDbLine
 10
315.0818706507103
 20
294.6114493285317
 30
0.0
 11
313.9971613029164
 21
292.3590271587756
 31
0.0
  0
LINE
  5
1BE9
330
18
100
AcDbEntity
  8
目盛
100
AcDbLine
 10
314.4689900387557
 20
294.8898328982671
 30
0.0
 11
313.8794524912749
 21
293.5105412394399
 31
0.0
  0
LINE
  5
1BEA
330
18
100
AcDbEntity
  8
目盛
100
AcDbLine
 10
313.8442369251671
 20
295.1404393695914
 30
0.0
 11
313.3171746890451
 21
293.7360870636318
 31
0.0
  0
LINE
  5
1BEB
330
18
100
AcDbEntity
  8
目盛
100
AcDbLine
 10
313.2088694795712
 20
295.3627640544226
 30
0.0
 11
312.7453439880087
 21
293.9361792799799
 31
0.0
  0
LINE
  5
1BEC
330
18
100
AcDbEntity
  8
目盛
100
AcDbLine
 10
312.5641672474471
 20
295.5563592204331
 30
0.0
 11
312.165111979097
 21
294.1104149293894
 31
0.0
  0
LINE
  5
1BED
330
18
100
AcDbEntity
  8
目盛
100
AcDbLine
 10
311.9114285732917
 20
295.7208349927227
 30
0.0
 11
311.3551262384009
 21
293.2835152122681
 31
0.0
  0
TEXT
  5
1BF0
330
18
100
AcDbEntity
  8
文字
100
AcDbText
 10
315.0832844106149
 20
273.3689869125913
 30
0.0
 40
1.8
  1
50
  7
STYLE3
100
AcDbText
  0
TEXT
  5
1BF1
330
18
100
AcDbEntity
  8
文字
100
AcDbText
 10
311.4796356421562
 20
270.317114928093
 30
0.0
 40
1.8
  1
60
  7
STYLE3
100
AcDbText
  0
TEXT
  5
1BF2
330
18
100
AcDbEntity
  8
文字
100
AcDbText
 10
301.9631217541148
 20
270.7150768141817
 30
0.0
 40
1.8
  1
60
  7
STYLE3
100
AcDbText
  0
TEXT
  5
1BF3
330
18
100
AcDbEntity
  8
文字
100
AcDbText
 10
296.666325911051
 20
277.5644102419205
 30
0.0
 40
1.8
  1
40
  7
STYLE3
100
AcDbText
  0
LINE
  5
1C35
330
18
100
AcDbEntity
  8
0
  6
ByBlock
 62
     2
100
AcDbLine
 10
390.193511205536
 20
313.8969163099954
 30
0.0
 11
411.999804607034
 21
313.8969163099954
 31
0.0
  0
LINE
  5
1C36
330
18
100
AcDbEntity
  8
0
  6
ByBlock
 62
     2
100
AcDbLine
 10
397.693511205536
 20
297.8969163099955
 30
0.0
 11
411.999804607034
 21
297.8969163099955
 31
0.0
  0
LINE
  5
1C37
330
18
100
AcDbEntity
  8
0
  6
ByBlock
 62
     2
100
AcDbLine
 10
410.749804607034
 20
311.3969163099954
 30
0.0
 11
410.749804607034
 21
300.3969163099955
 31
0.0
  0
INSERT
  5
1C38
330
18
100
AcDbEntity
  8
0
  6
ByBlock
 62
     2
100
AcDbBlockReference
  2
_OPEN
 10
410.749804607034
 20
313.8969163099954
 30
0.0
 41
2.5
 42
2.5
 43
2.5
 50
90.0
  0
INSERT
  5
1C39
330
18
100
AcDbEntity
  8
0
  6
ByBlock
 62
     2
100
AcDbBlockReference
  2
_OPEN
 10
410.749804607034
 20
297.8969163099955
 30
0.0
 41
2.5
 42
2.5
 43
2.5
 50
270.0
  0
MTEXT
  5
1C3A
330
18
100
AcDbEntity
  8
0
  6
ByBlock
 62
     6
100
AcDbMText
 10
408.874804607034
 20
305.8969163099955
 30
0.0
 40
2.5
 41
0.0
 71
     5
 72
     1
  1
\A1;16
  7
STYLE3
 11
0.0000000000000001
 21
1.0
 31
0.0
 73
     1
 44
1.0
  0
POINT
  5
1C3B
330
18
100
AcDbEntity
  8
DEFPOINTS
  6
ByBlock
 62
     0
100
AcDbPoint
 10
390.193511205536
 20
313.8969163099954
 30
0.0
  0
POINT
  5
1C3C
330
18
100
AcDbEntity
  8
DEFPOINTS
  6
ByBlock
 62
     0
100
AcDbPoint
 10
397.693511205536
 20
297.8969163099955
 30
0.0
  0
POINT
  5
1C3D
330
18
100
AcDbEntity
  8
DEFPOINTS
  6
ByBlock
 62
     0
100
AcDbPoint
 10
410.749804607034
 20
297.8969163099955
 30
0.0
  0
LINE
  5
1C3E
330
18
100
AcDbEntity
  8
0
  6
ByBlock
 62
     2
100
AcDbLine
 10
373.693511205536
 20
281.0969163099953
 30
0.0
 11
373.693511205536
 21
330.1996836611472
 31
0.0
  0
LINE
  5
1C3F
330
18
100
AcDbEntity
  8
0
  6
ByBlock
 62
     2
100
AcDbLine
 10
399.693511205536
 20
324.8000048482587
 30
0.0
 11
399.693511205536
 21
330.1996836611472
 31
0.0
  0
LINE
  5
1C40
330
18
100
AcDbEntity
  8
0
  6
ByBlock
 62
     2
100
AcDbLine
 10
376.193511205536
 20
328.9496836611472
 30
0.0
 11
397.193511205536
 21
328.9496836611472
 31
0.0
  0
INSERT
  5
1C41
330
18
100
AcDbEntity
  8
0
  6
ByBlock
 62
     2
100
AcDbBlockReference
  2
_OPEN
 10
373.693511205536
 20
328.9496836611472
 30
0.0
 41
2.5
 42
2.5
 43
2.5
 50
180.0
  0
INSERT
  5
1C42
330
18
100
AcDbEntity
  8
0
  6
ByBlock
 62
     2
100
AcDbBlockReference
  2
_OPEN
 10
399.693511205536
 20
328.9496836611472
 30
0.0
 41
2.5
 42
2.5
 43
2.5
  0
MTEXT
  5
1C43
330
18
100
AcDbEntity
  8
0
  6
ByBlock
 62
     6
100
AcDbMText
 10
386.693511205536
 20
330.8246836611472
 30
0.0
 40
2.5
 41
0.0
 71
     5
 72
     1
  1
\A1;26
  7
STYLE3
 73
     1
 44
1.0
  0
POINT
  5
1C44
330
18
100
AcDbEntity
  8
DEFPOINTS
  6
ByBlock
 62
     0
100
AcDbPoint
 10
373.693511205536
 20
281.0969163099953
 30
0.0
  0
POINT
  5
1C45
330
18
100
AcDbEntity
  8
DEFPOINTS
  6
ByBlock
 62
     0
100
AcDbPoint
 10
399.693511205536
 20
324.8000048482587
 30
0.0
  0
POINT
  5
1C46
330
18
100
AcDbEntity
  8
DEFPOINTS
  6
ByBlock
 62
     0
100
AcDbPoint
 10
399.693511205536
 20
328.9496836611472
 30
0.0
  0
LINE
  5
1C47
330
18
100
AcDbEntity
  8
寸法線
 62
     2
100
AcDbLine
 10
398.7810328396713
 20
268.9179770602497
 30
0.0
 11
405.9622190202428
 21
278.2192469951078
 31
0.0
1001
ACAD
1000
DSTYLE
1002
{
1070
   271
1070
     2
1002
}
  0
LINE
  5
1C48
330
18
100
AcDbEntity
  8
寸法線
 62
     2
100
AcDbLine
 10
405.9622190202428
 20
278.2192469951078
 30
0.0
 11
410.9919809250047
 21
278.2192469951078
 31
0.0
1001
ACAD
1000
DSTYLE
1002
{
1070
   271
1070
     2
1002
}
  0
LINE
  5
1C49
330
18
100
AcDbEntity
  8
0
  6
ByBlock
 62
     2
100
AcDbLine
 10
333.2940970699295
 20
314.0969163099954
 30
0.0
 11
346.5572698284119
 21
314.0969163099954
 31
0.0
  0
LINE
  5
1C4A
330
18
100
AcDbEntity
  8
0
  6
ByBlock
 62
     2
100
AcDbLine
 10
308.5736145639469
 20
230.1969163099954
 30
0.0
 11
346.5572698284119
 21
230.1969163099954
 31
0.0
  0
LINE
  5
1C4B
330
18
100
AcDbEntity
  8
0
  6
ByBlock
 62
     2
100
AcDbLine
 10
345.3072698284119
 20
311.5969163099954
 30
0.0
 11
345.3072698284119
 21
232.6969163099954
 31
0.0
  0
INSERT
  5
1C4C
330
18
100
AcDbEntity
  8
0
  6
ByBlock
 62
     2
100
AcDbBlockReference
  2
_OPEN
 10
345.3072698284119
 20
314.0969163099954
 30
0.0
 41
2.5
 42
2.5
 43
2.5
 50
90.0
  0
INSERT
  5
1C4D
330
18
100
AcDbEntity
  8
0
  6
ByBlock
 62
     2
100
AcDbBlockReference
  2
_OPEN
 10
345.3072698284119
 20
230.1969163099954
 30
0.0
 41
2.5
 42
2.5
 43
2.5
 50
270.0
  0
MTEXT
  5
1C4E
330
18
100
AcDbEntity
  8
0
  6
ByBlock
 62
     6
100
AcDbMText
 10
343.4322698284119
 20
272.1469163099954
 30
0.0
 40
2.5
 41
0.0
 71
     5
 72
     1
  1
\A1;83.7
  7
STYLE3
 11
0.0000000000000001
 21
1.0
 31
0.0
 73
     1
 44
1.0
  0
POINT
  5
1C4F
330
18
100
AcDbEntity
  8
DEFPOINTS
  6
ByBlock
 62
     0
100
AcDbPoint
 10
333.2940970699295
 20
314.0969163099954
 30
0.0
  0
POINT
  5
1C50
330
18
100
AcDbEntity
  8
DEFPOINTS
  6
ByBlock
 62
     0
100
AcDbPoint
 10
308.5736145639469
 20
230.1969163099954
 30
0.0
  0
POINT
  5
1C51
330
18
100
AcDbEntity
  8
DEFPOINTS
  6
ByBlock
 62
     0
100
AcDbPoint
 10
345.3072698284119
 20
230.1969163099954
 30
0.0
  0
LINE
  5
1C52
330
18
100
AcDbEntity
  8
0
  6
ByBlock
 62
     2
100
AcDbLine
 10
382.193511205536
 20
297.8969163099954
 30
0.0
 11
382.193511205536
 21
324.8000048482587
 31
0.0
  0
LINE
  5
1C53
330
18
100
AcDbEntity
  8
0
  6
ByBlock
 62
     2
100
AcDbLine
 10
398.043511205536
 20
296.2469163099955
 30
0.0
 11
398.043511205536
 21
324.8000048482587
 31
0.0
  0
LINE
  5
1C54
330
18
100
AcDbEntity
  8
0
  6
ByBlock
 62
     2
100
AcDbLine
 10
384.693511205536
 20
323.5500048482586
 30
0.0
 11
395.5435112055361
 21
323.5500048482586
 31
0.0
  0
INSERT
  5
1C55
330
18
100
AcDbEntity
  8
0
  6
ByBlock
 62
     2
100
AcDbBlockReference
  2
_OPEN
 10
382.193511205536
 20
323.5500048482586
 30
0.0
 41
2.5
 42
2.5
 43
2.5
 50
180.0
  0
INSERT
  5
1C56
330
18
100
AcDbEntity
  8
0
  6
ByBlock
 62
     2
100
AcDbBlockReference
  2
_OPEN
 10
398.043511205536
 20
323.5500048482586
 30
0.0
 41
2.5
 42
2.5
 43
2.5
  0
MTEXT
  5
1C57
330
18
100
AcDbEntity
  8
0
  6
ByBlock
 62
     6
100
AcDbMText
 10
390.118511205536
 20
325.4250048482587
 30
0.0
 40
2.5
 41
0.0
 71
     5
 72
     1
  1
\A1;15.85
  7
STYLE3
 73
     1
 44
1.0
  0
POINT
  5
1C58
330
18
100
AcDbEntity
  8
DEFPOINTS
  6
ByBlock
 62
     0
100
AcDbPoint
 10
382.193511205536
 20
297.8969163099954
 30
0.0
  0
POINT
  5
1C59
330
18
100
AcDbEntity
  8
DEFPOINTS
  6
ByBlock
 62
     0
100
AcDbPoint
 10
398.043511205536
 20
296.2469163099955
 30
0.0
  0
POINT
  5
1C5A
330
18
100
AcDbEntity
  8
DEFPOINTS
  6
ByBlock
 62
     0
100
AcDbPoint
 10
398.043511205536
 20
323.5500048482586
 30
0.0
  0
LINE
  5
1C5B
330
18
100
AcDbEntity
  8
寸法線
 62
     2
100
AcDbLine
 10
384.963035505958
 20
297.1503118068497
 30
0.0
 11
379.7051399058277
 21
313.1267270343887
 31
0.0
1001
ACAD
1000
DSTYLE
1002
{
1070
   271
1070
     2
1002
}
  0
LINE
  5
1C5C
330
18
100
AcDbEntity
  8
寸法線
 62
     2
100
AcDbLine
 10
379.7051399058277
 20
313.1267270343887
 30
0.0
 11
374.913473239161
 21
313.1267270343887
 31
0.0
1001
ACAD
1000
DSTYLE
1002
{
1070
   271
1070
     2
1002
}
  0
LINE
  5
1C5D
330
18
100
AcDbEntity
  8
0
  6
ByBlock
 62
     2
100
AcDbLine
 10
376.7572531741288
 20
298.5969163099954
 30
0.0
 11
364.2474158571815
 21
298.5969163099954
 31
0.0
  0
LINE
  5
1C5E
330
18
100
AcDbEntity
  8
0
  6
ByBlock
 62
     2
100
AcDbLine
 10
376.7572531741288
 20
263.5969163099954
 30
0.0
 11
364.2474158571815
 21
263.5969163099954
 31
0.0
  0
LINE
  5
1C5F
330
18
100
AcDbEntity
  8
0
  6
ByBlock
 62
     2
100
AcDbLine
 10
365.4974158571815
 20
296.0969163099954
 30
0.0
 11
365.4974158571815
 21
266.0969163099954
 31
0.0
  0
INSERT
  5
1C60
330
18
100
AcDbEntity
  8
0
  6
ByBlock
 62
     2
100
AcDbBlockReference
  2
_OPEN
 10
365.4974158571815
 20
298.5969163099954
 30
0.0
 41
2.5
 42
2.5
 43
2.5
 50
90.0
  0
INSERT
  5
1C61
330
18
100
AcDbEntity
  8
0
  6
ByBlock
 62
     2
100
AcDbBlockReference
  2
_OPEN
 10
365.4974158571815
 20
263.5969163099954
 30
0.0
 41
2.5
 42
2.5
 43
2.5
 50
270.0
  0
MTEXT
  5
1C62
330
18
100
AcDbEntity
  8
0
  6
ByBlock
 62
     6
100
AcDbMText
 10
363.6224158571815
 20
281.0969163099954
 30
0.0
 40
2.5
 41
0.0
 71
     5
 72
     1
  1
\A1;φ35
  7
STYLE3
 11
0.0000000000000001
 21
1.0
 31
0.0
 73
     1
 44
1.0
  0
POINT
  5
1C63
330
18
100
AcDbEntity
  8
DEFPOINTS
  6
ByBlock
 62
     0
100
AcDbPoint
 10
376.7572531741288
 20
298.5969163099954
 30
0.0
  0
POINT
  5
1C64
330
18
100
AcDbEntity
  8
DEFPOINTS
  6
ByBlock
 62
     0
100
AcDbPoint
 10
376.7572531741288
 20
263.5969163099954
 30
0.0
  0
POINT
  5
1C65
330
18
100
AcDbEntity
  8
DEFPOINTS
  6
ByBlock
 62
     0
100
AcDbPoint
 10
365.4974158571815
 20
263.5969163099954
 30
0.0
  0
LINE
  5
1C66
330
18
100
AcDbEntity
  8
0
  6
ByBlock
 62
     2
100
AcDbLine
 10
316.662090675737
 20
242.8969163099954
 30
0.0
 11
333.2940970699295
 21
242.8969163099954
 31
0.0
  0
LINE
  5
1C67
330
18
100
AcDbEntity
  8
0
  6
ByBlock
 62
     2
100
AcDbLine
 10
311.5343625291942
 20
231.1969163099954
 30
0.0
 11
333.2940970699295
 21
231.1969163099954
 31
0.0
  0
LINE
  5
1C68
330
18
100
AcDbEntity
  8
0
  6
ByBlock
 62
     2
100
AcDbLine
 10
332.0440970699295
 20
240.3969163099954
 30
0.0
 11
332.0440970699295
 21
233.6969163099954
 31
0.0
  0
INSERT
  5
1C69
330
18
100
AcDbEntity
  8
0
  6
ByBlock
 62
     2
100
AcDbBlockReference
  2
_OPEN
 10
332.0440970699295
 20
242.8969163099954
 30
0.0
 41
2.5
 42
2.5
 43
2.5
 50
90.0
  0
INSERT
  5
1C6A
330
18
100
AcDbEntity
  8
0
  6
ByBlock
 62
     2
100
AcDbBlockReference
  2
_OPEN
 10
332.0440970699295
 20
231.1969163099954
 30
0.0
 41
2.5
 42
2.5
 43
2.5
 50
270.0
  0
MTEXT
  5
1C6B
330
18
100
AcDbEntity
  8
0
  6
ByBlock
 62
     6
100
AcDbMText
 10
330.1690970699295
 20
237.0469163099954
 30
0.0
 40
2.5
 41
0.0
 71
     5
 72
     1
  1
\A1;11.7
  7
STYLE3
 11
0.0000000000000001
 21
1.0
 31
0.0
 73
     1
 44
1.0
  0
POINT
  5
1C6C
330
18
100
AcDbEntity
  8
DEFPOINTS
  6
ByBlock
 62
     0
100
AcDbPoint
 10
316.662090675737
 20
242.8969163099954
 30
0.0
  0
POINT
  5
1C6D
330
18
100
AcDbEntity
  8
DEFPOINTS
  6
ByBlock
 62
     0
100
AcDbPoint
 10
311.5343625291942
 20
231.1969163099954
 30
0.0
  0
POINT
  5
1C6E
330
18
100
AcDbEntity
  8
DEFPOINTS
  6
ByBlock
 62
     0
100
AcDbPoint
 10
332.0440970699295
 20
231.1969163099954
 30
0.0
  0
LINE
  5
1C6F
330
18
100
AcDbEntity
  8
0
  6
ByBlock
 62
     2
100
AcDbLine
 10
303.5736145639469
 20
240.8969163099953
 30
0.0
 11
303.5736145639469
 21
233.3404365931378
 31
0.0
  0
LINE
  5
1C70
330
18
100
AcDbEntity
  8
0
  6
ByBlock
 62
     2
100
AcDbLine
 10
313.5736145639469
 20
240.8969163099953
 30
0.0
 11
313.5736145639469
 21
233.3404365931378
 31
0.0
  0
LINE
  5
1C71
330
18
100
AcDbEntity
  8
0
  6
ByBlock
 62
     2
100
AcDbLine
 10
306.0736145639469
 20
234.5904365931378
 30
0.0
 11
311.0736145639469
 21
234.5904365931378
 31
0.0
  0
LINE
  5
1C72
330
18
100
AcDbEntity
  8
0
  6
ByBlock
 62
     2
100
AcDbLine
 10
313.5736145639469
 20
234.5904365931378
 30
0.0
 11
324.4664717068041
 21
234.5904365931378
 31
0.0
  0
INSERT
  5
1C73
330
18
100
AcDbEntity
  8
0
  6
ByBlock
 62
     2
100
AcDbBlockReference
  2
_OPEN
 10
303.5736145639469
 20
234.5904365931378
 30
0.0
 41
2.5
 42
2.5
 43
2.5
 50
180.0
  0
INSERT
  5
1C74
330
18
100
AcDbEntity
  8
0
  6
ByBlock
 62
     2
100
AcDbBlockReference
  2
_OPEN
 10
313.5736145639469
 20
234.5904365931378
 30
0.0
 41
2.5
 42
2.5
 43
2.5
  0
MTEXT
  5
1C75
330
18
100
AcDbEntity
  8
0
  6
ByBlock
 62
     6
100
AcDbMText
 10
320.2700431353755
 20
237.1201984978997
 30
0.0
 40
2.5
 41
0.0
 71
     5
 72
     1
  1
\A1;(10)
  7
STYLE3
 73
     1
 44
1.0
  0
POINT
  5
1C76
330
18
100
AcDbEntity
  8
DEFPOINTS
  6
ByBlock
 62
     0
100
AcDbPoint
 10
303.5736145639469
 20
240.8969163099953
 30
0.0
  0
POINT
  5
1C77
330
18
100
AcDbEntity
  8
DEFPOINTS
  6
ByBlock
 62
     0
100
AcDbPoint
 10
313.5736145639469
 20
240.8969163099953
 30
0.0
  0
POINT
  5
1C78
330
18
100
AcDbEntity
  8
DEFPOINTS
  6
ByBlock
 62
     0
100
AcDbPoint
 10
313.5736145639469
 20
234.5904365931378
 30
0.0
  0
LINE
  5
1C79
330
18
100
AcDbEntity
  8
0
  6
ByBlock
 62
     2
100
AcDbLine
 10
451.1566672496639
 20
278.1309966211687
 30
0.0
 11
451.1566672496639
 21
289.1567608499136
 31
0.0
  0
LINE
  5
1C7A
330
18
100
AcDbEntity
  8
0
  6
ByBlock
 62
     2
100
AcDbLine
 10
463.6107981944577
 20
278.1309966211688
 30
0.0
 11
463.6107981944577
 21
289.1567608499136
 31
0.0
  0
LINE
  5
1C7B
330
18
100
AcDbEntity
  8
0
  6
ByBlock
 62
     2
100
AcDbLine
 10
453.6566672496639
 20
287.9067608499136
 30
0.0
 11
461.1107981944577
 21
287.9067608499136
 31
0.0
  0
INSERT
  5
1C7C
330
18
100
AcDbEntity
  8
0
  6
ByBlock
 62
     2
100
AcDbBlockReference
  2
_OPEN
 10
451.1566672496639
 20
287.9067608499136
 30
0.0
 41
2.5
 42
2.5
 43
2.5
 50
180.0
  0
INSERT
  5
1C7D
330
18
100
AcDbEntity
  8
0
  6
ByBlock
 62
     2
100
AcDbBlockReference
  2
_OPEN
 10
463.6107981944577
 20
287.9067608499136
 30
0.0
 41
2.5
 42
2.5
 43
2.5
  0
MTEXT
  5
1C7E
330
18
100
AcDbEntity
  8
0
  6
ByBlock
 62
     6
100
AcDbMText
 10
457.3837327220608
 20
290.4365227546755
 30
0.0
 40
2.5
 41
0.0
 71
     5
 72
     1
  1
\A1;(6.35)
  7
STYLE3
 73
     1
 44
1.0
  0
POINT
  5
1C7F
330
18
100
AcDbEntity
  8
DEFPOINTS
  6
ByBlock
 62
     0
100
AcDbPoint
 10
451.1566672496639
 20
278.1309966211687
 30
0.0
  0
POINT
  5
1C80
330
18
100
AcDbEntity
  8
DEFPOINTS
  6
ByBlock
 62
     0
100
AcDbPoint
 10
463.6107981944577
 20
278.1309966211688
 30
0.0
  0
POINT
  5
1C81
330
18
100
AcDbEntity
  8
DEFPOINTS
  6
ByBlock
 62
     0
100
AcDbPoint
 10
463.6107981944577
 20
287.9067608499136
 30
0.0
  0
LINE
  5
1C82
330
18
100
AcDbEntity
  8
0
  6
ByBlock
 62
     2
100
AcDbLine
 10
448.9666672496638
 20
276.3309966211687
 30
0.0
 11
448.9666672496638
 21
295.756742252316
 31
0.0
  0
LINE
  5
1C83
330
18
100
AcDbEntity
  8
0
  6
ByBlock
 62
     2
100
AcDbLine
 10
466.046667249664
 20
276.3309966211687
 30
0.0
 11
466.046667249664
 21
295.756742252316
 31
0.0
  0
LINE
  5
1C84
330
18
100
AcDbEntity
  8
0
  6
ByBlock
 62
     2
100
AcDbLine
 10
451.4666672496638
 20
294.506742252316
 30
0.0
 11
463.5466672496639
 21
294.506742252316
 31
0.0
  0
INSERT
  5
1C85
330
18
100
AcDbEntity
  8
0
  6
ByBlock
 62
     2
100
AcDbBlockReference
  2
_OPEN
 10
448.9666672496638
 20
294.506742252316
 30
0.0
 41
2.5
 42
2.5
 43
2.5
 50
180.0
  0
INSERT
  5
1C86
330
18
100
AcDbEntity
  8
0
  6
ByBlock
 62
     2
100
AcDbBlockReference
  2
_OPEN
 10
466.046667249664
 20
294.506742252316
 30
0.0
 41
2.5
 42
2.5
 43
2.5
  0
MTEXT
  5
1C87
330
18
100
AcDbEntity
  8
0
  6
ByBlock
 62
     6
100
AcDbMText
 10
457.5066672496639
 20
296.381742252316
 30
0.0
 40
2.5
 41
0.0
 71
     5
 72
     1
  1
\A1;8.54
  7
STYLE3
 73
     1
 44
1.0
  0
POINT
  5
1C88
330
18
100
AcDbEntity
  8
DEFPOINTS
  6
ByBlock
 62
     0
100
AcDbPoint
 10
448.9666672496638
 20
276.3309966211687
 30
0.0
  0
POINT
  5
1C89
330
18
100
AcDbEntity
  8
DEFPOINTS
  6
ByBlock
 62
     0
100
AcDbPoint
 10
466.046667249664
 20
276.3309966211687
 30
0.0
  0
POINT
  5
1C8A
330
18
100
AcDbEntity
  8
DEFPOINTS
  6
ByBlock
 62
     0
100
AcDbPoint
 10
466.046667249664
 20
294.506742252316
 30
0.0
  0
LINE
  5
1C8B
330
18
100
AcDbEntity
  8
0
  6
ByBlock
 62
     2
100
AcDbLine
 10
304.573614563947
 20
238.8969163099953
 30
0.0
 11
295.2757694903871
 21
238.8969163099953
 31
0.0
  0
LINE
  5
1C8C
330
18
100
AcDbEntity
  8
0
  6
ByBlock
 62
     2
100
AcDbLine
 10
306.1902123189622
 20
231.1969163099954
 30
0.0
 11
295.2757694903871
 21
231.1969163099954
 31
0.0
  0
LINE
  5
1C8D
330
18
100
AcDbEntity
  8
0
  6
ByBlock
 62
     2
100
AcDbLine
 10
296.5257694903871
 20
236.3969163099953
 30
0.0
 11
296.5257694903871
 21
233.6969163099954
 31
0.0
  0
INSERT
  5
1C8E
330
18
100
AcDbEntity
  8
0
  6
ByBlock
 62
     2
100
AcDbBlockReference
  2
_OPEN
 10
296.5257694903871
 20
238.8969163099953
 30
0.0
 41
2.5
 42
2.5
 43
2.5
 50
90.0
  0
INSERT
  5
1C8F
330
18
100
AcDbEntity
  8
0
  6
ByBlock
 62
     2
100
AcDbBlockReference
  2
_OPEN
 10
296.5257694903871
 20
231.1969163099954
 30
0.0
 41
2.5
 42
2.5
 43
2.5
 50
270.0
  0
MTEXT
  5
1C90
330
18
100
AcDbEntity
  8
0
  6
ByBlock
 62
     6
100
AcDbMText
 10
294.6507694903871
 20
235.0469163099954
 30
0.0
 40
2.5
 41
0.0
 71
     5
 72
     1
  1
\A1;7.7
  7
STYLE3
 11
0.0000000000000001
 21
1.0
 31
0.0
 73
     1
 44
1.0
  0
POINT
  5
1C91
330
18
100
AcDbEntity
  8
DEFPOINTS
  6
ByBlock
 62
     0
100
AcDbPoint
 10
304.573614563947
 20
238.8969163099953
 30
0.0
  0
POINT
  5
1C92
330
18
100
AcDbEntity
  8
DEFPOINTS
  6
ByBlock
 62
     0
100
AcDbPoint
 10
306.1902123189622
 20
231.1969163099954
 30
0.0
  0
POINT
  5
1C93
330
18
100
AcDbEntity
  8
DEFPOINTS
  6
ByBlock
 62
     0
100
AcDbPoint
 10
296.5257694903871
 20
231.1969163099954
 30
0.0
  0
HATCH
  5
1C94
330
18
100
AcDbEntity
  8
ROGO
 62
     4
100
AcDbHatch
 10
0.0
 20
0.0
 30
0.0
210
0.0
220
0.0
230
0.9999999999999998
  2
SOLID
 70
     1
 71
     1
 91
        1
 92
        7
 72
     0
 73
     1
 93
       11
 10
314.4834636379944
 20
277.5957406660549
 10
313.9363009832752
 20
277.5957406660549
 10
313.6801032030478
 20
277.4336158667115
 10
313.7609438641439
 20
277.5957406660549
 10
313.213769237684
 20
277.5957406660549
 10
312.4733321631231
 20
276.1108046139272
 10
313.0205067895831
 20
276.1108046139272
 10
313.213769237684
 20
276.4983897127388
 10
313.4070316857848
 20
276.1108046139272
 10
313.9541943405041
 20
276.1108046139272
 10
313.5839758032237
 20
276.853272639991
 97
       11
330
1CE2
330
1CE5
330
1CE4
330
1CE3
330
1C99
330
1C96
330
1CDF
330
1CDE
330
1CE0
330
1CDD
330
1CE1
 75
     0
 76
     1
 47
0.0514683685270805
 98
        1
 10
313.1666774501706
 20
276.9586741629207
450
        0
451
        0
460
0.0
461
0.0
452
        0
462
0.0
453
        0
470

  0
HATCH
  5
1C95
330
18
100
AcDbEntity
  8
ROGO
 62
     4
100
AcDbHatch
 10
0.0
 20
0.0
 30
0.0
210
0.0
220
0.0
230
0.9999999999999998
  2
SOLID
 70
     1
 71
     1
 91
        1
 92
        5
 93
        8
 72
     1
 10
313.0147332603392
 20
277.5957406660549
 11
312.063046986951
 21
277.5957406660549
 72
     4
 94
        3
 73
     0
 74
     0
 95
       26
 96
       22
 40
0.0
 40
0.0
 40
0.0
 40
0.0
 40
0.7089867102952115
 40
1.183598414482279
 40
1.525832104103439
 40
1.781366926528389
 40
2.112809002752968
 40
2.354729406992515
 40
2.791581270399936
 40
3.147172406765291
 40
3.389031356825354
 40
3.626186440486682
 40
4.050410779375985
 40
4.350388020238963
 40
4.511948940797758
 40
4.741441456013356
 40
4.907163150576407
 40
5.147239172635527
 40
5.28310143501293
 40
5.578752957634333
 40
5.713750011164293
 40
5.713750011164293
 40
5.713750011164293
 40
5.713750011164293
 10
312.0630469869509
 20
277.5957406660549
 10
312.0045322805123
 20
277.5922495783266
 10
311.9068465090318
 20
277.5864214776865
 10
311.7995881261963
 20
277.5212631619837
 10
311.7210043556813
 20
277.4833829806095
 10
311.6649585058527
 20
277.4318881012104
 10
311.6238766707352
 20
277.3786976524208
 10
311.57208530527
 20
277.3153216226905
 10
311.5298509266727
 20
277.2415228006501
 10
311.5083435252465
 20
277.1601836331805
 10
311.4892924731902
 20
277.0953558447624
 10
311.4751638940531
 20
277.0231137347693
 10
311.4787586045606
 20
276.9450668425316
 10
311.4839063945238
 20
276.8725808846066
 10
311.5068900249328
 20
276.8208367632845
 10
311.5330643088663
 20
276.7839985145483
 10
311.5651143610878
 20
276.7434252676296
 10
311.6001841269891
 20
276.7165537375767
 10
311.6291896859828
 20
276.6678741551625
 10
311.6799629385176
 20
276.6616622893669
 10
311.7122364377658
 20
276.64929882244
 10
311.7223533348064
 20
276.6454231992544
 72
     1
 10
311.7223533348063
 20
276.6454231992544
 11
312.5408742789955
 21
276.6454231992544
 72
     1
 10
312.5408742789955
 20
276.6454231992544
 11
312.7171786757748
 21
276.9989991666403
 72
     1
 10
312.7171786757748
 20
276.9989991666402
 11
312.1095050503381
 21
276.9989991666402
 72
     4
 94
        3
 73
     0
 74
     0
 95
       16
 96
       12
 40
0.0
 40
0.0
 40
0.0
 40
0.0
 40
0.2141121027475241
 40
0.4304326162973471
 40
0.5594580803306056
 40
0.6831669452691567
 40
0.8190286678446897
 40
0.9139043619204622
 40
1.003933161420314
 40
1.186498641432482
 40
1.560280494298353
 40
1.560280494298353
 40
1.560280494298353
 40
1.560280494298353
 10
312.1095050503381
 20
276.9989991666402
 10
312.0911754723196
 20
277.0043919972532
 10
312.0543272600004
 20
277.0152332816092
 10
312.0512433621854
 20
277.067787845401
 10
312.0554447267958
 20
277.1052372726279
 10
312.0730400511683
 20
277.1325026425549
 10
312.0943862315004
 20
277.1523417865836
 10
312.1023343611676
 20
277.1781791697098
 10
312.1256971641735
 20
277.1976896265085
 10
312.1671256738384
 20
277.2304839789572
 10
312.2129384338276
 20
277.2374684432866
 10
312.2437177281671
 20
277.2421609543565
 72
     1
 10
312.243717728167
 20
277.2421609543566
 11
312.8384269965248
 21
277.2421609543566
 72
     1
 10
312.8384269965248
 20
277.2421609543566
 11
313.0147332603392
 21
277.5957406660549
 97
        8
330
1C97
330
1CBB
330
1CC7
330
1CC0
330
1CDB
330
1CDA
330
1CDC
330
1C98
 75
     0
 76
     1
 47
0.0514683685270805
 98
        1
 10
312.2272661770288
 20
277.4217343055732
450
        0
451
        0
460
0.0
461
0.0
452
        0
462
0.0
453
        0
470

  0
LINE
  5
1C96
102
{ACAD_REACTORS
330
1C9A
330
1C94
330
1C9F
102
}
330
18
100
AcDbEntity
  8
ROGO
 62
     4
100
AcDbLine
 10
302.968967580779
 20
276.1108046139272
 30
0.0
 11
313.0205067895831
 21
276.1108046139272
 31
0.0
  0
LINE
  5
1C97
102
{ACAD_REACTORS
330
1C95
102
}
330
18
100
AcDbEntity
  8
ROGO
 62
     4
100
AcDbLine
 10
312.0630469869512
 20
277.595740666055
 30
0.0
 11
313.0147332603392
 21
277.595740666055
 31
0.0
  0
LINE
  5
1C98
102
{ACAD_REACTORS
330
1C95
102
}
330
18
100
AcDbEntity
  8
ROGO
 62
     4
100
AcDbLine
 10
313.0147332603392
 20
277.595740666055
 30
0.0
 11
312.8384269965248
 21
277.2421609543566
 31
0.0
  0
LINE
  5
1C99
102
{ACAD_REACTORS
330
1C9A
330
1C94
102
}
330
18
100
AcDbEntity
  8
ROGO
 62
     4
100
AcDbLine
 10
313.213769237684
 20
277.595740666055
 30
0.0
 11
312.4733321631231
 21
276.1108046139272
 31
0.0
  0
HATCH
  5
1C9A
330
18
100
AcDbEntity
  8
ROGO
 62
     4
100
AcDbHatch
 10
0.0
 20
0.0
 30
0.0
210
0.0
220
0.0
230
0.9999999999999998
  2
SOLID
 70
     1
 71
     1
 91
        1
 92
        7
 72
     0
 73
     1
 93
        4
 10
312.5475499224716
 20
276.259647277742
 10
303.7265699667703
 20
276.259647277742
 10
303.6592293235499
 20
276.1108046139272
 10
312.4733321631231
 20
276.1108046139272
 97
        4
330
1C9E
330
1CA8
330
1C96
330
1C99
 75
     0
 76
     1
 47
0.0514683685270805
 98
        1
 10
309.2963030760646
 20
276.2202807852375
450
        0
451
        0
460
0.0
461
0.0
452
        0
462
0.0
453
        0
470

  0
HATCH
  5
1C9B
330
18
100
AcDbEntity
  8
ROGO
 62
     4
100
AcDbHatch
 10
0.0
 20
0.0
 30
0.0
210
0.0
220
0.0
230
0.9999999999999998
  2
SOLID
 70
     1
 71
     1
 91
        2
 92
        7
 72
     0
 73
     1
 93
        8
 10
307.7669959343283
 20
277.5957406660549
 10
307.2177496069891
 20
277.5957406660549
 10
306.5324572124747
 20
276.6454231992544
 10
307.0587629917398
 20
276.6454231992544
 10
307.1892384236158
 20
276.8263577651311
 10
307.7955071177016
 20
276.8263577651311
 10
307.9259825495776
 20
276.6454231992544
 10
308.4522883288427
 20
276.6454231992544
 97
        8
330
1C9D
330
1CA5
330
1CAA
330
1CA6
330
1C9C
330
1CBE
330
1CC4
330
1CBD
 92
       22
 72
     0
 73
     1
 93
        3
 10
307.6578907452368
 20
277.0171949078134
 10
307.3268547960806
 20
277.0171949078134
 10
307.4923727706587
 20
277.2467241183666
 97
        3
330
1CC9
330
1CC8
330
1CCA
 75
     0
 76
     1
 47
0.0514683685270805
 98
        2
 10
307.8308215255825
 20
277.1088557899071
 10
307.8308215255825
 20
277.1088557899071
450
        0
451
        0
460
0.0
461
0.0
452
        0
462
0.0
453
        0
470

  0
LINE
  5
1C9C
102
{ACAD_REACTORS
330
1C9B
102
}
330
18
100
AcDbEntity
  8
ROGO
 62
     4
100
AcDbLine
 10
307.1892384236158
 20
276.8263577651312
 30
0.0
 11
307.7955071177016
 21
276.8263577651312
 31
0.0
  0
LINE
  5
1C9D
102
{ACAD_REACTORS
330
1C9B
102
}
330
18
100
AcDbEntity
  8
ROGO
 62
     4
100
AcDbLine
 10
307.2177496069891
 20
277.595740666055
 30
0.0
 11
307.7669959343283
 21
277.595740666055
 31
0.0
  0
LINE
  5
1C9E
102
{ACAD_REACTORS
330
1C9A
102
}
330
18
100
AcDbEntity
  8
ROGO
 62
     4
100
AcDbLine
 10
303.7162475701892
 20
276.2596472777421
 30
0.0
 11
312.5475499224717
 21
276.2596472777421
 31
0.0
  0
HATCH
  5
1C9F
330
18
100
AcDbEntity
  8
ROGO
 62
     4
100
AcDbHatch
 10
0.0
 20
0.0
 30
0.0
210
0.0
220
0.0
230
0.9999999999999998
  2
SOLID
 70
     1
 71
     1
 91
        2
 92
        5
 93
        6
 72
     4
 94
        3
 73
     0
 74
     0
 95
       18
 96
       14
 40
0.108740278791501
 40
0.108740278791501
 40
0.108740278791501
 40
0.108740278791501
 40
0.6623149649549278
 40
1.384304701649787
 40
2.097394834876493
 40
2.774073369849618
 40
3.428974823686337
 40
4.005208313035923
 40
4.455173659284313
 40
4.720999734343524
 40
5.086034088486724
 40
5.569973738255373
 40
6.060470601257719
 40
6.060470601257719
 40
6.060470601257719
 40
6.060470601257719
 10
304.5463590927309
 20
276.6454231992544
 10
304.5917709438355
 20
276.6457613675594
 10
304.6964103774893
 20
276.6465405857381
 10
304.8428001263739
 20
276.7247452062974
 10
304.9816194346387
 20
276.8243721949771
 10
305.0934289437623
 20
276.9488457232262
 10
305.163089636626
 20
277.0911598774893
 10
305.173879857765
 20
277.22755492242
 10
305.1672926928569
 20
277.3354417072827
 10
305.1202240910088
 20
277.4106414747269
 10
305.0712905356715
 20
277.4869615484998
 10
304.9815629418439
 20
277.5530728311216
 10
304.9080441709815
 20
277.5820394004286
 10
304.870658380731
 20
277.595740666055
 72
     1
 10
304.8706583807311
 20
277.5957406660549
 11
303.7037001293173
 21
277.5957406660549
 72
     1
 10
303.7037001293173
 20
277.5957406660549
 11
302.968967580779
 21
276.1108046139272
 72
     1
 10
302.968967580779
 20
276.1108046139272
 11
303.65922932355
 21
276.1108046139272
 72
     1
 10
303.65922932355
 20
276.1108046139272
 11
303.9011059366851
 21
276.6454231992544
 72
     1
 10
303.9011059366851
 20
276.6454231992544
 11
304.5463590927308
 21
276.6454231992544
 97
        6
330
1CA1
330
1CAB
330
1CA2
330
1C96
330
1CA8
330
1CA7
 92
       20
 93
        4
 72
     1
 10
304.0504510523735
 20
276.9755199103005
 11
304.164793393497
 21
277.2282501757946
 72
     1
 10
304.164793393497
 20
277.2282501757946
 11
304.4586044782893
 21
277.2282501757946
 72
     4
 94
        3
 73
     0
 74
     0
 95
       15
 96
       11
 40
0.0
 40
0.0
 40
0.0
 40
0.0
 40
0.458245544397197
 40
0.6671803073175111
 40
0.9043351724393449
 40
1.065896092998139
 40
1.321406364485703
 40
1.474450037341961
 40
1.737022829061231
 40
1.824547148828933
 40
1.824547148828933
 40
1.824547148828933
 40
1.824547148828933
 10
304.458604478289
 20
277.2282501757946
 10
304.5004546013058
 20
277.228441871697
 10
304.5613860784953
 20
277.2287209703868
 10
304.5947055803567
 20
277.153348556896
 10
304.5797701909431
 20
277.1048204805609
 10
304.5609951891963
 20
277.0549972712731
 10
304.5278155088527
 20
277.0211416491211
 10
304.4832835179065
 20
276.9885329777191
 10
304.4411986583709
 20
276.9845855520312
 10
304.413827181428
 20
276.9773330393409
 10
304.4069843089167
 20
276.9755199103004
 72
     1
 10
304.4069843089167
 20
276.9755199103005
 11
304.0504510523735
 21
276.9755199103005
 97
        4
330
1CAE
330
1CAC
330
1CB0
330
1CAD
 75
     0
 76
     1
 47
0.0514683685270805
 98
        2
 10
303.7099373401198
 20
277.1338861451456
 10
303.7099373401198
 20
277.1338861451456
450
        0
451
        0
460
0.0
461
0.0
452
        0
462
0.0
453
        0
470

  0
HATCH
  5
1CA0
330
18
100
AcDbEntity
  8
ROGO
 62
     4
100
AcDbHatch
 10
0.0
 20
0.0
 30
0.0
210
0.0
220
0.0
230
0.9999999999999998
  2
SOLID
 70
     1
 71
     1
 91
        1
 92
        1
 93
       12
 72
     1
 10
305.5600683605206
 20
277.5957406660549
 11
306.8454122698009
 21
277.5957406660549
 72
     1
 10
306.8454122698008
 20
277.5957406660549
 11
306.7377015879314
 21
277.3780512836729
 72
     1
 10
306.7377015879314
 20
277.3780512836729
 11
306.0621573091335
 21
277.3780512836729
 72
     1
 10
306.0621573091335
 20
277.3780512836729
 11
305.9779409406567
 21
277.2078452379773
 72
     1
 10
305.9779409406567
 20
277.2078452379773
 11
306.6534852194545
 21
277.2078452379773
 72
     1
 10
306.6534852194545
 20
277.2078452379773
 11
306.5671292229712
 21
277.0333148830194
 72
     1
 10
306.5671292229712
 20
277.0333148830194
 11
305.8915849441733
 21
277.0333148830194
 72
     1
 10
305.8915849441733
 20
277.0333148830194
 11
305.8073650103802
 21
276.8631016316181
 72
     1
 10
305.8073650103803
 20
276.8631016316181
 11
306.4829092891781
 21
276.8631016316181
 72
     1
 10
306.4829092891781
 20
276.8631016316181
 11
306.3752040252759
 21
276.6454231992544
 72
     1
 10
306.3752040252759
 20
276.6454231992544
 11
305.0898601159957
 21
276.6454231992544
 72
     1
 10
305.0898601159957
 20
276.6454231992544
 11
305.5600683605206
 21
277.5957406660549
 97
       12
330
1CAF
330
1CB1
330
1CB3
330
1CB2
330
1CB4
330
1CB7
330
1CB6
330
1CB8
330
1CB5
330
1CA4
330
1CA9
330
1CA3
 75
     0
 76
     1
 98
        1
 10
252.9834753834875
 20
211.8855402008892
450
        0
451
        0
460
0.0
461
0.0
452
        0
462
0.0
453
        0
470

  0
SPLINE
  5
1CA1
102
{ACAD_REACTORS
330
1C9F
102
}
330
18
100
AcDbEntity
  8
ROGO
 62
     4
100
AcDbSpline
210
0.0
220
0.0
230
1.0
 70
     8
 71
     3
 72
    18
 73
    14
 74
     0
 42
0.0000000001
 43
0.0000000001
 40
0.1087402787915014
 40
0.1087402787915014
 40
0.1087402787915014
 40
0.1087402787915014
 40
0.5992371417938475
 40
1.083176791562496
 40
1.448211145705696
 40
1.714037220764907
 40
2.164002567013297
 40
2.740236056362883
 40
3.395137510199602
 40
4.071816045172726
 40
4.784906178399433
 40
5.506895915094292
 40
6.060470601257719
 40
6.060470601257719
 40
6.060470601257719
 40
6.060470601257719
 10
304.870658380731
 20
277.595740666055
 30
0.0
 10
304.9080441709815
 20
277.5820394004286
 30
0.0
 10
304.9815629418439
 20
277.5530728311216
 30
0.0
 10
305.0712905356715
 20
277.4869615485
 30
0.0
 10
305.1202240910088
 20
277.410641474727
 30
0.0
 10
305.1672926928569
 20
277.3354417072827
 30
0.0
 10
305.173879857765
 20
277.2275549224201
 30
0.0
 10
305.163089636626
 20
277.0911598774893
 30
0.0
 10
305.0934289437623
 20
276.9488457232262
 30
0.0
 10
304.9816194346387
 20
276.8243721949772
 30
0.0
 10
304.8428001263739
 20
276.7247452062974
 30
0.0
 10
304.6964103774893
 20
276.6465405857382
 30
0.0
 10
304.5917709438355
 20
276.6457613675594
 30
0.0
 10
304.5463590927309
 20
276.6454231992545
 30
0.0
  0
LINE
  5
1CA2
102
{ACAD_REACTORS
330
1C9F
102
}
330
18
100
AcDbEntity
  8
ROGO
 62
     4
100
AcDbLine
 10
303.7037001293173
 20
277.595740666055
 30
0.0
 11
302.968967580779
 21
276.1108046139272
 31
0.0
  0
LINE
  5
1CA3
102
{ACAD_REACTORS
330
1CA0
102
}
330
18
100
AcDbEntity
  8
ROGO
 62
     4
100
AcDbLine
 10
305.5600683605206
 20
277.595740666055
 30
0.0
 11
305.0898601159957
 21
276.6454231992545
 31
0.0
  0
LINE
  5
1CA4
102
{ACAD_REACTORS
330
1CA0
102
}
330
18
100
AcDbEntity
  8
ROGO
 62
     4
100
AcDbLine
 10
306.4829092891781
 20
276.8631016316181
 30
0.0
 11
306.3752040252759
 21
276.6454231992545
 31
0.0
  0
LINE
  5
1CA5
102
{ACAD_REACTORS
330
1C9B
102
}
330
18
100
AcDbEntity
  8
ROGO
 62
     4
100
AcDbLine
 10
307.2177496069891
 20
277.595740666055
 30
0.0
 11
306.5324572124747
 21
276.6454231992545
 31
0.0
  0
LINE
  5
1CA6
102
{ACAD_REACTORS
330
1C9B
102
}
330
18
100
AcDbEntity
  8
ROGO
 62
     4
100
AcDbLine
 10
307.1892384236158
 20
276.8263577651312
 30
0.0
 11
307.0587629917398
 21
276.6454231992545
 31
0.0
  0
LINE
  5
1CA7
102
{ACAD_REACTORS
330
1C9F
102
}
330
18
100
AcDbEntity
  8
ROGO
 62
     4
100
AcDbLine
 10
304.5463590929545
 20
276.6454231992545
 30
0.0
 11
303.901105936685
 21
276.6454231992545
 31
0.0
  0
LINE
  5
1CA8
102
{ACAD_REACTORS
330
1C9A
330
1C9F
102
}
330
18
100
AcDbEntity
  8
ROGO
 62
     4
100
AcDbLine
 10
303.9011059366851
 20
276.6454231992545
 30
0.0
 11
303.65922932355
 21
276.1108046139272
 31
0.0
  0
LINE
  5
1CA9
102
{ACAD_REACTORS
330
1CA0
102
}
330
18
100
AcDbEntity
  8
ROGO
 62
     4
100
AcDbLine
 10
305.0898601159957
 20
276.6454231992545
 30
0.0
 11
306.3752040252759
 21
276.6454231992545
 31
0.0
  0
LINE
  5
1CAA
102
{ACAD_REACTORS
330
1C9B
102
}
330
18
100
AcDbEntity
  8
ROGO
 62
     4
100
AcDbLine
 10
306.5324572124747
 20
276.6454231992545
 30
0.0
 11
307.0587629917398
 21
276.6454231992545
 31
0.0
  0
LINE
  5
1CAB
102
{ACAD_REACTORS
330
1C9F
102
}
330
18
100
AcDbEntity
  8
ROGO
 62
     4
100
AcDbLine
 10
303.7037001293173
 20
277.595740666055
 30
0.0
 11
304.870658380731
 21
277.595740666055
 31
0.0
  0
LINE
  5
1CAC
102
{ACAD_REACTORS
330
1C9F
102
}
330
18
100
AcDbEntity
  8
ROGO
 62
     4
100
AcDbLine
 10
304.458604478289
 20
277.2282501757946
 30
0.0
 11
304.164793393497
 21
277.2282501757946
 31
0.0
  0
LINE
  5
1CAD
102
{ACAD_REACTORS
330
1C9F
102
}
330
18
100
AcDbEntity
  8
ROGO
 62
     4
100
AcDbLine
 10
304.4069843089167
 20
276.9755199103005
 30
0.0
 11
304.0504510523735
 21
276.9755199103006
 31
0.0
  0
LINE
  5
1CAE
102
{ACAD_REACTORS
330
1C9F
102
}
330
18
100
AcDbEntity
  8
ROGO
 62
     4
100
AcDbLine
 10
304.164793393497
 20
277.2282501757946
 30
0.0
 11
304.0504510523735
 21
276.9755199103006
 31
0.0
  0
LINE
  5
1CAF
102
{ACAD_REACTORS
330
1CA0
102
}
330
18
100
AcDbEntity
  8
ROGO
 62
     4
100
AcDbLine
 10
305.5600683605206
 20
277.595740666055
 30
0.0
 11
306.8454122698008
 21
277.595740666055
 31
0.0
  0
SPLINE
  5
1CB0
102
{ACAD_REACTORS
330
1C9F
102
}
330
18
100
AcDbEntity
  8
ROGO
 62
     4
100
AcDbSpline
210
0.0
220
0.0
230
1.0
 70
     8
 71
     3
 72
    15
 73
    11
 74
     9
 42
0.0000000001
 43
0.0000000001
 44
0.0000000001
 40
0.0
 40
0.0
 40
0.0
 40
0.0
 40
0.1114278057886432
 40
0.1622327562563865
 40
0.2198997572250677
 40
0.259185199493265
 40
0.3213155338880433
 40
0.3585299069784071
 40
0.4223775764185746
 40
0.4436601464819452
 40
0.4436601464819452
 40
0.4436601464819452
 40
0.4436601464819452
 10
304.458604478289
 20
277.2282501757946
 30
0.0
 10
304.5004546013059
 20
277.228441871697
 30
0.0
 10
304.5613860784954
 20
277.2287209703868
 30
0.0
 10
304.5947055803567
 20
277.1533485568961
 30
0.0
 10
304.5797701909431
 20
277.1048204805611
 30
0.0
 10
304.5609951891963
 20
277.0549972712731
 30
0.0
 10
304.5278155088528
 20
277.0211416491211
 30
0.0
 10
304.4832835179064
 20
276.9885329777192
 30
0.0
 10
304.441198658371
 20
276.9845855520312
 30
0.0
 10
304.413827181428
 20
276.9773330393409
 30
0.0
 10
304.4069843089167
 20
276.9755199103005
 30
0.0
 11
304.458604478289
 21
277.2282501757946
 31
0.0
 11
304.5670069230188
 21
277.2024613045613
 31
0.0
 11
304.5876550501329
 21
277.1560415044895
 31
0.0
 11
304.577331134989
 21
277.0993061559242
 31
0.0
 11
304.5618451138599
 21
277.0632017361976
 31
0.0
 11
304.5205488596316
 21
277.0167819361257
 31
0.0
 11
304.4895768173735
 21
276.9961508391391
 31
0.0
 11
304.4276324360309
 21
276.9806776845472
 31
0.0
 11
304.4069843089167
 21
276.9755199103005
 31
0.0
  0
LINE
  5
1CB1
102
{ACAD_REACTORS
330
1CA0
102
}
330
18
100
AcDbEntity
  8
ROGO
 62
     4
100
AcDbLine
 10
306.8454122698008
 20
277.595740666055
 30
0.0
 11
306.7377015879314
 21
277.378051283673
 31
0.0
  0
LINE
  5
1CB2
102
{ACAD_REACTORS
330
1CA0
102
}
330
18
100
AcDbEntity
  8
ROGO
 62
     4
100
AcDbLine
 10
306.0621573091335
 20
277.378051283673
 30
0.0
 11
305.9779409406566
 21
277.2078452379774
 31
0.0
  0
LINE
  5
1CB3
102
{ACAD_REACTORS
330
1CA0
102
}
330
18
100
AcDbEntity
  8
ROGO
 62
     4
100
AcDbLine
 10
306.0621573091335
 20
277.378051283673
 30
0.0
 11
306.7377015879314
 21
277.378051283673
 31
0.0
  0
LINE
  5
1CB4
102
{ACAD_REACTORS
330
1CA0
102
}
330
18
100
AcDbEntity
  8
ROGO
 62
     4
100
AcDbLine
 10
305.9779409406566
 20
277.2078452379774
 30
0.0
 11
306.6534852194545
 21
277.2078452379774
 31
0.0
  0
LINE
  5
1CB5
102
{ACAD_REACTORS
330
1CA0
102
}
330
18
100
AcDbEntity
  8
ROGO
 62
     4
100
AcDbLine
 10
305.8073650103803
 20
276.8631016316181
 30
0.0
 11
306.4829092891781
 21
276.8631016316181
 31
0.0
  0
LINE
  5
1CB6
102
{ACAD_REACTORS
330
1CA0
102
}
330
18
100
AcDbEntity
  8
ROGO
 62
     4
100
AcDbLine
 10
305.8915849441733
 20
277.0333148830195
 30
0.0
 11
306.5671292229712
 21
277.0333148830196
 31
0.0
  0
LINE
  5
1CB7
102
{ACAD_REACTORS
330
1CA0
102
}
330
18
100
AcDbEntity
  8
ROGO
 62
     4
100
AcDbLine
 10
306.6534852194545
 20
277.2078452379774
 30
0.0
 11
306.5671292229712
 21
277.0333148830195
 31
0.0
  0
LINE
  5
1CB8
102
{ACAD_REACTORS
330
1CA0
102
}
330
18
100
AcDbEntity
  8
ROGO
 62
     4
100
AcDbLine
 10
305.8915849441733
 20
277.0333148830195
 30
0.0
 11
305.8073650103802
 21
276.8631016316181
 31
0.0
  0
HATCH
  5
1CB9
330
18
100
AcDbEntity
  8
ROGO
 62
     4
100
AcDbHatch
 10
0.0
 20
0.0
 30
0.0
210
0.0
220
0.0
230
0.9999999999999998
  2
SOLID
 70
     1
 71
     1
 91
        2
 92
        7
 72
     1
 73
     1
 93
        4
 10
310.8186740713084
 20
277.5957406660549
 42
0.0
 10
310.4344000715306
 20
277.5957406660549
 42
0.9597396185052668
 10
310.4344000715305
 20
276.6454231992544
 42
0.0
 10
310.8462896970353
 20
276.6454231992544
 42
0.9713627655772736
 97
        4
330
1CD9
330
1CC1
330
1CC6
330
1CC2
 92
       22
 72
     1
 73
     1
 93
        8
 10
310.7602472609514
 20
277.1150774475881
 42
0.0
 10
310.7476005325027
 20
277.0245969698446
 42
-0.3696060376523694
 10
310.6447327183052
 20
276.9718219338737
 42
0.0
 10
310.6102938300773
 20
276.976635560839
 42
-0.3541938351274232
 10
310.5212500139603
 20
277.0580406475512
 42
0.0
 10
310.533896742409
 20
277.1485211252948
 42
-0.3439742752229287
 10
310.6450617354989
 20
277.2113394329168
 42
0.0
 10
310.6775755926167
 20
277.2067948733384
 42
-0.3460733018205655
 97
        8
330
1CD1
330
1CD7
330
1CD3
330
1CD6
330
1CD2
330
1CD5
330
1CD0
330
1CD4
 75
     0
 76
     1
 47
0.0514683685270805
 98
        2
 10
310.912090335265
 20
277.2089768745647
 10
310.912090335265
 20
277.2089768745647
450
        0
451
        0
460
0.0
461
0.0
452
        0
462
0.0
453
        0
470

  0
HATCH
  5
1CBA
330
18
100
AcDbEntity
  8
ROGO
 62
     4
100
AcDbHatch
 10
0.0
 20
0.0
 30
0.0
210
0.0
220
0.0
230
0.9999999999999998
  2
SOLID
 70
     1
 71
     1
 91
        1
 92
        5
 93
        8
 72
     1
 10
309.9527258512582
 20
277.5957406660549
 11
309.00103957787
 21
277.5957406660549
 72
     4
 94
        3
 73
     0
 74
     0
 95
       26
 96
       22
 40
0.0
 40
0.0
 40
0.0
 40
0.0
 40
0.7089867102952115
 40
1.183598414482279
 40
1.525832104103439
 40
1.781366926528389
 40
2.112809002752968
 40
2.354729406992515
 40
2.791581270399936
 40
3.147172406765291
 40
3.389031356825354
 40
3.626186440486682
 40
4.050410779375985
 40
4.350388020238963
 40
4.511948940797758
 40
4.741441456013356
 40
4.907163150576407
 40
5.147239172635527
 40
5.28310143501293
 40
5.578752957634333
 40
5.713750011164293
 40
5.713750011164293
 40
5.713750011164293
 40
5.713750011164293
 10
309.0010395778699
 20
277.5957406660549
 10
308.9425248714313
 20
277.5922495783266
 10
308.8448390999507
 20
277.5864214776865
 10
308.7375807171153
 20
277.5212631619837
 10
308.6589969466002
 20
277.4833829806095
 10
308.6029510967716
 20
277.4318881012104
 10
308.5618692616542
 20
277.3786976524208
 10
308.5100778961889
 20
277.3153216226905
 10
308.4678435175916
 20
277.2415228006502
 10
308.4463361161654
 20
277.1601836331805
 10
308.4272850641091
 20
277.0953558447624
 10
308.413156484972
 20
277.0231137347693
 10
308.4167511954795
 20
276.9450668425316
 10
308.4218989854428
 20
276.8725808846066
 10
308.4448826158518
 20
276.8208367632845
 10
308.4710568997852
 20
276.7839985145483
 10
308.5031069520066
 20
276.7434252676296
 10
308.5381767179081
 20
276.7165537375767
 10
308.5671822769017
 20
276.6678741551625
 10
308.6179555294365
 20
276.6616622893669
 10
308.6502290286847
 20
276.64929882244
 10
308.6603459257253
 20
276.6454231992544
 72
     1
 10
308.6603459257253
 20
276.6454231992544
 11
309.4788668699144
 21
276.6454231992544
 72
     1
 10
309.4788668699144
 20
276.6454231992544
 11
309.6551712666937
 21
276.9989991666403
 72
     1
 10
309.6551712666937
 20
276.9989991666403
 11
309.0474976412569
 21
276.9989991666403
 72
     4
 94
        3
 73
     0
 74
     0
 95
       16
 96
       12
 40
0.0
 40
0.0
 40
0.0
 40
0.0
 40
0.2141121027475241
 40
0.4304326162973471
 40
0.5594580803306056
 40
0.6831669452691567
 40
0.8190286678446897
 40
0.9139043619204622
 40
1.003933161420314
 40
1.186498641432482
 40
1.560280494298353
 40
1.560280494298353
 40
1.560280494298353
 40
1.560280494298353
 10
309.0474976412571
 20
276.9989991666403
 10
309.0291680632385
 20
277.0043919972532
 10
308.9923198509193
 20
277.0152332816093
 10
308.9892359531043
 20
277.0677878454011
 10
308.9934373177148
 20
277.1052372726279
 10
309.0110326420872
 20
277.1325026425549
 10
309.0323788224194
 20
277.1523417865836
 10
309.0403269520864
 20
277.1781791697098
 10
309.0636897550925
 20
277.1976896265085
 10
309.1051182647574
 20
277.2304839789572
 10
309.1509310247465
 20
277.2374684432866
 10
309.181710319086
 20
277.2421609543566
 72
     1
 10
309.181710319086
 20
277.2421609543566
 11
309.7764195874437
 21
277.2421609543566
 72
     1
 10
309.7764195874437
 20
277.2421609543566
 11
309.9527258512582
 21
277.5957406660549
 97
        8
330
1CCF
330
1CBC
330
1CC3
330
1CBF
330
1CCE
330
1CCB
330
1CCD
330
1CCC
 75
     0
 76
     1
 47
0.0514683685270805
 98
        1
 10
309.3338795032442
 20
277.3841888567895
450
        0
451
        0
460
0.0
461
0.0
452
        0
462
0.0
453
        0
470

  0
SPLINE
  5
1CBB
102
{ACAD_REACTORS
330
1C95
102
}
330
18
100
AcDbEntity
  8
ROGO
 62
     4
100
AcDbSpline
210
0.0
220
0.0
230
1.0
 70
     8
 71
     3
 72
    26
 73
    22
 74
    20
 42
0.0000000001
 43
0.0000000001
 44
0.0000000001
 40
0.0
 40
0.0
 40
0.0
 40
0.0
 40
0.1723984759424608
 40
0.2878059064036966
 40
0.3710240621887089
 40
0.4331603664333254
 40
0.5137544142125283
 40
0.572580212192407
 40
0.6788058922657624
 40
0.7652720686804436
 40
0.8240829233522806
 40
0.8817499774613361
 40
0.984905126098422
 40
1.057848128260907
 40
1.097133570529052
 40
1.152937380796412
 40
1.193234564309735
 40
1.251611879021434
 40
1.284648389624301
 40
1.356539542405996
 40
1.389365667278746
 40
1.389365667278746
 40
1.389365667278746
 40
1.389365667278746
 10
312.0630469869509
 20
277.595740666055
 30
0.0
 10
312.0045322805123
 20
277.5922495783266
 30
0.0
 10
311.9068465090318
 20
277.5864214776865
 30
0.0
 10
311.7995881261963
 20
277.5212631619837
 30
0.0
 10
311.7210043556813
 20
277.4833829806096
 30
0.0
 10
311.6649585058527
 20
277.4318881012103
 30
0.0
 10
311.6238766707352
 20
277.3786976524209
 30
0.0
 10
311.57208530527
 20
277.3153216226906
 30
0.0
 10
311.5298509266728
 20
277.2415228006503
 30
0.0
 10
311.5083435252464
 20
277.1601836331805
 30
0.0
 10
311.4892924731902
 20
277.0953558447625
 30
0.0
 10
311.4751638940532
 20
277.0231137347694
 30
0.0
 10
311.4787586045603
 20
276.9450668425317
 30
0.0
 10
311.4839063945238
 20
276.8725808846067
 30
0.0
 10
311.5068900249328
 20
276.8208367632845
 30
0.0
 10
311.5330643088663
 20
276.7839985145483
 30
0.0
 10
311.5651143610878
 20
276.7434252676297
 30
0.0
 10
311.6001841269891
 20
276.7165537375768
 30
0.0
 10
311.6291896859828
 20
276.6678741551625
 30
0.0
 10
311.6799629385176
 20
276.661662289367
 30
0.0
 10
311.7122364377657
 20
276.64929882244
 30
0.0
 10
311.7223533348064
 20
276.6454231992545
 30
0.0
 11
312.0630469869509
 21
277.595740666055
 31
0.0
 11
311.8927001608786
 21
277.569222872889
 31
0.0
 11
311.7894595253077
 21
277.5176452985705
 31
0.0
 11
311.7171912288213
 21
277.4763832727453
 31
0.0
 11
311.6707331654341
 21
277.435121078772
 31
0.0
 11
311.6191129960617
 21
277.3732279559601
 31
0.0
 11
311.5829788478186
 21
277.3268081558883
 31
0.0
 11
311.5313583816199
 21
277.2339683875964
 31
0.0
 11
311.5055484453469
 21
277.1514441677979
 31
0.0
 11
311.4900624242178
 21
277.0947088192326
 31
0.0
 11
311.4797382122476
 21
277.0379734706675
 31
0.0
 11
311.4797382122476
 21
276.9348183220304
 31
0.0
 11
311.4900624242178
 21
276.8626096507251
 31
0.0
 11
311.5055484453469
 21
276.8265052309985
 31
0.0
 11
311.536520487605
 21
276.7800854309266
 31
0.0
 11
311.5623307207044
 21
276.7491387854466
 31
0.0
 11
311.6036266781064
 21
276.7078767596214
 31
0.0
 11
311.6242748052206
 21
276.6820878883881
 31
0.0
 11
311.6913812925483
 21
276.6562991853028
 31
0.0
 11
311.7223533348064
 21
276.6454231992545
 31
0.0
  0
SPLINE
  5
1CBC
102
{ACAD_REACTORS
330
1CBA
102
}
330
18
100
AcDbEntity
  8
ROGO
 62
     4
100
AcDbSpline
210
0.0
220
0.0
230
1.0
 70
     8
 71
     3
 72
    26
 73
    22
 74
    20
 42
0.0000000001
 43
0.0000000001
 44
0.0000000001
 40
0.0
 40
0.0
 40
0.0
 40
0.0
 40
0.1723984759425082
 40
0.2878059064037186
 40
0.3710240621887309
 40
0.4331603664333474
 40
0.5137544142125066
 40
0.572580212192465
 40
0.6788058922657929
 40
0.7652720686804741
 40
0.8240829233522561
 40
0.8817499774613677
 40
0.9849051260984536
 40
1.057848128260939
 40
1.097133570529084
 40
1.152937380796444
 40
1.19323456430973
 40
1.251611879021469
 40
1.284648389624336
 40
1.356539542406011
 40
1.38936566727878
 40
1.38936566727878
 40
1.38936566727878
 40
1.38936566727878
 10
309.0010395778699
 20
277.595740666055
 30
0.0
 10
308.9425248714313
 20
277.5922495783267
 30
0.0
 10
308.8448390999507
 20
277.5864214776867
 30
0.0
 10
308.7375807171152
 20
277.5212631619837
 30
0.0
 10
308.6589969466003
 20
277.4833829806096
 30
0.0
 10
308.6029510967716
 20
277.4318881012104
 30
0.0
 10
308.5618692616541
 20
277.3786976524209
 30
0.0
 10
308.5100778961889
 20
277.3153216226906
 30
0.0
 10
308.4678435175918
 20
277.2415228006503
 30
0.0
 10
308.4463361161653
 20
277.1601836331806
 30
0.0
 10
308.4272850641092
 20
277.0953558447625
 30
0.0
 10
308.413156484972
 20
277.0231137347695
 30
0.0
 10
308.4167511954795
 20
276.9450668425317
 30
0.0
 10
308.4218989854427
 20
276.8725808846067
 30
0.0
 10
308.4448826158518
 20
276.8208367632845
 30
0.0
 10
308.4710568997851
 20
276.7839985145483
 30
0.0
 10
308.5031069520068
 20
276.7434252676298
 30
0.0
 10
308.538176717908
 20
276.7165537375768
 30
0.0
 10
308.5671822769017
 20
276.6678741551624
 30
0.0
 10
308.6179555294365
 20
276.661662289367
 30
0.0
 10
308.6502290286848
 20
276.6492988224401
 30
0.0
 10
308.6603459257253
 20
276.6454231992545
 30
0.0
 11
309.0010395778699
 21
277.595740666055
 31
0.0
 11
308.8306927517975
 21
277.5692228728891
 31
0.0
 11
308.7274521162267
 21
277.5176452985705
 31
0.0
 11
308.6551838197402
 21
277.4763832727453
 31
0.0
 11
308.608725756353
 21
277.435121078772
 31
0.0
 11
308.5571055869807
 21
277.3732279559601
 31
0.0
 11
308.5209714387374
 21
277.3268081558883
 31
0.0
 11
308.4693509725389
 21
277.2339683875964
 31
0.0
 11
308.4435410362659
 21
277.1514441677979
 31
0.0
 11
308.4280550151368
 21
277.0947088192327
 31
0.0
 11
308.4177308031665
 21
277.0379734706675
 31
0.0
 11
308.4177308031665
 21
276.9348183220304
 31
0.0
 11
308.4280550151368
 21
276.8626096507251
 31
0.0
 11
308.4435410362659
 21
276.8265052309985
 31
0.0
 11
308.474513078524
 21
276.7800854309266
 31
0.0
 11
308.5003233116233
 21
276.7491387854466
 31
0.0
 11
308.5416192690253
 21
276.7078767596214
 31
0.0
 11
308.5622673961395
 21
276.6820878883881
 31
0.0
 11
308.6293738834672
 21
276.6562991853029
 31
0.0
 11
308.6603459257253
 21
276.6454231992545
 31
0.0
  0
LINE
  5
1CBD
102
{ACAD_REACTORS
330
1C9B
102
}
330
18
100
AcDbEntity
  8
ROGO
 62
     4
100
AcDbLine
 10
307.7669959343283
 20
277.595740666055
 30
0.0
 11
308.4522883288427
 21
276.6454231992545
 31
0.0
  0
LINE
  5
1CBE
102
{ACAD_REACTORS
330
1C9B
102
}
330
18
100
AcDbEntity
  8
ROGO
 62
     4
100
AcDbLine
 10
307.7955071177016
 20
276.8263577651312
 30
0.0
 11
307.9259825495776
 21
276.6454231992545
 31
0.0
  0
LINE
  5
1CBF
102
{ACAD_REACTORS
330
1CBA
102
}
330
18
100
AcDbEntity
  8
ROGO
 62
     4
100
AcDbLine
 10
309.6551712666937
 20
276.9989991666403
 30
0.0
 11
309.4788668699144
 21
276.6454231992545
 31
0.0
  0
LINE
  5
1CC0
102
{ACAD_REACTORS
330
1C95
102
}
330
18
100
AcDbEntity
  8
ROGO
 62
     4
100
AcDbLine
 10
312.7171786757747
 20
276.9989991666403
 30
0.0
 11
312.5408742789955
 21
276.6454231992544
 31
0.0
  0
ARC
  5
1CC1
102
{ACAD_REACTORS
330
1CB9
102
}
330
18
100
AcDbEntity
  8
ROGO
 62
     4
100
AcDbCircle
 10
310.453931389734
 20
277.1205819326547
 30
0.0
 40
0.4755599797263065
100
AcDbArc
 50
92.3538081120337
 51
270.0
  0
ARC
  5
1CC2
102
{ACAD_REACTORS
330
1CB9
102
}
330
18
100
AcDbEntity
  8
ROGO
 62
     4
100
AcDbCircle
 10
310.8186740713084
 20
277.1201806863286
 30
0.0
 40
0.4755599797263065
100
AcDbArc
 50
273.3290215232082
 51
90.0000000000006
  0
LINE
  5
1CC3
102
{ACAD_REACTORS
330
1CBA
102
}
330
18
100
AcDbEntity
  8
ROGO
 62
     4
100
AcDbLine
 10
308.6603459257253
 20
276.6454231992545
 30
0.0
 11
309.4788668699144
 21
276.6454231992545
 31
0.0
  0
LINE
  5
1CC4
102
{ACAD_REACTORS
330
1C9B
102
}
330
18
100
AcDbEntity
  8
ROGO
 62
     4
100
AcDbLine
 10
308.4522883288427
 20
276.6454231992545
 30
0.0
 11
307.9259825495776
 21
276.6454231992545
 31
0.0
  0
LINE
  5
1CC5
330
18
100
AcDbEntity
  8
ROGO
 62
     4
100
AcDbLine
 10
310.4344000715309
 20
276.6454231992545
 30
0.0
 11
310.846289697035
 21
276.6454231992545
 31
0.0
  0
LINE
  5
1CC6
102
{ACAD_REACTORS
330
1CB9
102
}
330
18
100
AcDbEntity
  8
ROGO
 62
     4
100
AcDbLine
 10
310.4344000715306
 20
276.6454231992545
 30
0.0
 11
310.8462896970353
 21
276.6454231992545
 31
0.0
  0
LINE
  5
1CC7
102
{ACAD_REACTORS
330
1C95
102
}
330
18
100
AcDbEntity
  8
ROGO
 62
     4
100
AcDbLine
 10
311.7223533348063
 20
276.6454231992545
 30
0.0
 11
312.5408742789955
 21
276.6454231992545
 31
0.0
  0
LINE
  5
1CC8
102
{ACAD_REACTORS
330
1C9B
102
}
330
18
100
AcDbEntity
  8
ROGO
 62
     4
100
AcDbLine
 10
307.4923727706587
 20
277.2467241183666
 30
0.0
 11
307.3268547960806
 21
277.0171949078135
 31
0.0
  0
LINE
  5
1CC9
102
{ACAD_REACTORS
330
1C9B
102
}
330
18
100
AcDbEntity
  8
ROGO
 62
     4
100
AcDbLine
 10
307.3268547960806
 20
277.0171949078135
 30
0.0
 11
307.6578907452367
 21
277.0171949078135
 31
0.0
  0
LINE
  5
1CCA
102
{ACAD_REACTORS
330
1C9B
102
}
330
18
100
AcDbEntity
  8
ROGO
 62
     4
100
AcDbLine
 10
307.4923727706587
 20
277.2467241183666
 30
0.0
 11
307.6578907452367
 21
277.0171949078135
 31
0.0
  0
SPLINE
  5
1CCB
102
{ACAD_REACTORS
330
1CBA
102
}
330
18
100
AcDbEntity
  8
ROGO
 62
     4
100
AcDbSpline
210
0.0
220
0.0
230
1.0
 70
     8
 71
     3
 72
    16
 73
    12
 74
    10
 42
0.0000000001
 43
0.0000000001
 44
0.0000000001
 40
0.0
 40
0.0
 40
0.0
 40
0.0
 40
0.0908894635587698
 40
0.1352824120537892
 40
0.1571739758861179
 40
0.1802441192684364
 40
0.2132804986121064
 40
0.2433617673669269
 40
0.2747358298621628
 40
0.3273367126566702
 40
0.3794005943324437
 40
0.3794005943324437
 40
0.3794005943324437
 40
0.3794005943324437
 10
309.181710319086
 20
277.2421609543566
 30
0.0
 10
309.1509310247464
 20
277.2374684432866
 30
0.0
 10
309.1051182647574
 20
277.2304839789573
 30
0.0
 10
309.0636897550926
 20
277.1976896265085
 30
0.0
 10
309.0403269520864
 20
277.17817916971
 30
0.0
 10
309.0323788224193
 20
277.1523417865837
 30
0.0
 10
309.0110326420872
 20
277.1325026425549
 30
0.0
 10
308.9934373177148
 20
277.1052372726281
 30
0.0
 10
308.9892359531041
 20
277.067787845401
 30
0.0
 10
308.9923198509193
 20
277.0152332816094
 30
0.0
 10
309.0291680632386
 20
277.0043919972533
 30
0.0
 10
309.0474976412571
 20
276.9989991666403
 30
0.0
 11
309.181710319086
 21
277.2421609543566
 31
0.0
 11
309.0939560014705
 21
277.2184950648564
 31
0.0
 11
309.0578218532272
 21
277.1927063617712
 31
0.0
 11
309.0423358320982
 21
277.1772330390312
 31
0.0
 11
309.0320116201279
 21
277.1566019420445
 31
0.0
 11
309.0113634930138
 21
277.1308132389593
 31
0.0
 11
308.9958774718847
 21
277.105024367726
 31
0.0
 11
308.9907153658996
 21
277.0740778903941
 31
0.0
 11
309.0010395778699
 21
277.0225001479275
 31
0.0
 11
309.0474976412571
 21
276.9989991666403
 31
0.0
  0
LINE
  5
1CCC
102
{ACAD_REACTORS
330
1CBA
102
}
330
18
100
AcDbEntity
  8
ROGO
 62
     4
100
AcDbLine
 10
309.9527258512582
 20
277.595740666055
 30
0.0
 11
309.7764195874437
 21
277.2421609543566
 31
0.0
  0
LINE
  5
1CCD
102
{ACAD_REACTORS
330
1CBA
102
}
330
18
100
AcDbEntity
  8
ROGO
 62
     4
100
AcDbLine
 10
309.181710319086
 20
277.2421609543566
 30
0.0
 11
309.7764195874437
 21
277.2421609543566
 31
0.0
  0
LINE
  5
1CCE
102
{ACAD_REACTORS
330
1CBA
102
}
330
18
100
AcDbEntity
  8
ROGO
 62
     4
100
AcDbLine
 10
309.047497641257
 20
276.9989991666403
 30
0.0
 11
309.6551712666937
 21
276.9989991666403
 31
0.0
  0
LINE
  5
1CCF
102
{ACAD_REACTORS
330
1CBA
102
}
330
18
100
AcDbEntity
  8
ROGO
 62
     4
100
AcDbLine
 10
309.0010395778701
 20
277.595740666055
 30
0.0
 11
309.9527258512582
 21
277.595740666055
 31
0.0
  0
LINE
  5
1CD0
102
{ACAD_REACTORS
330
1CB9
102
}
330
18
100
AcDbEntity
  8
ROGO
 62
     4
100
AcDbLine
 10
310.6431367043886
 20
277.2116085003037
 30
0.0
 11
310.6775755926167
 21
277.2067948733384
 31
0.0
  0
LINE
  5
1CD1
102
{ACAD_REACTORS
330
1CB9
102
}
330
18
100
AcDbEntity
  8
ROGO
 62
     4
100
AcDbLine
 10
310.7602472609514
 20
277.1150774475883
 30
0.0
 11
310.7476005325028
 21
277.0245969698448
 31
0.0
  0
LINE
  5
1CD2
102
{ACAD_REACTORS
330
1CB9
102
}
330
18
100
AcDbEntity
  8
ROGO
 62
     4
100
AcDbLine
 10
310.5212500139603
 20
277.0580406475513
 30
0.0
 11
310.533896742409
 21
277.1485211252947
 31
0.0
  0
LINE
  5
1CD3
102
{ACAD_REACTORS
330
1CB9
102
}
330
18
100
AcDbEntity
  8
ROGO
 62
     4
100
AcDbLine
 10
310.6102938300769
 20
276.9766355608391
 30
0.0
 11
310.644732718305
 21
276.9718219338738
 31
0.0
  0
ARC
  5
1CD4
102
{ACAD_REACTORS
330
1CB9
102
}
330
18
100
AcDbEntity
  8
ROGO
 62
     4
100
AcDbCircle
 10
310.6605908851979
 20
277.1083675626023
 30
0.0
 40
0.0998820093152177
100
AcDbArc
 50
3.851923331663601
 51
80.20940670206341
  0
ARC
  5
1CD5
102
{ACAD_REACTORS
330
1CB9
102
}
330
18
100
AcDbEntity
  8
ROGO
 62
     4
100
AcDbCircle
 10
310.6297335225721
 20
277.1086951992438
 30
0.0
 40
0.1037824301982561
100
AcDbArc
 50
82.57970078354313
 51
157.4341870372611
  0
ARC
  5
1CD6
102
{ACAD_REACTORS
330
1CB9
102
}
330
18
100
AcDbEntity
  8
ROGO
 62
     4
100
AcDbCircle
 10
310.6160216335451
 20
277.0723030486942
 30
0.0
 40
0.0958388019806556
100
AcDbArc
 50
188.5583509056651
 51
266.5736774635929
  0
ARC
  5
1CD7
102
{ACAD_REACTORS
330
1CB9
102
}
330
18
100
AcDbEntity
  8
ROGO
 62
     4
100
AcDbCircle
 10
310.6653463016453
 20
277.0582836759615
 30
0.0
 40
0.0888850530907803
100
AcDbArc
 50
256.5902863289752
 51
337.7287536965499
  0
LINE
  5
1CD8
330
18
100
AcDbEntity
  8
ROGO
 62
     4
100
AcDbLine
 10
310.4344000715307
 20
277.595740666055
 30
0.0
 11
310.7037134806772
 21
277.595740666055
 31
0.0
  0
LINE
  5
1CD9
102
{ACAD_REACTORS
330
1CB9
102
}
330
18
100
AcDbEntity
  8
ROGO
 62
     4
100
AcDbLine
 10
310.4344000715306
 20
277.595740666055
 30
0.0
 11
310.8186740713084
 21
277.595740666055
 31
0.0
  0
SPLINE
  5
1CDA
102
{ACAD_REACTORS
330
1C95
102
}
330
18
100
AcDbEntity
  8
ROGO
 62
     4
100
AcDbSpline
210
0.0
220
0.0
230
1.0
 70
     8
 71
     3
 72
    16
 73
    12
 74
    10
 42
0.0000000001
 43
0.0000000001
 44
0.0000000001
 40
0.0
 40
0.0
 40
0.0
 40
0.0
 40
0.0908894635588099
 40
0.1352824120538293
 40
0.1571739758861982
 40
0.1802441192684659
 40
0.2132804986121358
 40
0.2433617673669563
 40
0.2747358298622484
 40
0.3273367126567001
 40
0.3794005943324992
 40
0.3794005943324992
 40
0.3794005943324992
 40
0.3794005943324992
 10
312.2437177281671
 20
277.2421609543566
 30
0.0
 10
312.2129384338277
 20
277.2374684432866
 30
0.0
 10
312.1671256738385
 20
277.2304839789573
 30
0.0
 10
312.1256971641734
 20
277.1976896265085
 30
0.0
 10
312.1023343611676
 20
277.1781791697098
 30
0.0
 10
312.0943862315004
 20
277.1523417865837
 30
0.0
 10
312.0730400511683
 20
277.132502642555
 30
0.0
 10
312.0554447267957
 20
277.1052372726279
 30
0.0
 10
312.0512433621854
 20
277.0677878454011
 30
0.0
 10
312.0543272600004
 20
277.0152332816094
 30
0.0
 10
312.0911754723195
 20
277.0043919972532
 30
0.0
 10
312.1095050503381
 20
276.9989991666403
 30
0.0
 11
312.2437177281671
 21
277.2421609543566
 31
0.0
 11
312.1559634105515
 21
277.2184950648564
 31
0.0
 11
312.1198292623083
 21
277.1927063617712
 31
0.0
 11
312.1043432411793
 21
277.1772330390311
 31
0.0
 11
312.094019029209
 21
277.1566019420445
 31
0.0
 11
312.0733709020949
 21
277.1308132389593
 31
0.0
 11
312.0578848809657
 21
277.105024367726
 31
0.0
 11
312.0527227749806
 21
277.074077890394
 31
0.0
 11
312.0630469869509
 21
277.0225001479275
 31
0.0
 11
312.1095050503381
 21
276.9989991666403
 31
0.0
  0
LINE
  5
1CDB
102
{ACAD_REACTORS
330
1C95
102
}
330
18
100
AcDbEntity
  8
ROGO
 62
     4
100
AcDbLine
 10
312.1095050503381
 20
276.9989991666403
 30
0.0
 11
312.7171786757748
 21
276.9989991666403
 31
0.0
  0
LINE
  5
1CDC
102
{ACAD_REACTORS
330
1C95
102
}
330
18
100
AcDbEntity
  8
ROGO
 62
     4
100
AcDbLine
 10
312.243717728167
 20
277.2421609543566
 30
0.0
 11
312.8384269965248
 21
277.2421609543566
 31
0.0
  0
LINE
  5
1CDD
102
{ACAD_REACTORS
330
1C94
102
}
330
18
100
AcDbEntity
  8
ROGO
 62
     4
100
AcDbLine
 10
313.5839758032237
 20
276.8532726399911
 30
0.0
 11
313.9541943405041
 21
276.1108046139272
 31
0.0
  0
LINE
  5
1CDE
102
{ACAD_REACTORS
330
1C94
102
}
330
18
100
AcDbEntity
  8
ROGO
 62
     4
100
AcDbLine
 10
313.213769237684
 20
276.4983897127389
 30
0.0
 11
313.4070316857848
 21
276.1108046139272
 31
0.0
  0
LINE
  5
1CDF
102
{ACAD_REACTORS
330
1C94
102
}
330
18
100
AcDbEntity
  8
ROGO
 62
     4
100
AcDbLine
 10
313.213769237684
 20
276.4983897127389
 30
0.0
 11
313.0205067895831
 21
276.1108046139272
 31
0.0
  0
LINE
  5
1CE0
102
{ACAD_REACTORS
330
1C94
102
}
330
18
100
AcDbEntity
  8
ROGO
 62
     4
100
AcDbLine
 10
313.4070316857848
 20
276.1108046139272
 30
0.0
 11
313.9541943405041
 21
276.1108046139272
 31
0.0
  0
LINE
  5
1CE1
102
{ACAD_REACTORS
330
1C94
102
}
330
18
100
AcDbEntity
  8
ROGO
 62
     4
100
AcDbLine
 10
313.5839758032237
 20
276.8532726399911
 30
0.0
 11
314.4834636379944
 21
277.595740666055
 31
0.0
  0
LINE
  5
1CE2
102
{ACAD_REACTORS
330
1C94
102
}
330
18
100
AcDbEntity
  8
ROGO
 62
     4
100
AcDbLine
 10
313.9363009832752
 20
277.595740666055
 30
0.0
 11
314.4834636379944
 21
277.595740666055
 31
0.0
  0
LINE
  5
1CE3
102
{ACAD_REACTORS
330
1C94
102
}
330
18
100
AcDbEntity
  8
ROGO
 62
     4
100
AcDbLine
 10
313.213769237684
 20
277.595740666055
 30
0.0
 11
313.7609438641439
 21
277.595740666055
 31
0.0
  0
LINE
  5
1CE4
102
{ACAD_REACTORS
330
1C94
102
}
330
18
100
AcDbEntity
  8
ROGO
 62
     4
100
AcDbLine
 10
313.7609438641439
 20
277.595740666055
 30
0.0
 11
313.6801032030477
 21
277.4336158667116
 31
0.0
  0
LINE
  5
1CE5
102
{ACAD_REACTORS
330
1C94
102
}
330
18
100
AcDbEntity
  8
ROGO
 62
     4
100
AcDbLine
 10
313.6801032030477
 20
277.4336158667116
 30
0.0
 11
313.9363009832752
 21
277.595740666055
 31
0.0
  0
HATCH
  5
1CE6
330
18
100
AcDbEntity
  8
ROGO
 62
     4
100
AcDbHatch
 10
0.0
 20
0.0
 30
0.0
210
0.0
220
0.0
230
0.9999999999999998
  2
SOLID
 70
     1
 71
     1
 91
        1
 92
        7
 72
     0
 73
     1
 93
       11
 10
314.4834636379944
 20
277.5161700311022
 10
313.9363009832752
 20
277.5161700311022
 10
313.6801032030478
 20
277.3540452317588
 10
313.7609438641439
 20
277.5161700311022
 10
313.213769237684
 20
277.5161700311022
 10
312.4733321631231
 20
276.0312339789745
 10
313.0205067895831
 20
276.0312339789745
 10
313.213769237684
 20
276.4188190777861
 10
313.4070316857848
 20
276.0312339789745
 10
313.9541943405041
 20
276.0312339789745
 10
313.5839758032237
 20
276.7737020050383
 97
       11
330
1D34
330
1D37
330
1D36
330
1D35
330
1CEB
330
1CE8
330
1D31
330
1D30
330
1D32
330
1D2F
330
1D33
 75
     0
 76
     1
 47
0.0514683685270805
 98
        1
 10
313.1666774501706
 20
276.879103527968
450
        0
451
        0
460
0.0
461
0.0
452
        0
462
0.0
453
        0
470

  0
HATCH
  5
1CE7
330
18
100
AcDbEntity
  8
ROGO
 62
     4
100
AcDbHatch
 10
0.0
 20
0.0
 30
0.0
210
0.0
220
0.0
230
0.9999999999999998
  2
SOLID
 70
     1
 71
     1
 91
        1
 92
        5
 93
        8
 72
     1
 10
313.0147332603392
 20
277.5161700311022
 11
312.063046986951
 21
277.5161700311022
 72
     4
 94
        3
 73
     0
 74
     0
 95
       26
 96
       22
 40
0.0
 40
0.0
 40
0.0
 40
0.0
 40
0.7089867102952115
 40
1.183598414482279
 40
1.525832104103439
 40
1.781366926528389
 40
2.112809002752968
 40
2.354729406992515
 40
2.791581270399936
 40
3.147172406765291
 40
3.389031356825354
 40
3.626186440486682
 40
4.050410779375985
 40
4.350388020238963
 40
4.511948940797758
 40
4.741441456013356
 40
4.907163150576407
 40
5.147239172635527
 40
5.28310143501293
 40
5.578752957634333
 40
5.713750011164293
 40
5.713750011164293
 40
5.713750011164293
 40
5.713750011164293
 10
312.0630469869509
 20
277.5161700311022
 10
312.0045322805123
 20
277.5126789433739
 10
311.9068465090318
 20
277.5068508427338
 10
311.7995881261963
 20
277.441692527031
 10
311.7210043556813
 20
277.4038123456568
 10
311.6649585058527
 20
277.3523174662577
 10
311.6238766707352
 20
277.2991270174681
 10
311.57208530527
 20
277.2357509877378
 10
311.5298509266727
 20
277.1619521656974
 10
311.5083435252465
 20
277.0806129982278
 10
311.4892924731902
 20
277.0157852098098
 10
311.4751638940531
 20
276.9435430998167
 10
311.4787586045606
 20
276.8654962075789
 10
311.4839063945238
 20
276.7930102496539
 10
311.5068900249328
 20
276.7412661283318
 10
311.5330643088663
 20
276.7044278795956
 10
311.5651143610878
 20
276.6638546326769
 10
311.6001841269891
 20
276.636983102624
 10
311.6291896859828
 20
276.5883035202098
 10
311.6799629385176
 20
276.5820916544142
 10
311.7122364377658
 20
276.5697281874873
 10
311.7223533348064
 20
276.5658525643017
 72
     1
 10
311.7223533348063
 20
276.5658525643017
 11
312.5408742789955
 21
276.5658525643017
 72
     1
 10
312.5408742789955
 20
276.5658525643017
 11
312.7171786757748
 21
276.9194285316876
 72
     1
 10
312.7171786757748
 20
276.9194285316875
 11
312.1095050503381
 21
276.9194285316875
 72
     4
 94
        3
 73
     0
 74
     0
 95
       16
 96
       12
 40
0.0
 40
0.0
 40
0.0
 40
0.0
 40
0.2141121027475241
 40
0.4304326162973471
 40
0.5594580803306056
 40
0.6831669452691567
 40
0.8190286678446897
 40
0.9139043619204622
 40
1.003933161420314
 40
1.186498641432482
 40
1.560280494298353
 40
1.560280494298353
 40
1.560280494298353
 40
1.560280494298353
 10
312.1095050503381
 20
276.9194285316875
 10
312.0911754723196
 20
276.9248213623005
 10
312.0543272600004
 20
276.9356626466566
 10
312.0512433621854
 20
276.9882172104483
 10
312.0554447267958
 20
277.0256666376752
 10
312.0730400511683
 20
277.0529320076022
 10
312.0943862315004
 20
277.0727711516309
 10
312.1023343611676
 20
277.0986085347571
 10
312.1256971641735
 20
277.1181189915558
 10
312.1671256738384
 20
277.1509133440045
 10
312.2129384338276
 20
277.1578978083339
 10
312.2437177281671
 20
277.1625903194038
 72
     1
 10
312.243717728167
 20
277.1625903194039
 11
312.8384269965248
 21
277.1625903194039
 72
     1
 10
312.8384269965248
 20
277.1625903194039
 11
313.0147332603392
 21
277.5161700311022
 97
        8
330
1CE9
330
1D0D
330
1D19
330
1D12
330
1D2D
330
1D2C
330
1D2E
330
1CEA
 75
     0
 76
     1
 47
0.0514683685270805
 98
        1
 10
312.2272661770288
 20
277.3421636706205
450
        0
451
        0
460
0.0
461
0.0
452
        0
462
0.0
453
        0
470

  0
LINE
  5
1CE8
102
{ACAD_REACTORS
330
1CEC
330
1CE6
330
1CF1
102
}
330
18
100
AcDbEntity
  8
ROGO
 62
     4
100
AcDbLine
 10
302.968967580779
 20
276.0312339789745
 30
0.0
 11
313.0205067895831
 21
276.0312339789745
 31
0.0
  0
LINE
  5
1CE9
102
{ACAD_REACTORS
330
1CE7
102
}
330
18
100
AcDbEntity
  8
ROGO
 62
     4
100
AcDbLine
 10
312.0630469869512
 20
277.5161700311023
 30
0.0
 11
313.0147332603392
 21
277.5161700311023
 31
0.0
  0
LINE
  5
1CEA
102
{ACAD_REACTORS
330
1CE7
102
}
330
18
100
AcDbEntity
  8
ROGO
 62
     4
100
AcDbLine
 10
313.0147332603392
 20
277.5161700311023
 30
0.0
 11
312.8384269965248
 21
277.1625903194039
 31
0.0
  0
LINE
  5
1CEB
102
{ACAD_REACTORS
330
1CEC
330
1CE6
102
}
330
18
100
AcDbEntity
  8
ROGO
 62
     4
100
AcDbLine
 10
313.213769237684
 20
277.5161700311023
 30
0.0
 11
312.4733321631231
 21
276.0312339789745
 31
0.0
  0
HATCH
  5
1CEC
330
18
100
AcDbEntity
  8
ROGO
 62
     4
100
AcDbHatch
 10
0.0
 20
0.0
 30
0.0
210
0.0
220
0.0
230
0.9999999999999998
  2
SOLID
 70
     1
 71
     1
 91
        1
 92
        7
 72
     0
 73
     1
 93
        4
 10
312.5475499224716
 20
276.1800766427893
 10
303.7265699667703
 20
276.1800766427893
 10
303.6592293235499
 20
276.0312339789745
 10
312.4733321631231
 20
276.0312339789745
 97
        4
330
1CF0
330
1CFA
330
1CE8
330
1CEB
 75
     0
 76
     1
 47
0.0514683685270805
 98
        1
 10
309.2963030760646
 20
276.1407101502848
450
        0
451
        0
460
0.0
461
0.0
452
        0
462
0.0
453
        0
470

  0
HATCH
  5
1CED
330
18
100
AcDbEntity
  8
ROGO
 62
     4
100
AcDbHatch
 10
0.0
 20
0.0
 30
0.0
210
0.0
220
0.0
230
0.9999999999999998
  2
SOLID
 70
     1
 71
     1
 91
        2
 92
        7
 72
     0
 73
     1
 93
        8
 10
307.7669959343283
 20
277.5161700311022
 10
307.2177496069891
 20
277.5161700311022
 10
306.5324572124747
 20
276.5658525643017
 10
307.0587629917398
 20
276.5658525643017
 10
307.1892384236158
 20
276.7467871301785
 10
307.7955071177016
 20
276.7467871301784
 10
307.9259825495776
 20
276.5658525643017
 10
308.4522883288427
 20
276.5658525643017
 97
        8
330
1CEF
330
1CF7
330
1CFC
330
1CF8
330
1CEE
330
1D10
330
1D16
330
1D0F
 92
       22
 72
     0
 73
     1
 93
        3
 10
307.6578907452368
 20
276.9376242728607
 10
307.3268547960806
 20
276.9376242728607
 10
307.4923727706587
 20
277.1671534834139
 97
        3
330
1D1B
330
1D1A
330
1D1C
 75
     0
 76
     1
 47
0.0514683685270805
 98
        2
 10
307.8308215255825
 20
277.0292851549544
 10
307.8308215255825
 20
277.0292851549544
450
        0
451
        0
460
0.0
461
0.0
452
        0
462
0.0
453
        0
470

  0
LINE
  5
1CEE
102
{ACAD_REACTORS
330
1CED
102
}
330
18
100
AcDbEntity
  8
ROGO
 62
     4
100
AcDbLine
 10
307.1892384236158
 20
276.7467871301785
 30
0.0
 11
307.7955071177016
 21
276.7467871301785
 31
0.0
  0
LINE
  5
1CEF
102
{ACAD_REACTORS
330
1CED
102
}
330
18
100
AcDbEntity
  8
ROGO
 62
     4
100
AcDbLine
 10
307.2177496069891
 20
277.5161700311023
 30
0.0
 11
307.7669959343283
 21
277.5161700311023
 31
0.0
  0
LINE
  5
1CF0
102
{ACAD_REACTORS
330
1CEC
102
}
330
18
100
AcDbEntity
  8
ROGO
 62
     4
100
AcDbLine
 10
303.7162475701892
 20
276.1800766427894
 30
0.0
 11
312.5475499224717
 21
276.1800766427894
 31
0.0
  0
HATCH
  5
1CF1
330
18
100
AcDbEntity
  8
ROGO
 62
     4
100
AcDbHatch
 10
0.0
 20
0.0
 30
0.0
210
0.0
220
0.0
230
0.9999999999999998
  2
SOLID
 70
     1
 71
     1
 91
        2
 92
        5
 93
        6
 72
     4
 94
        3
 73
     0
 74
     0
 95
       18
 96
       14
 40
0.108740278791501
 40
0.108740278791501
 40
0.108740278791501
 40
0.108740278791501
 40
0.6623149649549278
 40
1.384304701649787
 40
2.097394834876493
 40
2.774073369849618
 40
3.428974823686337
 40
4.005208313035923
 40
4.455173659284313
 40
4.720999734343524
 40
5.086034088486724
 40
5.569973738255373
 40
6.060470601257719
 40
6.060470601257719
 40
6.060470601257719
 40
6.060470601257719
 10
304.5463590927309
 20
276.5658525643017
 10
304.5917709438355
 20
276.5661907326067
 10
304.6964103774893
 20
276.5669699507855
 10
304.8428001263739
 20
276.6451745713447
 10
304.9816194346387
 20
276.7448015600244
 10
305.0934289437623
 20
276.8692750882735
 10
305.163089636626
 20
277.0115892425366
 10
305.173879857765
 20
277.1479842874673
 10
305.1672926928569
 20
277.25587107233
 10
305.1202240910088
 20
277.3310708397742
 10
305.0712905356715
 20
277.4073909135471
 10
304.9815629418439
 20
277.4735021961689
 10
304.9080441709815
 20
277.5024687654759
 10
304.870658380731
 20
277.5161700311023
 72
     1
 10
304.8706583807311
 20
277.5161700311022
 11
303.7037001293173
 21
277.5161700311022
 72
     1
 10
303.7037001293173
 20
277.5161700311022
 11
302.968967580779
 21
276.0312339789745
 72
     1
 10
302.968967580779
 20
276.0312339789745
 11
303.65922932355
 21
276.0312339789745
 72
     1
 10
303.65922932355
 20
276.0312339789745
 11
303.9011059366851
 21
276.5658525643017
 72
     1
 10
303.9011059366851
 20
276.5658525643017
 11
304.5463590927308
 21
276.5658525643017
 97
        6
330
1CF3
330
1CFD
330
1CF4
330
1CE8
330
1CFA
330
1CF9
 92
       20
 93
        4
 72
     1
 10
304.0504510523735
 20
276.8959492753478
 11
304.164793393497
 21
277.1486795408419
 72
     1
 10
304.164793393497
 20
277.1486795408419
 11
304.4586044782893
 21
277.1486795408419
 72
     4
 94
        3
 73
     0
 74
     0
 95
       15
 96
       11
 40
0.0
 40
0.0
 40
0.0
 40
0.0
 40
0.458245544397197
 40
0.6671803073175111
 40
0.9043351724393449
 40
1.065896092998139
 40
1.321406364485703
 40
1.474450037341961
 40
1.737022829061231
 40
1.824547148828933
 40
1.824547148828933
 40
1.824547148828933
 40
1.824547148828933
 10
304.458604478289
 20
277.1486795408419
 10
304.5004546013058
 20
277.1488712367443
 10
304.5613860784953
 20
277.1491503354341
 10
304.5947055803567
 20
277.0737779219433
 10
304.5797701909431
 20
277.0252498456082
 10
304.5609951891963
 20
276.9754266363204
 10
304.5278155088527
 20
276.9415710141684
 10
304.4832835179065
 20
276.9089623427664
 10
304.4411986583709
 20
276.9050149170785
 10
304.413827181428
 20
276.8977624043882
 10
304.4069843089167
 20
276.8959492753477
 72
     1
 10
304.4069843089167
 20
276.8959492753478
 11
304.0504510523735
 21
276.8959492753478
 97
        4
330
1D00
330
1CFE
330
1D02
330
1CFF
 75
     0
 76
     1
 47
0.0514683685270805
 98
        2
 10
303.7099373401198
 20
277.0543155101929
 10
303.7099373401198
 20
277.0543155101929
450
        0
451
        0
460
0.0
461
0.0
452
        0
462
0.0
453
        0
470

  0
HATCH
  5
1CF2
330
18
100
AcDbEntity
  8
ROGO
 62
     4
100
AcDbHatch
 10
0.0
 20
0.0
 30
0.0
210
0.0
220
0.0
230
0.9999999999999998
  2
SOLID
 70
     1
 71
     1
 91
        1
 92
        1
 93
       12
 72
     1
 10
305.5600683605206
 20
277.5161700311022
 11
306.8454122698009
 21
277.5161700311022
 72
     1
 10
306.8454122698008
 20
277.5161700311022
 11
306.7377015879314
 21
277.2984806487203
 72
     1
 10
306.7377015879314
 20
277.2984806487203
 11
306.0621573091335
 21
277.2984806487203
 72
     1
 10
306.0621573091335
 20
277.2984806487203
 11
305.9779409406567
 21
277.1282746030246
 72
     1
 10
305.9779409406567
 20
277.1282746030246
 11
306.6534852194545
 21
277.1282746030246
 72
     1
 10
306.6534852194545
 20
277.1282746030246
 11
306.5671292229712
 21
276.9537442480668
 72
     1
 10
306.5671292229712
 20
276.9537442480668
 11
305.8915849441733
 21
276.9537442480668
 72
     1
 10
305.8915849441733
 20
276.9537442480668
 11
305.8073650103802
 21
276.7835309966654
 72
     1
 10
305.8073650103803
 20
276.7835309966654
 11
306.4829092891781
 21
276.7835309966654
 72
     1
 10
306.4829092891781
 20
276.7835309966654
 11
306.3752040252759
 21
276.5658525643017
 72
     1
 10
306.3752040252759
 20
276.5658525643017
 11
305.0898601159957
 21
276.5658525643017
 72
     1
 10
305.0898601159957
 20
276.5658525643017
 11
305.5600683605206
 21
277.5161700311022
 97
       12
330
1D01
330
1D03
330
1D05
330
1D04
330
1D06
330
1D09
330
1D08
330
1D0A
330
1D07
330
1CF6
330
1CFB
330
1CF5
 75
     0
 76
     1
 98
        1
 10
252.9834753834875
 20
211.8059695659365
450
        0
451
        0
460
0.0
461
0.0
452
        0
462
0.0
453
        0
470

  0
SPLINE
  5
1CF3
102
{ACAD_REACTORS
330
1CF1
102
}
330
18
100
AcDbEntity
  8
ROGO
 62
     4
100
AcDbSpline
210
0.0
220
0.0
230
1.0
 70
     8
 71
     3
 72
    18
 73
    14
 74
     0
 42
0.0000000001
 43
0.0000000001
 40
0.1087402787915014
 40
0.1087402787915014
 40
0.1087402787915014
 40
0.1087402787915014
 40
0.5992371417938475
 40
1.083176791562496
 40
1.448211145705696
 40
1.714037220764907
 40
2.164002567013297
 40
2.740236056362883
 40
3.395137510199602
 40
4.071816045172726
 40
4.784906178399433
 40
5.506895915094292
 40
6.060470601257719
 40
6.060470601257719
 40
6.060470601257719
 40
6.060470601257719
 10
304.870658380731
 20
277.5161700311023
 30
0.0
 10
304.9080441709815
 20
277.5024687654759
 30
0.0
 10
304.9815629418439
 20
277.4735021961689
 30
0.0
 10
305.0712905356715
 20
277.4073909135473
 30
0.0
 10
305.1202240910088
 20
277.3310708397743
 30
0.0
 10
305.1672926928569
 20
277.25587107233
 30
0.0
 10
305.173879857765
 20
277.1479842874674
 30
0.0
 10
305.163089636626
 20
277.0115892425366
 30
0.0
 10
305.0934289437623
 20
276.8692750882735
 30
0.0
 10
304.9816194346387
 20
276.7448015600245
 30
0.0
 10
304.8428001263739
 20
276.6451745713447
 30
0.0
 10
304.6964103774893
 20
276.5669699507855
 30
0.0
 10
304.5917709438355
 20
276.5661907326067
 30
0.0
 10
304.5463590927309
 20
276.5658525643018
 30
0.0
  0
LINE
  5
1CF4
102
{ACAD_REACTORS
330
1CF1
102
}
330
18
100
AcDbEntity
  8
ROGO
 62
     4
100
AcDbLine
 10
303.7037001293173
 20
277.5161700311023
 30
0.0
 11
302.968967580779
 21
276.0312339789745
 31
0.0
  0
LINE
  5
1CF5
102
{ACAD_REACTORS
330
1CF2
102
}
330
18
100
AcDbEntity
  8
ROGO
 62
     4
100
AcDbLine
 10
305.5600683605206
 20
277.5161700311023
 30
0.0
 11
305.0898601159957
 21
276.5658525643018
 31
0.0
  0
LINE
  5
1CF6
102
{ACAD_REACTORS
330
1CF2
102
}
330
18
100
AcDbEntity
  8
ROGO
 62
     4
100
AcDbLine
 10
306.4829092891781
 20
276.7835309966654
 30
0.0
 11
306.3752040252759
 21
276.5658525643018
 31
0.0
  0
LINE
  5
1CF7
102
{ACAD_REACTORS
330
1CED
102
}
330
18
100
AcDbEntity
  8
ROGO
 62
     4
100
AcDbLine
 10
307.2177496069891
 20
277.5161700311023
 30
0.0
 11
306.5324572124747
 21
276.5658525643018
 31
0.0
  0
LINE
  5
1CF8
102
{ACAD_REACTORS
330
1CED
102
}
330
18
100
AcDbEntity
  8
ROGO
 62
     4
100
AcDbLine
 10
307.1892384236158
 20
276.7467871301785
 30
0.0
 11
307.0587629917398
 21
276.5658525643018
 31
0.0
  0
LINE
  5
1CF9
102
{ACAD_REACTORS
330
1CF1
102
}
330
18
100
AcDbEntity
  8
ROGO
 62
     4
100
AcDbLine
 10
304.5463590929545
 20
276.5658525643018
 30
0.0
 11
303.901105936685
 21
276.5658525643018
 31
0.0
  0
LINE
  5
1CFA
102
{ACAD_REACTORS
330
1CEC
330
1CF1
102
}
330
18
100
AcDbEntity
  8
ROGO
 62
     4
100
AcDbLine
 10
303.9011059366851
 20
276.5658525643018
 30
0.0
 11
303.65922932355
 21
276.0312339789745
 31
0.0
  0
LINE
  5
1CFB
102
{ACAD_REACTORS
330
1CF2
102
}
330
18
100
AcDbEntity
  8
ROGO
 62
     4
100
AcDbLine
 10
305.0898601159957
 20
276.5658525643018
 30
0.0
 11
306.3752040252759
 21
276.5658525643018
 31
0.0
  0
LINE
  5
1CFC
102
{ACAD_REACTORS
330
1CED
102
}
330
18
100
AcDbEntity
  8
ROGO
 62
     4
100
AcDbLine
 10
306.5324572124747
 20
276.5658525643018
 30
0.0
 11
307.0587629917398
 21
276.5658525643018
 31
0.0
  0
LINE
  5
1CFD
102
{ACAD_REACTORS
330
1CF1
102
}
330
18
100
AcDbEntity
  8
ROGO
 62
     4
100
AcDbLine
 10
303.7037001293173
 20
277.5161700311023
 30
0.0
 11
304.870658380731
 21
277.5161700311023
 31
0.0
  0
LINE
  5
1CFE
102
{ACAD_REACTORS
330
1CF1
102
}
330
18
100
AcDbEntity
  8
ROGO
 62
     4
100
AcDbLine
 10
304.458604478289
 20
277.1486795408419
 30
0.0
 11
304.164793393497
 21
277.1486795408419
 31
0.0
  0
LINE
  5
1CFF
102
{ACAD_REACTORS
330
1CF1
102
}
330
18
100
AcDbEntity
  8
ROGO
 62
     4
100
AcDbLine
 10
304.4069843089167
 20
276.8959492753478
 30
0.0
 11
304.0504510523735
 21
276.8959492753479
 31
0.0
  0
LINE
  5
1D00
102
{ACAD_REACTORS
330
1CF1
102
}
330
18
100
AcDbEntity
  8
ROGO
 62
     4
100
AcDbLine
 10
304.164793393497
 20
277.1486795408419
 30
0.0
 11
304.0504510523735
 21
276.8959492753479
 31
0.0
  0
LINE
  5
1D01
102
{ACAD_REACTORS
330
1CF2
102
}
330
18
100
AcDbEntity
  8
ROGO
 62
     4
100
AcDbLine
 10
305.5600683605206
 20
277.5161700311023
 30
0.0
 11
306.8454122698008
 21
277.5161700311023
 31
0.0
  0
SPLINE
  5
1D02
102
{ACAD_REACTORS
330
1CF1
102
}
330
18
100
AcDbEntity
  8
ROGO
 62
     4
100
AcDbSpline
210
0.0
220
0.0
230
1.0
 70
     8
 71
     3
 72
    15
 73
    11
 74
     9
 42
0.0000000001
 43
0.0000000001
 44
0.0000000001
 40
0.0
 40
0.0
 40
0.0
 40
0.0
 40
0.1114278057886432
 40
0.1622327562563865
 40
0.2198997572250677
 40
0.259185199493265
 40
0.3213155338880433
 40
0.3585299069784071
 40
0.4223775764185746
 40
0.4436601464819452
 40
0.4436601464819452
 40
0.4436601464819452
 40
0.4436601464819452
 10
304.458604478289
 20
277.1486795408419
 30
0.0
 10
304.5004546013059
 20
277.1488712367443
 30
0.0
 10
304.5613860784954
 20
277.1491503354342
 30
0.0
 10
304.5947055803567
 20
277.0737779219433
 30
0.0
 10
304.5797701909431
 20
277.0252498456084
 30
0.0
 10
304.5609951891963
 20
276.9754266363203
 30
0.0
 10
304.5278155088528
 20
276.9415710141685
 30
0.0
 10
304.4832835179064
 20
276.9089623427664
 30
0.0
 10
304.441198658371
 20
276.9050149170785
 30
0.0
 10
304.413827181428
 20
276.8977624043882
 30
0.0
 10
304.4069843089167
 20
276.8959492753478
 30
0.0
 11
304.458604478289
 21
277.1486795408419
 31
0.0
 11
304.5670069230188
 21
277.1228906696086
 31
0.0
 11
304.5876550501329
 21
277.0764708695368
 31
0.0
 11
304.577331134989
 21
277.0197355209715
 31
0.0
 11
304.5618451138599
 21
276.9836311012449
 31
0.0
 11
304.5205488596316
 21
276.937211301173
 31
0.0
 11
304.4895768173735
 21
276.9165802041864
 31
0.0
 11
304.4276324360309
 21
276.9011070495945
 31
0.0
 11
304.4069843089167
 21
276.8959492753478
 31
0.0
  0
LINE
  5
1D03
102
{ACAD_REACTORS
330
1CF2
102
}
330
18
100
AcDbEntity
  8
ROGO
 62
     4
100
AcDbLine
 10
306.8454122698008
 20
277.5161700311023
 30
0.0
 11
306.7377015879314
 21
277.2984806487203
 31
0.0
  0
LINE
  5
1D04
102
{ACAD_REACTORS
330
1CF2
102
}
330
18
100
AcDbEntity
  8
ROGO
 62
     4
100
AcDbLine
 10
306.0621573091335
 20
277.2984806487203
 30
0.0
 11
305.9779409406566
 21
277.1282746030247
 31
0.0
  0
LINE
  5
1D05
102
{ACAD_REACTORS
330
1CF2
102
}
330
18
100
AcDbEntity
  8
ROGO
 62
     4
100
AcDbLine
 10
306.0621573091335
 20
277.2984806487203
 30
0.0
 11
306.7377015879314
 21
277.2984806487203
 31
0.0
  0
LINE
  5
1D06
102
{ACAD_REACTORS
330
1CF2
102
}
330
18
100
AcDbEntity
  8
ROGO
 62
     4
100
AcDbLine
 10
305.9779409406566
 20
277.1282746030247
 30
0.0
 11
306.6534852194545
 21
277.1282746030247
 31
0.0
  0
LINE
  5
1D07
102
{ACAD_REACTORS
330
1CF2
102
}
330
18
100
AcDbEntity
  8
ROGO
 62
     4
100
AcDbLine
 10
305.8073650103803
 20
276.7835309966654
 30
0.0
 11
306.4829092891781
 21
276.7835309966654
 31
0.0
  0
LINE
  5
1D08
102
{ACAD_REACTORS
330
1CF2
102
}
330
18
100
AcDbEntity
  8
ROGO
 62
     4
100
AcDbLine
 10
305.8915849441733
 20
276.9537442480668
 30
0.0
 11
306.5671292229712
 21
276.9537442480669
 31
0.0
  0
LINE
  5
1D09
102
{ACAD_REACTORS
330
1CF2
102
}
330
18
100
AcDbEntity
  8
ROGO
 62
     4
100
AcDbLine
 10
306.6534852194545
 20
277.1282746030247
 30
0.0
 11
306.5671292229712
 21
276.9537442480668
 31
0.0
  0
LINE
  5
1D0A
102
{ACAD_REACTORS
330
1CF2
102
}
330
18
100
AcDbEntity
  8
ROGO
 62
     4
100
AcDbLine
 10
305.8915849441733
 20
276.9537442480668
 30
0.0
 11
305.8073650103802
 21
276.7835309966654
 31
0.0
  0
HATCH
  5
1D0B
330
18
100
AcDbEntity
  8
ROGO
 62
     4
100
AcDbHatch
 10
0.0
 20
0.0
 30
0.0
210
0.0
220
0.0
230
0.9999999999999998
  2
SOLID
 70
     1
 71
     1
 91
        2
 92
        7
 72
     1
 73
     1
 93
        4
 10
310.8186740713084
 20
277.5161700311022
 42
0.0
 10
310.4344000715306
 20
277.5161700311022
 42
0.9597396185052668
 10
310.4344000715305
 20
276.5658525643017
 42
0.0
 10
310.8462896970353
 20
276.5658525643017
 42
0.9713627655772736
 97
        4
330
1D2B
330
1D13
330
1D18
330
1D14
 92
       22
 72
     1
 73
     1
 93
        8
 10
310.7602472609514
 20
277.0355068126355
 42
0.0
 10
310.7476005325027
 20
276.9450263348919
 42
-0.3696060376523694
 10
310.6447327183052
 20
276.892251298921
 42
0.0
 10
310.6102938300773
 20
276.8970649258863
 42
-0.3541938351274232
 10
310.5212500139603
 20
276.9784700125985
 42
0.0
 10
310.533896742409
 20
277.0689504903421
 42
-0.3439742752229287
 10
310.6450617354989
 20
277.1317687979641
 42
0.0
 10
310.6775755926167
 20
277.1272242383857
 42
-0.3460733018205655
 97
        8
330
1D23
330
1D29
330
1D25
330
1D28
330
1D24
330
1D27
330
1D22
330
1D26
 75
     0
 76
     1
 47
0.0514683685270805
 98
        2
 10
310.912090335265
 20
277.129406239612
 10
310.912090335265
 20
277.129406239612
450
        0
451
        0
460
0.0
461
0.0
452
        0
462
0.0
453
        0
470

  0
HATCH
  5
1D0C
330
18
100
AcDbEntity
  8
ROGO
 62
     4
100
AcDbHatch
 10
0.0
 20
0.0
 30
0.0
210
0.0
220
0.0
230
0.9999999999999998
  2
SOLID
 70
     1
 71
     1
 91
        1
 92
        5
 93
        8
 72
     1
 10
309.9527258512582
 20
277.5161700311022
 11
309.00103957787
 21
277.5161700311022
 72
     4
 94
        3
 73
     0
 74
     0
 95
       26
 96
       22
 40
0.0
 40
0.0
 40
0.0
 40
0.0
 40
0.7089867102952115
 40
1.183598414482279
 40
1.525832104103439
 40
1.781366926528389
 40
2.112809002752968
 40
2.354729406992515
 40
2.791581270399936
 40
3.147172406765291
 40
3.389031356825354
 40
3.626186440486682
 40
4.050410779375985
 40
4.350388020238963
 40
4.511948940797758
 40
4.741441456013356
 40
4.907163150576407
 40
5.147239172635527
 40
5.28310143501293
 40
5.578752957634333
 40
5.713750011164293
 40
5.713750011164293
 40
5.713750011164293
 40
5.713750011164293
 10
309.0010395778699
 20
277.5161700311022
 10
308.9425248714313
 20
277.5126789433739
 10
308.8448390999507
 20
277.5068508427338
 10
308.7375807171153
 20
277.441692527031
 10
308.6589969466002
 20
277.4038123456568
 10
308.6029510967716
 20
277.3523174662577
 10
308.5618692616542
 20
277.2991270174681
 10
308.5100778961889
 20
277.2357509877378
 10
308.4678435175916
 20
277.1619521656975
 10
308.4463361161654
 20
277.0806129982278
 10
308.4272850641091
 20
277.0157852098098
 10
308.413156484972
 20
276.9435430998167
 10
308.4167511954795
 20
276.8654962075789
 10
308.4218989854428
 20
276.7930102496539
 10
308.4448826158518
 20
276.7412661283318
 10
308.4710568997852
 20
276.7044278795956
 10
308.5031069520066
 20
276.6638546326769
 10
308.5381767179081
 20
276.636983102624
 10
308.5671822769017
 20
276.5883035202098
 10
308.6179555294365
 20
276.5820916544142
 10
308.6502290286847
 20
276.5697281874873
 10
308.6603459257253
 20
276.5658525643017
 72
     1
 10
308.6603459257253
 20
276.5658525643017
 11
309.4788668699144
 21
276.5658525643017
 72
     1
 10
309.4788668699144
 20
276.5658525643017
 11
309.6551712666937
 21
276.9194285316876
 72
     1
 10
309.6551712666937
 20
276.9194285316876
 11
309.0474976412569
 21
276.9194285316876
 72
     4
 94
        3
 73
     0
 74
     0
 95
       16
 96
       12
 40
0.0
 40
0.0
 40
0.0
 40
0.0
 40
0.2141121027475241
 40
0.4304326162973471
 40
0.5594580803306056
 40
0.6831669452691567
 40
0.8190286678446897
 40
0.9139043619204622
 40
1.003933161420314
 40
1.186498641432482
 40
1.560280494298353
 40
1.560280494298353
 40
1.560280494298353
 40
1.560280494298353
 10
309.0474976412571
 20
276.9194285316876
 10
309.0291680632385
 20
276.9248213623005
 10
308.9923198509193
 20
276.9356626466566
 10
308.9892359531043
 20
276.9882172104484
 10
308.9934373177148
 20
277.0256666376752
 10
309.0110326420872
 20
277.0529320076022
 10
309.0323788224194
 20
277.0727711516309
 10
309.0403269520864
 20
277.0986085347571
 10
309.0636897550925
 20
277.1181189915558
 10
309.1051182647574
 20
277.1509133440045
 10
309.1509310247465
 20
277.1578978083339
 10
309.181710319086
 20
277.1625903194039
 72
     1
 10
309.181710319086
 20
277.1625903194039
 11
309.7764195874437
 21
277.1625903194039
 72
     1
 10
309.7764195874437
 20
277.1625903194039
 11
309.9527258512582
 21
277.5161700311022
 97
        8
330
1D21
330
1D0E
330
1D15
330
1D11
330
1D20
330
1D1D
330
1D1F
330
1D1E
 75
     0
 76
     1
 47
0.0514683685270805
 98
        1
 10
309.3338795032442
 20
277.3046182218369
450
        0
451
        0
460
0.0
461
0.0
452
        0
462
0.0
453
        0
470

  0
SPLINE
  5
1D0D
102
{ACAD_REACTORS
330
1CE7
102
}
330
18
100
AcDbEntity
  8
ROGO
 62
     4
100
AcDbSpline
210
0.0
220
0.0
230
1.0
 70
     8
 71
     3
 72
    26
 73
    22
 74
    20
 42
0.0000000001
 43
0.0000000001
 44
0.0000000001
 40
0.0
 40
0.0
 40
0.0
 40
0.0
 40
0.1723984759424608
 40
0.2878059064036966
 40
0.3710240621887089
 40
0.4331603664333254
 40
0.5137544142125283
 40
0.572580212192407
 40
0.6788058922657624
 40
0.7652720686804436
 40
0.8240829233522806
 40
0.8817499774613361
 40
0.984905126098422
 40
1.057848128260907
 40
1.097133570529052
 40
1.152937380796412
 40
1.193234564309735
 40
1.251611879021434
 40
1.284648389624301
 40
1.356539542405996
 40
1.389365667278746
 40
1.389365667278746
 40
1.389365667278746
 40
1.389365667278746
 10
312.0630469869509
 20
277.5161700311023
 30
0.0
 10
312.0045322805123
 20
277.5126789433739
 30
0.0
 10
311.9068465090318
 20
277.5068508427338
 30
0.0
 10
311.7995881261963
 20
277.4416925270311
 30
0.0
 10
311.7210043556813
 20
277.4038123456568
 30
0.0
 10
311.6649585058527
 20
277.3523174662578
 30
0.0
 10
311.6238766707352
 20
277.2991270174682
 30
0.0
 10
311.57208530527
 20
277.2357509877378
 30
0.0
 10
311.5298509266728
 20
277.1619521656976
 30
0.0
 10
311.5083435252464
 20
277.0806129982279
 30
0.0
 10
311.4892924731902
 20
277.0157852098098
 30
0.0
 10
311.4751638940532
 20
276.9435430998167
 30
0.0
 10
311.4787586045603
 20
276.865496207579
 30
0.0
 10
311.4839063945238
 20
276.793010249654
 30
0.0
 10
311.5068900249328
 20
276.7412661283318
 30
0.0
 10
311.5330643088663
 20
276.7044278795956
 30
0.0
 10
311.5651143610878
 20
276.663854632677
 30
0.0
 10
311.6001841269891
 20
276.6369831026241
 30
0.0
 10
311.6291896859828
 20
276.5883035202097
 30
0.0
 10
311.6799629385176
 20
276.5820916544142
 30
0.0
 10
311.7122364377657
 20
276.5697281874873
 30
0.0
 10
311.7223533348064
 20
276.5658525643018
 30
0.0
 11
312.0630469869509
 21
277.5161700311023
 31
0.0
 11
311.8927001608786
 21
277.4896522379364
 31
0.0
 11
311.7894595253077
 21
277.4380746636178
 31
0.0
 11
311.7171912288213
 21
277.3968126377926
 31
0.0
 11
311.6707331654341
 21
277.3555504438193
 31
0.0
 11
311.6191129960617
 21
277.2936573210074
 31
0.0
 11
311.5829788478186
 21
277.2472375209356
 31
0.0
 11
311.5313583816199
 21
277.1543977526437
 31
0.0
 11
311.5055484453469
 21
277.0718735328452
 31
0.0
 11
311.4900624242178
 21
277.0151381842799
 31
0.0
 11
311.4797382122476
 21
276.9584028357148
 31
0.0
 11
311.4797382122476
 21
276.8552476870777
 31
0.0
 11
311.4900624242178
 21
276.7830390157724
 31
0.0
 11
311.5055484453469
 21
276.7469345960458
 31
0.0
 11
311.536520487605
 21
276.7005147959739
 31
0.0
 11
311.5623307207044
 21
276.6695681504939
 31
0.0
 11
311.6036266781064
 21
276.6283061246687
 31
0.0
 11
311.6242748052206
 21
276.6025172534354
 31
0.0
 11
311.6913812925483
 21
276.5767285503502
 31
0.0
 11
311.7223533348064
 21
276.5658525643018
 31
0.0
  0
SPLINE
  5
1D0E
102
{ACAD_REACTORS
330
1D0C
102
}
330
18
100
AcDbEntity
  8
ROGO
 62
     4
100
AcDbSpline
210
0.0
220
0.0
230
1.0
 70
     8
 71
     3
 72
    26
 73
    22
 74
    20
 42
0.0000000001
 43
0.0000000001
 44
0.0000000001
 40
0.0
 40
0.0
 40
0.0
 40
0.0
 40
0.1723984759425082
 40
0.2878059064037186
 40
0.3710240621887309
 40
0.4331603664333474
 40
0.5137544142125066
 40
0.572580212192465
 40
0.6788058922657929
 40
0.7652720686804741
 40
0.8240829233522561
 40
0.8817499774613677
 40
0.9849051260984536
 40
1.057848128260939
 40
1.097133570529084
 40
1.152937380796444
 40
1.19323456430973
 40
1.251611879021469
 40
1.284648389624336
 40
1.356539542406011
 40
1.38936566727878
 40
1.38936566727878
 40
1.38936566727878
 40
1.38936566727878
 10
309.0010395778699
 20
277.5161700311023
 30
0.0
 10
308.9425248714313
 20
277.5126789433739
 30
0.0
 10
308.8448390999507
 20
277.5068508427339
 30
0.0
 10
308.7375807171152
 20
277.4416925270311
 30
0.0
 10
308.6589969466003
 20
277.4038123456568
 30
0.0
 10
308.6029510967716
 20
277.3523174662578
 30
0.0
 10
308.5618692616541
 20
277.2991270174682
 30
0.0
 10
308.5100778961889
 20
277.2357509877379
 30
0.0
 10
308.4678435175918
 20
277.1619521656976
 30
0.0
 10
308.4463361161653
 20
277.0806129982279
 30
0.0
 10
308.4272850641092
 20
277.0157852098098
 30
0.0
 10
308.413156484972
 20
276.9435430998167
 30
0.0
 10
308.4167511954795
 20
276.8654962075791
 30
0.0
 10
308.4218989854427
 20
276.7930102496539
 30
0.0
 10
308.4448826158518
 20
276.7412661283318
 30
0.0
 10
308.4710568997851
 20
276.7044278795956
 30
0.0
 10
308.5031069520068
 20
276.663854632677
 30
0.0
 10
308.538176717908
 20
276.6369831026241
 30
0.0
 10
308.5671822769017
 20
276.5883035202098
 30
0.0
 10
308.6179555294365
 20
276.5820916544143
 30
0.0
 10
308.6502290286848
 20
276.5697281874873
 30
0.0
 10
308.6603459257253
 20
276.5658525643018
 30
0.0
 11
309.0010395778699
 21
277.5161700311023
 31
0.0
 11
308.8306927517975
 21
277.4896522379364
 31
0.0
 11
308.7274521162267
 21
277.4380746636178
 31
0.0
 11
308.6551838197402
 21
277.3968126377926
 31
0.0
 11
308.608725756353
 21
277.3555504438193
 31
0.0
 11
308.5571055869807
 21
277.2936573210075
 31
0.0
 11
308.5209714387374
 21
277.2472375209356
 31
0.0
 11
308.4693509725389
 21
277.1543977526437
 31
0.0
 11
308.4435410362659
 21
277.0718735328452
 31
0.0
 11
308.4280550151368
 21
277.01513818428
 31
0.0
 11
308.4177308031665
 21
276.9584028357148
 31
0.0
 11
308.4177308031665
 21
276.8552476870777
 31
0.0
 11
308.4280550151368
 21
276.7830390157724
 31
0.0
 11
308.4435410362659
 21
276.7469345960458
 31
0.0
 11
308.474513078524
 21
276.7005147959739
 31
0.0
 11
308.5003233116233
 21
276.6695681504939
 31
0.0
 11
308.5416192690253
 21
276.6283061246687
 31
0.0
 11
308.5622673961395
 21
276.6025172534354
 31
0.0
 11
308.6293738834672
 21
276.5767285503502
 31
0.0
 11
308.6603459257253
 21
276.5658525643018
 31
0.0
  0
LINE
  5
1D0F
102
{ACAD_REACTORS
330
1CED
102
}
330
18
100
AcDbEntity
  8
ROGO
 62
     4
100
AcDbLine
 10
307.7669959343283
 20
277.5161700311023
 30
0.0
 11
308.4522883288427
 21
276.5658525643018
 31
0.0
  0
LINE
  5
1D10
102
{ACAD_REACTORS
330
1CED
102
}
330
18
100
AcDbEntity
  8
ROGO
 62
     4
100
AcDbLine
 10
307.7955071177016
 20
276.7467871301785
 30
0.0
 11
307.9259825495776
 21
276.5658525643018
 31
0.0
  0
LINE
  5
1D11
102
{ACAD_REACTORS
330
1D0C
102
}
330
18
100
AcDbEntity
  8
ROGO
 62
     4
100
AcDbLine
 10
309.6551712666937
 20
276.9194285316876
 30
0.0
 11
309.4788668699144
 21
276.5658525643018
 31
0.0
  0
LINE
  5
1D12
102
{ACAD_REACTORS
330
1CE7
102
}
330
18
100
AcDbEntity
  8
ROGO
 62
     4
100
AcDbLine
 10
312.7171786757747
 20
276.9194285316876
 30
0.0
 11
312.5408742789955
 21
276.5658525643017
 31
0.0
  0
ARC
  5
1D13
102
{ACAD_REACTORS
330
1D0B
102
}
330
18
100
AcDbEntity
  8
ROGO
 62
     4
100
AcDbCircle
 10
310.453931389734
 20
277.041011297702
 30
0.0
 40
0.4755599797263065
100
AcDbArc
 50
92.3538081120337
 51
270.0
  0
ARC
  5
1D14
102
{ACAD_REACTORS
330
1D0B
102
}
330
18
100
AcDbEntity
  8
ROGO
 62
     4
100
AcDbCircle
 10
310.8186740713084
 20
277.0406100513759
 30
0.0
 40
0.4755599797263065
100
AcDbArc
 50
273.3290215232082
 51
90.0000000000006
  0
LINE
  5
1D15
102
{ACAD_REACTORS
330
1D0C
102
}
330
18
100
AcDbEntity
  8
ROGO
 62
     4
100
AcDbLine
 10
308.6603459257253
 20
276.5658525643018
 30
0.0
 11
309.4788668699144
 21
276.5658525643018
 31
0.0
  0
LINE
  5
1D16
102
{ACAD_REACTORS
330
1CED
102
}
330
18
100
AcDbEntity
  8
ROGO
 62
     4
100
AcDbLine
 10
308.4522883288427
 20
276.5658525643018
 30
0.0
 11
307.9259825495776
 21
276.5658525643018
 31
0.0
  0
LINE
  5
1D17
330
18
100
AcDbEntity
  8
ROGO
 62
     4
100
AcDbLine
 10
310.4344000715309
 20
276.5658525643018
 30
0.0
 11
310.846289697035
 21
276.5658525643018
 31
0.0
  0
LINE
  5
1D18
102
{ACAD_REACTORS
330
1D0B
102
}
330
18
100
AcDbEntity
  8
ROGO
 62
     4
100
AcDbLine
 10
310.4344000715306
 20
276.5658525643018
 30
0.0
 11
310.8462896970353
 21
276.5658525643018
 31
0.0
  0
LINE
  5
1D19
102
{ACAD_REACTORS
330
1CE7
102
}
330
18
100
AcDbEntity
  8
ROGO
 62
     4
100
AcDbLine
 10
311.7223533348063
 20
276.5658525643018
 30
0.0
 11
312.5408742789955
 21
276.5658525643018
 31
0.0
  0
LINE
  5
1D1A
102
{ACAD_REACTORS
330
1CED
102
}
330
18
100
AcDbEntity
  8
ROGO
 62
     4
100
AcDbLine
 10
307.4923727706587
 20
277.1671534834139
 30
0.0
 11
307.3268547960806
 21
276.9376242728608
 31
0.0
  0
LINE
  5
1D1B
102
{ACAD_REACTORS
330
1CED
102
}
330
18
100
AcDbEntity
  8
ROGO
 62
     4
100
AcDbLine
 10
307.3268547960806
 20
276.9376242728608
 30
0.0
 11
307.6578907452367
 21
276.9376242728608
 31
0.0
  0
LINE
  5
1D1C
102
{ACAD_REACTORS
330
1CED
102
}
330
18
100
AcDbEntity
  8
ROGO
 62
     4
100
AcDbLine
 10
307.4923727706587
 20
277.1671534834139
 30
0.0
 11
307.6578907452367
 21
276.9376242728608
 31
0.0
  0
SPLINE
  5
1D1D
102
{ACAD_REACTORS
330
1D0C
102
}
330
18
100
AcDbEntity
  8
ROGO
 62
     4
100
AcDbSpline
210
0.0
220
0.0
230
1.0
 70
     8
 71
     3
 72
    16
 73
    12
 74
    10
 42
0.0000000001
 43
0.0000000001
 44
0.0000000001
 40
0.0
 40
0.0
 40
0.0
 40
0.0
 40
0.0908894635587698
 40
0.1352824120537892
 40
0.1571739758861179
 40
0.1802441192684364
 40
0.2132804986121064
 40
0.2433617673669269
 40
0.2747358298621628
 40
0.3273367126566702
 40
0.3794005943324437
 40
0.3794005943324437
 40
0.3794005943324437
 40
0.3794005943324437
 10
309.181710319086
 20
277.1625903194039
 30
0.0
 10
309.1509310247464
 20
277.1578978083339
 30
0.0
 10
309.1051182647574
 20
277.1509133440047
 30
0.0
 10
309.0636897550926
 20
277.1181189915558
 30
0.0
 10
309.0403269520864
 20
277.0986085347572
 30
0.0
 10
309.0323788224193
 20
277.0727711516309
 30
0.0
 10
309.0110326420872
 20
277.0529320076023
 30
0.0
 10
308.9934373177148
 20
277.0256666376753
 30
0.0
 10
308.9892359531041
 20
276.9882172104484
 30
0.0
 10
308.9923198509193
 20
276.9356626466567
 30
0.0
 10
309.0291680632386
 20
276.9248213623006
 30
0.0
 10
309.0474976412571
 20
276.9194285316876
 30
0.0
 11
309.181710319086
 21
277.1625903194039
 31
0.0
 11
309.0939560014705
 21
277.1389244299037
 31
0.0
 11
309.0578218532272
 21
277.1131357268185
 31
0.0
 11
309.0423358320982
 21
277.0976624040785
 31
0.0
 11
309.0320116201279
 21
277.0770313070918
 31
0.0
 11
309.0113634930138
 21
277.0512426040066
 31
0.0
 11
308.9958774718847
 21
277.0254537327733
 31
0.0
 11
308.9907153658996
 21
276.9945072554414
 31
0.0
 11
309.0010395778699
 21
276.9429295129748
 31
0.0
 11
309.0474976412571
 21
276.9194285316876
 31
0.0
  0
LINE
  5
1D1E
102
{ACAD_REACTORS
330
1D0C
102
}
330
18
100
AcDbEntity
  8
ROGO
 62
     4
100
AcDbLine
 10
309.9527258512582
 20
277.5161700311023
 30
0.0
 11
309.7764195874437
 21
277.1625903194039
 31
0.0
  0
LINE
  5
1D1F
102
{ACAD_REACTORS
330
1D0C
102
}
330
18
100
AcDbEntity
  8
ROGO
 62
     4
100
AcDbLine
 10
309.181710319086
 20
277.1625903194039
 30
0.0
 11
309.7764195874437
 21
277.1625903194039
 31
0.0
  0
LINE
  5
1D20
102
{ACAD_REACTORS
330
1D0C
102
}
330
18
100
AcDbEntity
  8
ROGO
 62
     4
100
AcDbLine
 10
309.047497641257
 20
276.9194285316876
 30
0.0
 11
309.6551712666937
 21
276.9194285316876
 31
0.0
  0
LINE
  5
1D21
102
{ACAD_REACTORS
330
1D0C
102
}
330
18
100
AcDbEntity
  8
ROGO
 62
     4
100
AcDbLine
 10
309.0010395778701
 20
277.5161700311023
 30
0.0
 11
309.9527258512582
 21
277.5161700311023
 31
0.0
  0
LINE
  5
1D22
102
{ACAD_REACTORS
330
1D0B
102
}
330
18
100
AcDbEntity
  8
ROGO
 62
     4
100
AcDbLine
 10
310.6431367043886
 20
277.132037865351
 30
0.0
 11
310.6775755926167
 21
277.1272242383858
 31
0.0
  0
LINE
  5
1D23
102
{ACAD_REACTORS
330
1D0B
102
}
330
18
100
AcDbEntity
  8
ROGO
 62
     4
100
AcDbLine
 10
310.7602472609514
 20
277.0355068126356
 30
0.0
 11
310.7476005325028
 21
276.9450263348921
 31
0.0
  0
LINE
  5
1D24
102
{ACAD_REACTORS
330
1D0B
102
}
330
18
100
AcDbEntity
  8
ROGO
 62
     4
100
AcDbLine
 10
310.5212500139603
 20
276.9784700125986
 30
0.0
 11
310.533896742409
 21
277.068950490342
 31
0.0
  0
LINE
  5
1D25
102
{ACAD_REACTORS
330
1D0B
102
}
330
18
100
AcDbEntity
  8
ROGO
 62
     4
100
AcDbLine
 10
310.6102938300769
 20
276.8970649258864
 30
0.0
 11
310.644732718305
 21
276.8922512989211
 31
0.0
  0
ARC
  5
1D26
102
{ACAD_REACTORS
330
1D0B
102
}
330
18
100
AcDbEntity
  8
ROGO
 62
     4
100
AcDbCircle
 10
310.6605908851979
 20
277.0287969276497
 30
0.0
 40
0.0998820093152177
100
AcDbArc
 50
3.851923331663601
 51
80.20940670206341
  0
ARC
  5
1D27
102
{ACAD_REACTORS
330
1D0B
102
}
330
18
100
AcDbEntity
  8
ROGO
 62
     4
100
AcDbCircle
 10
310.6297335225721
 20
277.0291245642911
 30
0.0
 40
0.1037824301982561
100
AcDbArc
 50
82.57970078354313
 51
157.4341870372611
  0
ARC
  5
1D28
102
{ACAD_REACTORS
330
1D0B
102
}
330
18
100
AcDbEntity
  8
ROGO
 62
     4
100
AcDbCircle
 10
310.6160216335451
 20
276.9927324137415
 30
0.0
 40
0.0958388019806556
100
AcDbArc
 50
188.5583509056651
 51
266.5736774635929
  0
ARC
  5
1D29
102
{ACAD_REACTORS
330
1D0B
102
}
330
18
100
AcDbEntity
  8
ROGO
 62
     4
100
AcDbCircle
 10
310.6653463016453
 20
276.9787130410088
 30
0.0
 40
0.0888850530907803
100
AcDbArc
 50
256.5902863289752
 51
337.7287536965499
  0
LINE
  5
1D2A
330
18
100
AcDbEntity
  8
ROGO
 62
     4
100
AcDbLine
 10
310.4344000715307
 20
277.5161700311023
 30
0.0
 11
310.7037134806772
 21
277.5161700311023
 31
0.0
  0
LINE
  5
1D2B
102
{ACAD_REACTORS
330
1D0B
102
}
330
18
100
AcDbEntity
  8
ROGO
 62
     4
100
AcDbLine
 10
310.4344000715306
 20
277.5161700311023
 30
0.0
 11
310.8186740713084
 21
277.5161700311023
 31
0.0
  0
SPLINE
  5
1D2C
102
{ACAD_REACTORS
330
1CE7
102
}
330
18
100
AcDbEntity
  8
ROGO
 62
     4
100
AcDbSpline
210
0.0
220
0.0
230
1.0
 70
     8
 71
     3
 72
    16
 73
    12
 74
    10
 42
0.0000000001
 43
0.0000000001
 44
0.0000000001
 40
0.0
 40
0.0
 40
0.0
 40
0.0
 40
0.0908894635588099
 40
0.1352824120538293
 40
0.1571739758861982
 40
0.1802441192684659
 40
0.2132804986121358
 40
0.2433617673669563
 40
0.2747358298622484
 40
0.3273367126567001
 40
0.3794005943324992
 40
0.3794005943324992
 40
0.3794005943324992
 40
0.3794005943324992
 10
312.2437177281671
 20
277.1625903194039
 30
0.0
 10
312.2129384338277
 20
277.1578978083339
 30
0.0
 10
312.1671256738385
 20
277.1509133440046
 30
0.0
 10
312.1256971641734
 20
277.1181189915559
 30
0.0
 10
312.1023343611676
 20
277.0986085347571
 30
0.0
 10
312.0943862315004
 20
277.072771151631
 30
0.0
 10
312.0730400511683
 20
277.0529320076022
 30
0.0
 10
312.0554447267957
 20
277.0256666376753
 30
0.0
 10
312.0512433621854
 20
276.9882172104484
 30
0.0
 10
312.0543272600004
 20
276.9356626466567
 30
0.0
 10
312.0911754723195
 20
276.9248213623006
 30
0.0
 10
312.1095050503381
 20
276.9194285316876
 30
0.0
 11
312.2437177281671
 21
277.1625903194039
 31
0.0
 11
312.1559634105515
 21
277.1389244299037
 31
0.0
 11
312.1198292623083
 21
277.1131357268185
 31
0.0
 11
312.1043432411793
 21
277.0976624040784
 31
0.0
 11
312.094019029209
 21
277.0770313070918
 31
0.0
 11
312.0733709020949
 21
277.0512426040066
 31
0.0
 11
312.0578848809657
 21
277.0254537327733
 31
0.0
 11
312.0527227749806
 21
276.9945072554413
 31
0.0
 11
312.0630469869509
 21
276.9429295129748
 31
0.0
 11
312.1095050503381
 21
276.9194285316876
 31
0.0
  0
LINE
  5
1D2D
102
{ACAD_REACTORS
330
1CE7
102
}
330
18
100
AcDbEntity
  8
ROGO
 62
     4
100
AcDbLine
 10
312.1095050503381
 20
276.9194285316876
 30
0.0
 11
312.7171786757748
 21
276.9194285316876
 31
0.0
  0
LINE
  5
1D2E
102
{ACAD_REACTORS
330
1CE7
102
}
330
18
100
AcDbEntity
  8
ROGO
 62
     4
100
AcDbLine
 10
312.243717728167
 20
277.1625903194039
 30
0.0
 11
312.8384269965248
 21
277.1625903194039
 31
0.0
  0
LINE
  5
1D2F
102
{ACAD_REACTORS
330
1CE6
102
}
330
18
100
AcDbEntity
  8
ROGO
 62
     4
100
AcDbLine
 10
313.5839758032237
 20
276.7737020050384
 30
0.0
 11
313.9541943405041
 21
276.0312339789745
 31
0.0
  0
LINE
  5
1D30
102
{ACAD_REACTORS
330
1CE6
102
}
330
18
100
AcDbEntity
  8
ROGO
 62
     4
100
AcDbLine
 10
313.213769237684
 20
276.4188190777862
 30
0.0
 11
313.4070316857848
 21
276.0312339789745
 31
0.0
  0
LINE
  5
1D31
102
{ACAD_REACTORS
330
1CE6
102
}
330
18
100
AcDbEntity
  8
ROGO
 62
     4
100
AcDbLine
 10
313.213769237684
 20
276.4188190777862
 30
0.0
 11
313.0205067895831
 21
276.0312339789745
 31
0.0
  0
LINE
  5
1D32
102
{ACAD_REACTORS
330
1CE6
102
}
330
18
100
AcDbEntity
  8
ROGO
 62
     4
100
AcDbLine
 10
313.4070316857848
 20
276.0312339789745
 30
0.0
 11
313.9541943405041
 21
276.0312339789745
 31
0.0
  0
LINE
  5
1D33
102
{ACAD_REACTORS
330
1CE6
102
}
330
18
100
AcDbEntity
  8
ROGO
 62
     4
100
AcDbLine
 10
313.5839758032237
 20
276.7737020050384
 30
0.0
 11
314.4834636379944
 21
277.5161700311023
 31
0.0
  0
LINE
  5
1D34
102
{ACAD_REACTORS
330
1CE6
102
}
330
18
100
AcDbEntity
  8
ROGO
 62
     4
100
AcDbLine
 10
313.9363009832752
 20
277.5161700311023
 30
0.0
 11
314.4834636379944
 21
277.5161700311023
 31
0.0
  0
LINE
  5
1D35
102
{ACAD_REACTORS
330
1CE6
102
}
330
18
100
AcDbEntity
  8
ROGO
 62
     4
100
AcDbLine
 10
313.213769237684
 20
277.5161700311023
 30
0.0
 11
313.7609438641439
 21
277.5161700311023
 31
0.0
  0
LINE
  5
1D36
102
{ACAD_REACTORS
330
1CE6
102
}
330
18
100
AcDbEntity
  8
ROGO
 62
     4
100
AcDbLine
 10
313.7609438641439
 20
277.5161700311023
 30
0.0
 11
313.6801032030477
 21
277.3540452317589
 31
0.0
  0
LINE
  5
1D37
102
{ACAD_REACTORS
330
1CE6
102
}
330
18
100
AcDbEntity
  8
ROGO
 62
     4
100
AcDbLine
 10
313.6801032030477
 20
277.3540452317589
 30
0.0
 11
313.9363009832752
 21
277.5161700311023
 31
0.0
  0
LINE
  5
1D38
330
18
100
AcDbEntity
  8
0
  6
ByBlock
 62
     2
100
AcDbLine
 10
329.5260694536606
 20
281.0969163099954
 30
0.0
 11
339.5884837299142
 21
281.0969163099954
 31
0.0
  0
LINE
  5
1D39
330
18
100
AcDbEntity
  8
0
  6
ByBlock
 62
     2
100
AcDbLine
 10
333.2940970699295
 20
231.1969163099954
 30
0.0
 11
339.5884837299142
 21
231.1969163099954
 31
0.0
  0
LINE
  5
1D3A
330
18
100
AcDbEntity
  8
0
  6
ByBlock
 62
     2
100
AcDbLine
 10
338.3384837299142
 20
278.5969163099954
 30
0.0
 11
338.3384837299142
 21
233.6969163099954
 31
0.0
  0
INSERT
  5
1D3B
330
18
100
AcDbEntity
  8
0
  6
ByBlock
 62
     2
100
AcDbBlockReference
  2
_OPEN
 10
338.3384837299142
 20
281.0969163099954
 30
0.0
 41
2.5
 42
2.5
 43
2.5
 50
90.0
  0
INSERT
  5
1D3C
330
18
100
AcDbEntity
  8
0
  6
ByBlock
 62
     2
100
AcDbBlockReference
  2
_OPEN
 10
338.3384837299142
 20
231.1969163099954
 30
0.0
 41
2.5
 42
2.5
 43
2.5
 50
270.0
  0
MTEXT
  5
1D3D
330
18
100
AcDbEntity
  8
0
  6
ByBlock
 62
     6
100
AcDbMText
 10
336.4634837299142
 20
256.1469163099954
 30
0.0
 40
2.5
 41
0.0
 71
     5
 72
     1
  1
\A1;49.9
  7
STYLE3
 11
0.0000000000000001
 21
1.0
 31
0.0
 73
     1
 44
1.0
  0
POINT
  5
1D3E
330
18
100
AcDbEntity
  8
DEFPOINTS
  6
ByBlock
 62
     0
100
AcDbPoint
 10
329.5260694536606
 20
281.0969163099954
 30
0.0
  0
POINT
  5
1D3F
330
18
100
AcDbEntity
  8
DEFPOINTS
  6
ByBlock
 62
     0
100
AcDbPoint
 10
333.2940970699295
 20
231.1969163099954
 30
0.0
  0
POINT
  5
1D40
330
18
100
AcDbEntity
  8
DEFPOINTS
  6
ByBlock
 62
     0
100
AcDbPoint
 10
338.3384837299142
 20
231.1969163099954
 30
0.0
  0
LINE
  5
1D41
330
18
100
AcDbEntity
  8
文字
 62
     2
100
AcDbLine
 10
382.5503696158731
 20
254.2341043274757
 30
0.0
 11
375.7943252875086
 21
242.3071515154924
 31
0.0
1001
ACAD
1000
DSTYLE
1002
{
1070
   271
1070
     2
1002
}
  0
LINE
  5
1D42
330
18
100
AcDbEntity
  8
文字
 62
     2
100
AcDbLine
 10
375.7943252875086
 20
242.3071515154924
 30
0.0
 11
370.8836110017943
 21
242.3071515154924
 31
0.0
1001
ACAD
1000
DSTYLE
1002
{
1070
   271
1070
     2
1002
}
  0
TEXT
  5
1D43
330
18
100
AcDbEntity
  8
外形線
 62
     6
100
AcDbText
 10
371.9530076650461
 20
243.0076543559347
 30
0.0
 40
2.5
  1
C
  7
STYLE3
100
AcDbText
  0
LINE
  5
1D44
330
18
100
AcDbEntity
  8
0
  6
ByBlock
 62
     2
100
AcDbLine
 10
308.5736145639469
 20
314.0969163099954
 30
0.0
 11
333.2940970699295
 21
314.0969163099954
 31
0.0
  0
LINE
  5
1D45
330
18
100
AcDbEntity
  8
0
  6
ByBlock
 62
     2
100
AcDbLine
 10
308.5736145639469
 20
298.5969163099954
 30
0.0
 11
333.2940970699295
 21
298.5969163099954
 31
0.0
  0
LINE
  5
1D46
330
18
100
AcDbEntity
  8
0
  6
ByBlock
 62
     2
100
AcDbLine
 10
332.0440970699295
 20
311.5969163099954
 30
0.0
 11
332.0440970699295
 21
301.0969163099954
 31
0.0
  0
INSERT
  5
1D47
330
18
100
AcDbEntity
  8
0
  6
ByBlock
 62
     2
100
AcDbBlockReference
  2
_OPEN
 10
332.0440970699295
 20
314.0969163099954
 30
0.0
 41
2.5
 42
2.5
 43
2.5
 50
90.0
  0
INSERT
  5
1D48
330
18
100
AcDbEntity
  8
0
  6
ByBlock
 62
     2
100
AcDbBlockReference
  2
_OPEN
 10
332.0440970699295
 20
298.5969163099954
 30
0.0
 41
2.5
 42
2.5
 43
2.5
 50
270.0
  0
MTEXT
  5
1D49
330
18
100
AcDbEntity
  8
0
  6
ByBlock
 62
     6
100
AcDbMText
 10
330.1690970699295
 20
306.3469163099954
 30
0.0
 40
2.5
 41
0.0
 71
     5
 72
     1
  1
\A1;15.5
  7
STYLE3
 11
0.0000000000000001
 21
1.0
 31
0.0
 73
     1
 44
1.0
  0
POINT
  5
1D4A
330
18
100
AcDbEntity
  8
DEFPOINTS
  6
ByBlock
 62
     0
100
AcDbPoint
 10
308.5736145639469
 20
314.0969163099954
 30
0.0
  0
POINT
  5
1D4B
330
18
100
AcDbEntity
  8
DEFPOINTS
  6
ByBlock
 62
     0
100
AcDbPoint
 10
308.5736145639469
 20
298.5969163099954
 30
0.0
  0
POINT
  5
1D4C
330
18
100
AcDbEntity
  8
DEFPOINTS
  6
ByBlock
 62
     0
100
AcDbPoint
 10
332.0440970699295
 20
298.5969163099954
 30
0.0
  0
TEXT
  5
1D4D
330
18
100
AcDbEntity
  8
外形線
 62
     6
100
AcDbText
 10
375.8355925273531
 20
313.7517270343886
 30
0.0
 40
2.5
  1
B
  7
STYLE3
100
AcDbText
  0
INSERT
  5
22B9
330
18
100
AcDbEntity
  8
目盛
100
AcDbBlockReference
  2
PC_PCN針
 10
308.5736145639469
 20
281.0969163099954
 30
0.0
 50
295.7142857142856
  0
TEXT
  5
2325
330
18
100
AcDbEntity
  8
文字
100
AcDbText
 10
303.9906558327176
 20
356.7165169728391
 30
0.0
 40
4.0
  1
Model No.PCN-S New Pic Test Indicator
  7
STYLE3
100
AcDbText
  0
LINE
  5
2326
330
18
100
AcDbEntity
  8
外形線
100
AcDbLine
 10
303.0219348327177
 20
354.5869309728391
 30
0.0
 11
423.0219348327176
 21
354.5869309728391
 31
0.0
  0
LINE
  5
2327
330
18
100
AcDbEntity
  8
外形線
100
AcDbLine
 10
303.0219348327177
 20
355.5869309728391
 30
0.0
 11
423.0219348327176
 21
355.5869309728391
 31
0.0
  0
LINE
  5
232E
330
18
100
AcDbEntity
  8
外形線
100
AcDbLine
 10
350.3332308327176
 20
192.648115972839
 30
0.0
 11
491.1246488327176
 21
192.648115972839
 31
0.0
  0
LINE
  5
232F
330
18
100
AcDbEntity
  8
外形線
100
AcDbLine
 10
350.3332308327176
 20
181.8679099728391
 30
0.0
 11
491.1246488327176
 21
181.8679099728391
 31
0.0
  0
TEXT
  5
2330
330
18
100
AcDbEntity
  8
0
  6
Continuous
100
AcDbText
 10
351.7906978327176
 20
183.765899972839
 30
0.0
 40
2.1
  1
Design and specifications are subject to change without notice for future improvement.
  7
STYLE3
100
AcDbText
  0
TEXT
  5
2331
330
18
100
AcDbEntity
  8
0
  6
Continuous
100
AcDbText
 10
352.0821918327176
 20
187.695047972839
 30
0.0
 40
3.5
  1
仕様及び外観は予告なく変更される場合がございますのでご了承下さい。
  7
STYLE3
100
AcDbText
  0
TEXT
  5
2332
330
18
100
AcDbEntity
  8
0
  6
Continuous
100
AcDbText
 10
351.4992068327176
 20
174.001271972839
 30
0.0
 40
2.1
  1
3RD Angle Projection
  7
STYLE3
100
AcDbText
  0
TEXT
  5
2333
330
18
100
AcDbEntity
  8
0
  6
Continuous
100
AcDbText
 10
354.1226498327176
 20
177.4975549728391
 30
0.0
 40
3.0
  1
三　　角　　法
  7
STYLE3
100
AcDbText
  0
LINE
  5
2334
330
18
100
AcDbEntity
  8
外形線
100
AcDbLine
 10
350.3332308327176
 20
172.253131972839
 30
0.0
 11
350.3332308327176
 21
192.648115972839
 31
0.0
  0
LINE
  5
2335
330
18
100
AcDbEntity
  8
外形線
100
AcDbLine
 10
452.3559978327176
 20
181.8679099728391
 30
0.0
 11
452.3559978327176
 21
172.253131972839
 31
0.0
  0
LINE
  5
2336
330
18
100
AcDbEntity
  8
外形線
100
AcDbLine
 10
422.6236478327176
 20
181.8679099728391
 30
0.0
 11
422.6236478327176
 21
172.253131972839
 31
0.0
  0
LINE
  5
2337
330
18
100
AcDbEntity
  8
外形線
100
AcDbLine
 10
403.0935758327175
 20
181.8679099728391
 30
0.0
 11
403.0935758327175
 21
172.253131972839
 31
0.0
  0
LINE
  5
2338
330
18
100
AcDbEntity
  8
外形線
100
AcDbLine
 10
385.6039588327176
 20
181.8679099728391
 30
0.0
 11
385.6039588327176
 21
172.253131972839
 31
0.0
  0
TEXT
  5
2339
330
18
100
AcDbEntity
  8
0
  6
Continuous
100
AcDbText
 10
387.0614278327177
 20
177.503509972839
 30
0.0
 40
3.0
  1
単位
  7
STYLE3
100
AcDbText
  0
TEXT
  5
233A
330
18
100
AcDbEntity
  8
0
  6
Continuous
100
AcDbText
 10
387.2331488327176
 20
174.001272972839
 30
0.0
 40
2.1
  1
Unit
  7
STYLE3
100
AcDbText
  0
TEXT
  5
233B
330
18
100
AcDbEntity
  8
0
  6
Continuous
100
AcDbText
 10
404.3793238327175
 20
177.2121519728391
 30
0.0
 40
3.0
  1
尺 度
  7
STYLE3
100
AcDbText
  0
TEXT
  5
233C
330
18
100
AcDbEntity
  8
0
  6
Continuous
100
AcDbText
 10
395.1034758327176
 20
175.7494159728391
 30
0.0
 40
2.399999999999999
  1
mm
  7
STYLE3
100
AcDbText
  0
TEXT
  5
233D
330
18
100
AcDbEntity
  8
0
  6
Continuous
100
AcDbText
 10
404.8425388327175
 20
174.2926299728391
 30
0.0
 40
2.1
  1
Scale
  7
STYLE3
100
AcDbText
  0
TEXT
  5
233E
330
18
100
AcDbEntity
  8
0
  6
Continuous
100
AcDbText
 10
414.4618278327176
 20
176.0407729728391
 30
0.0
 40
2.399999999999999
  1
1/1
  7
STYLE3
100
AcDbText
  0
TEXT
  5
233F
330
18
100
AcDbEntity
  8
0
  6
Continuous
100
AcDbText
 10
424.5555988327176
 20
174.001273972839
 30
0.0
 40
2.1
  1
Date
  7
STYLE3
100
AcDbText
  0
TEXT
  5
2340
330
18
100
AcDbEntity
  8
0
  6
Continuous
100
AcDbText
 10
424.1722378327176
 20
177.334356972839
 30
0.0
 40
3.0
  1
日 付
  7
STYLE3
100
AcDbText
  0
TEXT
  5
2341
330
18
100
AcDbEntity
  8
0
  6
Continuous
100
AcDbText
 10
433.3004068327176
 20
175.7494149728391
 30
0.0
 40
2.1
  1
2010.06.14
  7
STYLE3
100
AcDbText
  0
TEXT
  5
2342
330
18
100
AcDbEntity
  8
0
  6
Continuous
100
AcDbText
 10
453.7049608327176
 20
177.788911972839
 30
0.0
 40
3.0
  1
株式会社　尾崎製作所
  7
STYLE3
100
AcDbText
  0
TEXT
  5
2343
330
18
100
AcDbEntity
  8
0
  6
Continuous
100
AcDbText
 10
454.5794398327176
 20
174.001272972839
 30
0.0
 40
2.1
  1
OZAKI MFG. CO., LTD.
  7
STYLE3
100
AcDbText
  0
ENDSEC
  0
SECTION
  2
OBJECTS
  0
DICTIONARY
  5
C
330
0
100
AcDbDictionary
281
     1
  3
ACAD_COLOR
350
1D5F
  3
ACAD_GROUP
350
D
  3
ACAD_IMAGE_DICT
350
B2C
  3
ACAD_LAYOUT
350
1D62
  3
ACAD_MATERIAL
350
1D5E
  3
ACAD_MLINESTYLE
350
1B
  3
ACAD_PLOTSETTINGS
350
1D63
  3
ACAD_PLOTSTYLENAME
350
1D5C
  3
ACAD_TABLESTYLE
350
1D60
  3
ACDBVARIABLEDICTIONARY
350
1297
  3
AVE_ACITABLE
350
1835
  0
DICTIONARY
  5
1D6B
330
1D6A
100
AcDbDictionary
280
     1
281
     1
  3
ACAD_SORTENTS
360
1D6C
  0
DICTIONARY
  5
1D5F
102
{ACAD_REACTORS
330
C
102
}
330
C
100
AcDbDictionary
281
     1
  0
DICTIONARY
  5
D
102
{ACAD_REACTORS
330
C
102
}
330
C
100
AcDbDictionary
281
     1
  0
DICTIONARY
  5
B2C
102
{ACAD_REACTORS
330
C
102
}
330
C
100
AcDbDictionary
281
     1
  3
ROGO01
350
B2D
  0
DICTIONARY
  5
1D62
102
{ACAD_REACTORS
330
C
102
}
330
C
100
AcDbDictionary
281
     1
  3
Model
350
1D64
  3
レイアウト1
350
1D65
  0
DICTIONARY
  5
1D5E
102
{ACAD_REACTORS
330
C
102
}
330
C
100
AcDbDictionary
281
     1
  0
DICTIONARY
  5
1B
102
{ACAD_REACTORS
330
C
102
}
330
C
100
AcDbDictionary
281
     1
  3
STANDARD
350
1C
  0
DICTIONARY
  5
1D63
102
{ACAD_REACTORS
330
C
102
}
330
C
100
AcDbDictionary
281
     1
  0
ACDBDICTIONARYWDFLT
  5
1D5C
102
{ACAD_REACTORS
330
C
102
}
330
C
100
AcDbDictionary
281
     1
  3
Normal
350
1D5D
100
AcDbDictionaryWithDefault
340
1D5D
  0
DICTIONARY
  5
1D60
102
{ACAD_REACTORS
330
C
102
}
330
C
100
AcDbDictionary
281
     1
  3
Standard
350
1D61
  0
DICTIONARY
  5
1297
102
{ACAD_REACTORS
330
C
102
}
330
C
100
AcDbDictionary
281
     1
  3
CTABLESTYLE
350
22BC
  3
SORTENTS
350
1298
  0
DICTIONARY
  5
1835
102
{ACAD_REACTORS
330
C
102
}
330
C
100
AcDbDictionary
281
     1
  0
SORTENTSTABLE
  5
1D6C
102
{ACAD_REACTORS
330
1D6B
102
}
330
1D6B
100
AcDbSortentsTable
330
1D6A
  0
IMAGEDEF
  5
B2D
102
{ACAD_REACTORS
330
B2C
102
}
330
B2C
100
AcDbRasterImageDef
 90
        0
  1
D:\ﾃｽﾄ\rogo01.TIF
 10
3388.0
 20
4668.0
 11
0.0635
 21
0.0635
280
     1
281
     5
  0
LAYOUT
  5
1D64
102
{ACAD_REACTORS
330
1D62
102
}
330
1D62
100
AcDbPlotSettings
  1

  2
A4 EPSON LP-6100.pc3
  4
A4
  6

 40
5.873749732971191
 41
5.873747825622558
 42
5.873748779296875
 43
5.873748779296875
 44
209.9733276367187
 45
297.0106506347656
 46
0.9
 47
25.0
 48
0.0
 49
0.0
140
0.0
141
0.0
142
1.0
143
1.0
 70
 28336
 72
     1
 73
     1
 74
     1
  7
AutoCAD LT 98.ctb
 75
    16
147
1.0
 76
     1
 77
     2
 78
   300
148
-236.4583299658804
149
-171.6287543638684
100
AcDbLayout
  1
Model
 70
     1
 71
     0
 10
0.0
 20
0.0
 11
12.0
 21
9.0
 12
0.0
 22
0.0
 32
0.0
 14
0.0
 24
0.0
 34
0.0
 15
0.0
 25
0.0
 35
0.0
146
0.0
 13
0.0
 23
0.0
 33
0.0
 16
1.0
 26
0.0
 36
0.0
 17
0.0
 27
1.0
 37
0.0
 76
     0
330
18
1001
ACAD_PSEXT
1000
A4 EPSON LP-6100.pc3
1000
EPSON LP-6100
1000
\\SATO-MATE2
1000

1070
     0
  0
LAYOUT
  5
1D65
102
{ACAD_REACTORS
330
1D62
102
}
330
1D62
100
AcDbPlotSettings
  1

  2
WIDR Printer
  4

  6

 40
0.0
 41
0.0
 42
0.0
 43
0.0
 44
0.0
 45
0.0
 46
0.0
 47
0.0
 48
0.0
 49
0.0
140
0.0
141
0.0
142
1.0
143
1.0
 70
   688
 72
     0
 73
     0
 74
     5
  7
AutoCad LT 98.ctb
 75
    16
147
1.0
 76
     0
 77
     2
 78
   300
148
0.0
149
0.0
100
AcDbLayout
  1
レイアウト1
 70
     1
 71
     1
 10
0.0
 20
0.0
 11
420.0
 21
297.0
 12
0.0
 22
0.0
 32
0.0
 14
1.000000000000000E+20
 24
1.000000000000000E+20
 34
1.000000000000000E+20
 15
-1.000000000000000E+20
 25
-1.000000000000000E+20
 35
-1.000000000000000E+20
146
0.0
 13
0.0
 23
0.0
 33
0.0
 16
1.0
 26
0.0
 36
0.0
 17
0.0
 27
1.0
 37
0.0
 76
     0
330
15
  0
MLINESTYLE
  5
1C
102
{ACAD_REACTORS
330
1B
102
}
330
1B
100
AcDbMlineStyle
  2
STANDARD
 70
     0
  3

 62
   256
 51
90.0
 52
90.0
 71
     2
 49
0.5
 62
   256
  6
BYLAYER
 49
-0.5
 62
   256
  6
BYLAYER
  0
ACDBPLACEHOLDER
  5
1D5D
102
{ACAD_REACTORS
330
1D5C
102
}
330
1D5C
  0
ACAD_PROXY_OBJECT
  5
1D61
102
{ACAD_REACTORS
330
1D60
102
}
330
1D60
100
AcDbProxyObject
 90
      499
 91
      505
 95
  2555929
 70
     0
 93
     1849
310
4214DD185B99185C992420000000000000F83F0000000000003E0FC00000000000004901028000000C1008070000C3001FDFF8000000C1003FBFF000000182007F7FE00000030400FEFFC00000060801FDFF8000000C1003FBFF000000182000000000000000C2020B0000001820100E000186003FBFF000000182007F7FE0
310
0000030400FEFFC00000060801FDFF8000000C1003FBFF000000182007F7FE0000003040000000000000012404160000003040201C00030C007F7FE00000030400FEFFC00000060801FDFF8000000C1003FBFF000000182007F7FE00000030400FEFFC000000608064
340
F
340
F
340
F
 94
        0
  0
DICTIONARYVAR
  5
22BC
102
{ACAD_REACTORS
330
1297
102
}
330
1297
100
DictionaryVariables
280
     0
  1
STANDARD
  0
DICTIONARYVAR
  5
1298
102
{ACAD_REACTORS
330
1297
102
}
330
1297
100
DictionaryVariables
280
     0
  1
96
  0
ENDSEC
  0
EOF
